Oops, an error
Loading. Please wait.

Crazy Train Tab

3,450,136 views 5,459 this week
358 commentsread comments
1 2 3 4 5
excellent!
x 1,027
Autoscroll
+/-
esc
set tempo
stop
Hey! There's an official Ultimate Guitar app which is ideal
for learning songs when you're away from computer. Get the app
WARNING: You are trying to view
                                    content from Ultimate-Guitar.com
                                    in an unauthorized application,
                                    which is prohibited.

                                    Please use an official Ultimate
                                    Guitar Tabs application for iPhone,
                                    iPad or Android to access legitimate
                                    chords, guitar, bass, and drum tabs
                                    from Ultimate-Guitar.com database.

                                    Type "ultimate guitar tabs" in Apple
                                    App Store's or Android Market's
                                    search to find the application.
Title: Crazy Train
Artist: Ozzy Osbourne
Album: Blizzard of Oz
Year: 2002
Tabbed By: Randy's Biggest Fan: srvlives4evr@yahoo.com

Key:
15\        =    Slide down the neck (From 22 to 0)
12/        =    Slide up the neck (From 0 to 22)
X\ or X/   =    Pick Slide
3~         =    Slight bend or trill
8^         =    Full bend
4*         =    Harmonic
m          =    Palm Mute
p          =    Pull Off
h          =    Hammer On
(14)       =    A Note That I Add, Recommend or Enjoy
T          =    Tap


R          =    A tap and pull off with your right hand (explained where applicable)



*THANK YOU FOR LOOKING UP GOOD MUSIC*



Standard Tuning

Bass Intro (Can be played on an Electric guitar with power chords [or not] if desired)
Repeat 2 times

G  ---------------------------------------------------------------------------
D  ---------------------------------------------------------------------------
A  ------00---------------------55--------------------00--------------55--77--
E  22---------00---22----------------00---22---------------00---22------------


Guitar Intro
   PIck Slide down the neck                      Repeat this section Three times
e  X\---X\---------------------|-------------------------------------------------
B  X\---X\-------X\-----X\-----|-------------------------------------------------
G  --------------X\-----X\-----|-------------------------------------------------
D  ----------------------------|-------------------------------------------------
A  ----------------------------|----------4-------5-------4-------2--------------
E  ----------------------------|-----22-------2-------2-------2-------5---4---5--
                                     mm       m       m       m       m   m   m
and then continue      At the end of this section, I add in what is labeled in
                       parentheses, and i believe Randy used to play this live
e  -----------------|-----------------------------------------------------------
B  -----------------|-----------------------------------------------------------
G  -----------------|-----------------------------------------------------------
D  -----------------|----------------------------------7-------9----------------
A  2----------------|----------4-------5-------4-------5-------7------(12\)-----
E  ----5---4---0----|-----22-------2-------2-------2------------------(12\)-----
       m   m   m          mm       m       m
Now for Randy's famous Main Riff, the way I play it (and I advise a lot of alternate picking
for the A-string notes):

e  -----------------------------------------------------------------------------------------
B  --------------5----------------5----------------3----------------------------------------
G  --------------6----------------4----------------2----------------2------------2----------
D  --------------7----------------6----------------4----------------2------------2----------
A  0-----00----------000--------------000---------------000---------0------------0----------
E  ---------------------------------------------------------------------------3~------------
   m     mm          mmm              mmm               mmm                   m

e  -----------------------------------------------------------------------------------------
B  --------------5----------------5----------------3------------------------pp--------------
G  --------------6----------------4----------------2----------------2------420-----pp-------
D  --------------7----------------6----------------4----------------2-------------420-----pp
A  0-----00----------000--------------000---------------000---------0--------------------420
E  -----------------------------------------------------------------------------------------
   m     mm          mmm              mmm               mmm

	

Now repeat the following Line Seven Times
e  ---------------------------------------------------------------------------------------
B  --------------5----------------5----------------3--------------------------------------
G  --------------6----------------4----------------2----------------2------------2--------
D  --------------7----------------6----------------4----------------2------------2--------
A  0-----00----------000--------------000---------------000---------0------------0--------
E  ---------------------------------------------------------------------------3~-----------
   m     mm          mmm              mmm               mmm                   m

	And play into this One, where the Main Verse Riff ends:

e  -------5------------------------------------------------------
B  -------5---------------------------p--------------------------
G  ---------------------4------------70-------2------------------
D  ---------------------2------------70-------2------------------
A  00------------00------------00--------0----0--------(12\)-----
E  ----------------------------------------------------(12\)-----
   mm            mm            mm        m


e  ------------------------------------------------------------------------------------------
B  ---------------[Slight tremolo bend after playing of both harmonics]----------------------
G  -----------------------7*----------------------------------------------2------------------
D  --------------7-----7*-------------------------7-----------------------2------------------
A  4---4---4-----5------------------4---4---4-----5--------5-5---4---2----0---------2--------
E  2---0---2------------------------2---0---2-----------7---------------------4--2--0---2--4-
   m   m   m                        m   m   m           m  m m   m   m

Fill #1  (I love this fill, Personally, it is one of my all-time favorites)
To play this fill to Randy's speed, Alternate picking is essential.

e  --------2-----------------------------------------------------
B  -----2-------5--2------2--------------------------------------
G  4^-----------------5------5--4--2-----4--2--------------------
D  -----------------------------------4--------4--2----------p---
A  --------------------------------------------------4--2~-0-----
E  --------------------------------------------------------------

Sweet.

e  ------------------------------------------------------------------
B  ------------------------------------------------------------------
G  ------------------------------------------------------------------
D  2-----------------------------------------------2-----------------
A  0-----------2-----------4---4---4---------------0-----------2-----
E  ----4---2---0---2---4---2---0---2---0---2---4-------4---2---0-----
       m   m       m   m   m   m   m   m   m   m       m   m   m

e  --------------------------------------------
B  --------------------------------------------
G  --------------------------------------------
D  --------------------------------7-----9-----
A  --------4---4---4---------------5-----7-----
E  2---4---2---0---2---0---2---4---------------
   m   m   m   m   m   m   m   m

Then Main Verse Riff again, followed by:

e  -----------------------------------------------------------------------------------------
B  ---------------[Slight tremolo bend after playing of both harmonics]---------------------
G  -----------------------7*----------------------------------------------2-----------------
D  --------------7-----7*-------------------------7-----------------------2-----------------
A  4---4---4-----5------------------4---4---4-----5--------5-5---4---2----0---------2-------
E  2---0---2------------------------2---0---2-----------7---------------------4--2--0---2--4
   m   m   m                        m   m   m           m  m m   m   m

Fill #2
        p          p           p           p
e  ---12-9-------13-10-------14-11-------15-12-------16-13-------17-14--------18-15-----19\-
B  10---------11----------12----------13----------14----------15-----------16---------------
G  -----------------------------------------------------------------------------------------
D  -----------------------------------------------------------------------------------------
A  -----------------------------------------------------------------------------------------
E  -----------------------------------------------------------------------------------------


Again, Sweet.

e  ------------------------------------------------------------------
B  ------------------------------------------------------------------
G  ------------------------------------------------------------------
D  2-----------------------------------------------2-----------------
A  0-----------2-----------4---4---4---------------0-----------2-----
E  ----4---2---0---2---4---2---0---2---0---2---4-------4---2---0-----
       m   m       m   m   m   m   m   m   m   m       m   m   m


e  --------------------------------------------
B  --------------------------------------------
G  --------------------------------------------
D  --------------------------------7-----9-----
A  --------4---4---4---------------5-----7-----
E  2---4---2---0---2---0---2---4---------------
   m   m   m   m   m   m   m   m


Pre-Solo:  "Iknow that things are going wrong for me..."                   "Ye-ah"
e  ---------------------------------------------------------------------------------
B  ---------------------------------------------------------------------------------
G  ---------------------------------------------------------------------------------
D  --------2-2-------------------7-7----9-9---11\-----2-2--------------------7---9--
A  4-4\----0-0----2-2----4-4\----5-5----7-7----9\-----0-0----2-2----4-4\-----5---7--
E  2-2\-----------0-0----2-2\--------------------------------0-0----2-2\------------

 (this is hella sweet)
I reccoment to listen to the the solo as you learn it;
it will make the noise make more sense.

The tapping in this section is two very fast taps that almost sound as though they were
only one tap, when first learning this solo i recommend only tapping once each time.

e  -T--T----p------T--T----p------T--T----p------T--T----p-----
B  14-14--10-7----14-14--10-7----14-14--10-7----14-14--10-7----
G  ------------------------------------------------------------
D  ------------------------------------------------------------
A  ------------------------------------------------------------
E  ------------------------------------------------------------

e  -T--T----p------T--T----p------T--T----p------T--T----p-----
B  15-15--10-7----15-15--10-7----15-15--10-7----15-15--10-7----
G  ------------------------------------------------------------
D  ------------------------------------------------------------
A  ------------------------------------------------------------
E  ------------------------------------------------------------

Here in this next bit, you could continue hammering on and pulling off the 10 and 12
and slide your hand in-motion to the 9 and 11, or use your tremolo (sissy stick) to
get the same sound. Your call.

e  -h--p--h--p--h--p--h--p-h--p-h--p--h--p--h----------------17-16-14-(14)-(14)-16-17-17/19-
B 10-12-10-12-10-12-10-12-9-11-9-11-10-12-10-12------10----------------17^--17^-------------
G  ------------------------------------------------9^--9------------------------------------
D  -----------------------------------------------------------------------------------------
A  -----------------------------------------------------------------------------------------
E  -----------------------------------------------------------------------------------------

The big secret to play this line right is to practice it until you
and your fingers know it right, then try to match the speed.

e  16--17--16------16--------------------------------------------
B  ------------19----19--17--16-------------------17-------------
G  ------------------------------18--16--14--16^------16^--14----
D  --------------------------------------------------------------
A  --------------------------------------------------------------
E  --------------------------------------------------------------


The "R" is for your tapping finger to pull-off the note as your left hand
may be used to doing, only this is done with your right hand tapping finger.
In the following lines Randy made his sound by tapping the same fret between
consecutive hammer-ons and pull-offs.

    TR  h  p     TR  h  p     TR  h  p     TR  h  p
e  17-14-17-14--17-14-17-14--17-14-17-14--17-14-17-14----
B  ------------------------------------------------------
G  ------------------------------------------------------
D  ------------------------------------------------------
A  ------------------------------------------------------
E  ------------------------------------------------------

    TR  h  p     TR  h  p     TR  h  p     TR  h  p       TR  h  p
e  17-14-17-14--17-14-17-14--17-14-17-14--17-14-17-14----19-14-17-14-
B  ------------------------------------------------------------------
G  ------------------------------------------------------------------
D  ------------------------------------------------------------------
A  ------------------------------------------------------------------
E  ------------------------------------------------------------------

    TR  h  p     TR  h  p     TR  h  p     TR  h  p
e  21-17-21-17--21-17-21-17--21-17-21-17--21-17-21-17----
B  ------------------------------------------------------
G  ------------------------------------------------------
D  ------------------------------------------------------
A  ------------------------------------------------------
E  ------------------------------------------------------

    TR  h  p     TR  h  p     TR  h  p     TR  h  p       TR  h  p
e  21-17-21-17--21-17-21-17--21-17-21-17--21-17-21-17----21-16-19-16-
B  ------------------------------------------------------------------
G  ------------------------------------------------------------------
D  ------------------------------------------------------------------
A  ------------------------------------------------------------------
E  ------------------------------------------------------------------

    TR  h  p     TR  h  p     TR  h  p     TR  h  p
e  19-16-19-16--19-16-19-16--19-16-19-16--19-16-19-16----
B  ------------------------------------------------------
G  ------------------------------------------------------
D  ------------------------------------------------------
A  ------------------------------------------------------
E  ------------------------------------------------------

    TR  h  p     TR  h  p     TR  h  p     TR  h  p
e  19-16-19-16--19-16-19-16--19-16-19-16--19-16-19-16------17---
B  ------------------------------------------------------17^-17-
G  -------------------------------------------------------------
D  -------------------------------------------------------------
A  -------------------------------------------------------------
E  -------------------------------------------------------------

e  -------------------------------------------------------------------
B  -------------------------------------------------------h-----------
G  14--13-11---11----p-------11----p-------11----p------11-13~--13/16-
D  ----------------14-11---------14-11---------14-11------------------
A  ----------------------14------------14------------14---------------
E  -------------------------------------------------------------------


e  -----------------------------------------19^-19^--19~---
B  --------------------------h-------17-19-----------------
G  -------------------h----14-16/18------------------------
D  ---------h-------14-16----------------------------------
A  --h----12-14/16-----------------------------------------
E  12-14---------------------------------------------------

End Solo
I like that one =)
and glad its tabbed

   Like in the beginning, play this lick three times before you continue.
e  -------------------------------------------------
B  -------------------------------------------------
G  -------------------------------------------------
D  -------------------------------------------------
A  ----------4-------5-------4-------2--------------
E  -----22-------2-------2-------2-------5---4---5--
        mm       m       m       m       m   m   m


e  -----------------|-----------------------------------------------------------
B  -----------------|-----------------------------------------------------------
G  -----------------|-----------------------------------------------------------
D  -----------------|----------------------------------7-------9----------------
A  2----------------|----------4-------5-------4-------5-------7------(12\)-----
E  ----5---4---0----|-----22-------2-------2-------2------------------(12\)-----
       m   m   m          mm       m       m


e  ------------------------------------------------------------------------------------------
B  --------------5----------------5----------------3-----------------------------------------
G  --------------6----------------4----------------2----------------2------------2-----------
D  --------------7----------------6----------------4----------------2------------2-----------
A  0-----00----------000--------------000---------------000---------0------------0-----------
E  ---------------------------------------------------------------------------3~-------------
   m     mm          mmm              mmm               mmm                   m

e  ------------------------------------------------------------------------------------------
B  --------------5----------------5----------------3------------------------pp---------------
G  --------------6----------------4----------------2----------------2------420-----pp--------
D  --------------7----------------6----------------4----------------2-------------420-----pp-
A  0-----00----------000--------------000---------------000---------0--------------------420-
E  ------------------------------------------------------------------------------------------
   m     mm          mmm              mmm               mmm

	Now repeat the following two lines until it switches...
e  -------------------------------------------------------------------------------------------
B  --------------5----------------5----------------3-----------------------------------------
G  --------------6----------------4----------------2----------------2------------2-----------
D  --------------7----------------6----------------4----------------2------------2-----------
A  0-----00----------000--------------000---------------000---------0------------0-----------
E  ---------------------------------------------------------------------------3~-------------
   m     mm          mmm              mmm               mmm                   m

e  ------------------------------------------------------------------------------------------
B  --------------5----------------5----------------3-----------------------------------------
G  --------------6----------------4----------------2----------------2------------------------
D  --------------7----------------6----------------4----------------2------------------------
A  0-----00----------000--------------000---------------000---------0------------------------
E  ---------------------------------------------------------------------------3~~~-----------
   m     mm          mmm              mmm               mmm                   m



And play into this One, where the Main Verse Riff ends:

e  -------5------------------------------------------------------
B  -------5---------------------------p--------------------------
G  ---------------------4------------70-------2------------------
D  ---------------------2------------70-------2------------------
A  00------------00------------00--------0----0--------(12\)-----
E  ----------------------------------------------------(12\)-----
   mm            mm            mm        m

e  -----------------------------7*-----------------------------------------------------------
B  --------------------------7*--------------------------------------------------------------
G  -----------------------7*----------------------------------------------2------------------
D  --------------7-----7*-------------------------7-----------------------2------------------
A  4---4---4-----5------------------4---4---4-----5--------5-5---4---2----0---------2--------
E  2---0---2------------------------2---0---2-----------7---------------------4--2--0---2--4-
   m   m   m                        m   m   m           m  m m   m   m

For the third fill, I cannot figure out what he does in the studio
(although it is similar to fill #2)
And live he plays this for fill #3

e  -------14----------------------------------------------------
B  ----14----17-14----14----------------------------------------
G  16^-------------17-----17-16-14----16-14---------------------
D  --------------------------------16-------16-14---------------
A  ------------------------------------------------16-14~---0---
E  -------------------------------------------------------------

e  ------------------------------------------------------------------
B  ------------------------------------------------------------------
G  ------------------------------------------------------------------
D  2-----------------------------------------------2-----------------
A  0-----------2-----------4---4---4---------------0-----------2-----
E  ----4---2---0---2---4---2---0---2---0---2---4-------4---2---0-----
       m   m       m   m   m   m   m   m   m   m       m   m   m


e  --------------------------------------------
B  --------------------------------------------
G  --------------------------------------------
D  --------------------------------7-----9-----
A  --------4---4---4---------------5-----7-----
E  2---4---2---0---2---0---2---4---------------
   m   m   m   m   m   m   m   m

Then it ends fading out and repeating this riff:

e  ----------------------------------------------------------------------
B  ----------------------------------------------------------------------
G  ----------------------------------------------------------------------
D  --------2-2-------------------7-7----9-9---11\-----2-2----------------
A  4-4\----0-0----2-2----4-4\----5-5----7-7----9\-----0-0----2-2----4-4\-
E  2-2\-----------0-0----2-2\--------------------------------0-0----2-2\-
comments
print report bad tab
358 comments total. Showing first comments. show 1 bad comment
+8 reply
crazy_geetarist wrote on November 6 2002, 12:00 am

good stuff, pretty much perfect

+20 reply
-Spiders- wrote on November 7 2002, 12:00 am

dude...i love u submiting these tabs (not litrally) i looked for months for the full tabs for this song! ur the best....one more thing, who cares if he copied it or not its here now! thats what importent.

I want to post or [tab]
guest
You may want to rate the tab now too:
select rating
Please do not post tabs as comments. Select "correction" instead!