Oops, an error
Loading. Please wait.

Let Me Hear You Scream Tab

ver1
ver1

Whole song

Interactive

More versions @911Tabs.com
68,210 views 24 this week
4 commentsread comments
1 2 3 4 5
accurate
x 8
Autoscroll
+/-
esc
set tempo
stop
Contributor
Difficulty
Tuning
Tabbers playing skills
advanced
D A D G B E
advanced ++
Hey! There's an official Ultimate Guitar app which is ideal
for learning songs when you're away from computer. Get the app
WARNING: You are trying to view
                                    content from Ultimate-Guitar.com
                                    in an unauthorized application,
                                    which is prohibited.

                                    Please use an official Ultimate
                                    Guitar Tabs application for iPhone,
                                    iPad or Android to access legitimate
                                    chords, guitar, bass, and drum tabs
                                    from Ultimate-Guitar.com database.

                                    Type "ultimate guitar tabs" in Apple
                                    App Store's or Android Market's
                                    search to find the application.
-------------------------------------------------------------------------------
                             LET ME HEAR YOU SCREAM - Ozzy Osbourne
-------------------------------------------------------------------------------
Tabbed by: Isaias Garcia (TexasFury)

Tuning: Drop D


Rhythm Guitar

     Intro
     H           H            E  E  S E.  E  E  S E.     E  E  S E.  E  E  S E.
E||------------------------|--------------------------|--------------------------|
B||------------------------|--------------------------|--------------------------|
G||------------------------|--------------------------|--------------------------|
D||------------------------|--------------------------|--------------------------|
A||------------------------|--3--3--------6--6--------|--3--3--------6--6--------|
D||-----------7g15\--------|--3--3----0---6--6--x-0---|--3--3----0---6--6--x-0---|


                                                                                  PM PM PMPM
  E  E  S E.  E  E  S E.     Q    Q    Q       Q        E  S  S S S  S S S  S S S S  S  S S
--------------------------|--------------------------|----------------------------------------|
--------------------------|--------------------------|----------------------------------------|
--------------------------|--------------------------|----------------------------------------|
--------------------------|--------------------------|----------------------------------------|
--3--3--------6--6--------|--3-----------------------|----------------------------5--3--0-----|
--3--3----0---6--6--x-0---|--3--------------7g12\----|--0--3h-5-0-3h-5-0-3h-5-0-0----------5--|


                        PM PM PM PM PM PM                          PM PM PM PM PM PM
  E  S  S S S  S S S  S S  S  S  S  S  S     E  S  S S S  S S S  S S  S  S  S  S  S
------------------------------------------|------------------------------------------|
------------------------------------------|------------------------------------------|
------------------------------------------|------------------------------------------|
------------------------------------------|------------------------------------------|
------------------------------------------|------------------------------5--3--0-----|
--0--3h-5-0-3h-5-0-3h-5-0--0--6--6--5--5--|--0--3h-5-0-3h-5-0-3h-5-0--0-----------5--|


                                           Verse 1
                            PM PM PM PM    PM PM PM PM PM PM PM PM PM PM PM PM PM PM PM
  E  S  S S S  S S S  S S S S  S  S  S     E  S  S  S  S  S  S  S  S  S  S  S  S  S  S
----------------------------------------|-----------------------------------------------|
----------------------------------------|-----------------------------------------------|
----------------------------------------|-----------------------------------------------|
----------------------------------------|-----------------------------------------------|
----------------------------------------|-----------------------------------------------|
--0--3h-5-0-3h-5-0-3h-5-0-0-6--6--5--5--|--0--3--5--0--3--5--0--3--5--0--0--0--0--0--0--|


  PM PM PM PM PM PM PM PM PM PM PM     PM PM    PM PM PM PM PM PM PM PM PM PM PM PM PM PMPM
  E  S  S  S  S  S  S  S  S  S  S  E   S  S     E  S  S  S  S  S  S  S  S  S  S  S  S  S 
S
---------------------------------------------|-----------------------------------------------|
---------------------------------------------|-----------------------------------------------|
---------------------------------------------|-----------------------------------------------|
---------------------------------------------|-----------------------------------------------|
---------------------------------------------|-----------------------------------------------|
--0--3--5--0--3--5--0--3--5--0--0--3~--0--0--|--0--3--5--0--3--5--0--3--5--0--0--0--0--0--0--|


                        PM PM            PM PM PM PM PM PM PM PM PM PM PM PM PM PM PM
  E  S  S S S  S S S  S S  S  S S S S    E  S  S  S  S  S  S  S  S  S  S  S  S  S  S
--------------------------------------|-----------------------------------------------|
--------------------------------------|-----------------------------------------------|
--------------------------------------|-----------------------------------------------|
--------------------------------------|-----------------------------------------------|
-----3h-5---3h-5---3h-5-------5-3-0---|-----------------------------------------------|
--0--3h-5-0-3h-5-0-3h-5-0--0--------5-|--0--3--5--0--3--5--0--3--5--0--0--0--0--0--0--|


  PM PM PM PM PM PM PM PM PM PM PM     PM PM    PM PM PM PM PM PM PM PM PM PM PM PM PM PMPM
  E  S  S  S  S  S  S  S  S  S  S  E   S  S     E  S  S  S  S  S  S  S  S  S  S  S  S  S 
S
---------------------------------------------|-----------------------------------------------|
---------------------------------------------|-----------------------------------------------|
---------------------------------------------|-----------------------------------------------|
---------------------------------------------|-----------------------------------------------|
---------------------------------------------|-----------------------------------------------|
--0--3--5--0--3--5--0--3--5--0--0--3~--0--0--|--0--3--5--0--3--5--0--3--5--0--0--0--0--0--0--|


                        PM PM            PM PM PM PM PM PM PM PM PM PM PM PM PM PM PM
  E  S  S S S  S S S  S S  S  S S S S    E  S  S  S  S  S  S  S  S  S  S  S  S  S  S
--------------------------------------|-----------------------------------------------|
--------------------------------------|-----------------------------------------------|
--------------------------------------|-----------------------------------------------|
--------------------------------------|-----------------------------------------------|
-----3h-5---3h-5---3h-5-------5-3-0---|-----------------------------------------------|
--0--3h-5-0-3h-5-0-3h-5-0--0--------5-|--0--3--5--0--3--5--0--3--5--0--0--0--0--0--0--|


  PM PM PM PM PM PM PM PM PM PM PM     PM PM    PM PM PM PM PM PM PM PM PM PM PM PM PM PMPM
  E  S  S  S  S  S  S  S  S  S  S  E   S  S     E  S  S  S  S  S  S  S  S  S  S  S  S  S 
S
---------------------------------------------|-----------------------------------------------|
---------------------------------------------|-----------------------------------------------|
---------------------------------------------|-----------------------------------------------|
---------------------------------------------|-----------------------------------------------|
---------------------------------------------|-----------------------------------------------|
--0--3--5--0--3--5--0--3--5--0--0--3~--0--0--|--0--3--5--0--3--5--0--3--5--0--0--0--0--0--0--|


                        PM PM            PM PM PM PM PM PM PM PM PM PM PM PM PM PM PM
  E  S  S S S  S S S  S S  S  S S S S    E  S  S  S  S  S  S  S  S  S  S  S  S  S  S
--------------------------------------|-----------------------------------------------|
--------------------------------------|-----------------------------------------------|
--------------------------------------|-----------------------------------------------|
--------------------------------------|-----------------------------------------------|
-----3h-5---3h-5---3h-5-------5-3-0---|-----------------------------------------------|
--0--3h-5-0-3h-5-0-3h-5-0--0--------5-|--0--3--5--0--3--5--0--3--5--0--0--0--0--0--0--|


  PM PM PM PM PM PM PM PM PM PM PM     PM PM    PM PM PM PM PM PM PM PM PM PM PM PM PM PMPM
  E  S  S  S  S  S  S  S  S  S  S  E   S  S     E  S  S  S  S  S  S  S  S  S  S  S  S  S 
S
---------------------------------------------|-----------------------------------------------|
---------------------------------------------|-----------------------------------------------|
---------------------------------------------|-----------------------------------------------|
---------------------------------------------|-----------------------------------------------|
---------------------------------------------|-----------------------------------------------|
--0--3--5--0--3--5--0--3--5--0--0--3~--0--0--|--0--3--5--0--3--5--0--3--5--0--0--0--0--0--0--|


                                         Pre-chorus
                        PM PM
  E  S  S S S  S S S  S S  S  S S S S    E  E  S E.  Q    E  E     E  E  E  E  Q.     E
--------------------------------------|-------------------------|------------------------|
--------------------------------------|-------------------------|------------------------|
--------------------------------------|-------------------------|------------------------|
--------------------------------------|-------------------------|------------------------|
-----3h-5---3h-5---3h-5-------5-3-0---|--8--8--L-8---8----8--8--|--8--8--L--8--L------8--|
--0--3h-5-0-3h-5-0-3h-5-0--0--------5-|--8--8--L-8---8----8--8--|--8--8--L--8--L------8--|


                                                              Chorus 1
                   PM PM PM PM
   H         Q     S  S  S  S     E   E   Q    Q     Q        W
------------------------------|----------------------------|-------------------|
------------------------------|----------------------------|-------------------|
------------------------------|----------------------------|-------------------|
------------------------------|----------------------------|--0----------------|
--10--------10----------------|--10---L\------------12\----|--0----------------|
--10--------10----10-10-10-10-|--10---L\------------12\----|--0----------------|


  H.            Q        H.           Q        H.              Q        W
----------------------|---------------------|------------------------|-------------------|
----------------------|---------------------|------------------------|-------------------|
----------------------|---------------------|------------------------|-------------------|
--L-------------------|--3------------------|--5---------------------|--0----------------|
--L-------------------|--3------------------|--5---------------------|--0----------------|
--L------------12\----|--3------------5b----|--5------------7g12\----|--0----------------|


                                           PM PM
  H.              Q        H.           E  S  S     Q.     E  Q     E   E
------------------------|------------------------|--------------------------|
------------------------|------------------------|--------------------------|
------------------------|------------------------|--------------------------|
--L---------------------|--3------------L--------|--5------5--5----12---L\--|
--L---------------------|--3------------L--------|--5------5--5----12---L\--|
--L------------7g12\----|--3------------L--3--3--|--5------5--5-------------|


                                                                                  SH
  S  S  S S  S  S S  S  S S  S  S S  S  S  S    S  S  S S  S  S S  S  S S  S  S   Q
---------------------------------------------|------------------------------------------|
---------------------------------------------|------------------------------------------|
---------------------------------------------|------------------------------------------|
---------------------------------------------|------------------------------------------|
---------------------------------------------|------------------------------------------|
--5p-3p-0-5p-3p-0-5p-3p-0-5p-3p-0-3h-5p-3p-0-|--5p-3p-0-5p-3p-0-5p-3p-0-5p-3p-0-<>6~----|


                                                                PM PM
  S  S  S S  S  S S  S  S S  S  S S  S  S  S    S  S  S S  S  S S  S  E  E   Q
---------------------------------------------|------------------------------------|
---------------------------------------------|------------------------------------|
---------------------------------------------|------------------------------------|
---------------------------------------------|------------------------------------|
---------------------------------------------|------------------------5--L\-------|
--5p-3p-0-5p-3p-0-5p-3p-0-5p-3p-0-3h-5p-3p-0-|--5p-3p-0-5p-3p-0-3--5--5--L\-------|


                            PM PM PM PM                          PM PM PM PM PM PM
  E  S  S S S  S S S  S S S S  S  S  S     E  S  S S S  S S S  S S  S  S  S  S  S
----------------------------------------|------------------------------------------|
----------------------------------------|------------------------------------------|
----------------------------------------|------------------------------------------|
----------------------------------------|------------------------------------------|
----------------------------5--3--0-----|------------------------------------------|
--0--3h-5-0-3h-5-0-3h-5-0-0----------5--|--0--3h-5-0-3h-5-0-3h-5-0--0--6--6--5--5--|


                            PM PM PM PM                          PM PM PM PM PM PM
  E  S  S S S  S S S  S S S S  S  S  S     E  S  S S S  S S S  S S  S  S  S  S  S
----------------------------------------|------------------------------------------|
----------------------------------------|------------------------------------------|
----------------------------------------|------------------------------------------|
----------------------------------------|------------------------------------------|
----------------------------5--3--0-----|-----3h-5---3h-5---3h-5-------------------|
--0--3h-5-0-3h-5-0-3h-5-0-0----------5--|--0--3h-5-0-3h-5-0-3h-5-0--0--6--6--5--5--|


  Verse 2
  PM PM PM PM PM PM PM PM PM PM PM PM PM PM PM    PM PM PM PM PM PM PM PM PM PM PM     PMPM
  E  S  S  S  S  S  S  S  S  S  S  S  S  S  S     E  S  S  S  S  S  S  S  S  S  S  E   S 
S
-----------------------------------------------|---------------------------------------------|
-----------------------------------------------|---------------------------------------------|
-----------------------------------------------|---------------------------------------------|
-----------------------------------------------|---------------------------------------------|
-----------------------------------------------|---------------------------------------------|
--0--3--5--0--3--5--0--3--5--0--0--0--0--0--0--|--0--3--5--0--3--5--0--3--5--0--0--3~--0--0--|


  PM PM PM PM PM PM PM PM PM PM PM PM PM PM PM                          PM PM
  E  S  S  S  S  S  S  S  S  S  S  S  S  S  S     E  S  S S S  S S S  S S  S  S S S S
-----------------------------------------------|--------------------------------------|
-----------------------------------------------|--------------------------------------|
-----------------------------------------------|--------------------------------------|
-----------------------------------------------|--------------------------------------|
-----------------------------------------------|-----3h-5---3h-5---3h-5-------5-3-0---|
--0--3--5--0--3--5--0--3--5--0--0--0--0--0--0--|--0--3h-5-0-3h-5-0-3h-5-0--0--------5-|


  PM PM PM PM PM PM PM PM PM PM PM PM PM PM PM    PM PM PM PM PM PM PM PM PM PM PM     PMPM
  E  S  S  S  S  S  S  S  S  S  S  S  S  S  S     E  S  S  S  S  S  S  S  S  S  S  E   S 
S
-----------------------------------------------|---------------------------------------------|
-----------------------------------------------|---------------------------------------------|
-----------------------------------------------|---------------------------------------------|
-----------------------------------------------|---------------------------------------------|
-----------------------------------------------|---------------------------------------------|
--0--3--5--0--3--5--0--3--5--0--0--0--0--0--0--|--0--3--5--0--3--5--0--3--5--0--0--3~--0--0--|


  PM PM PM PM PM PM PM PM PM PM PM PM PM PM PM                          PM PM
  E  S  S  S  S  S  S  S  S  S  S  S  S  S  S     E  S  S S S  S S S  S S  S  S S S S
-----------------------------------------------|--------------------------------------|
-----------------------------------------------|--------------------------------------|
-----------------------------------------------|--------------------------------------|
-----------------------------------------------|--------------------------------------|
-----------------------------------------------|-----3h-5---3h-5---3h-5-------5-3-0---|
--0--3--5--0--3--5--0--3--5--0--0--0--0--0--0--|--0--3h-5-0-3h-5-0-3h-5-0--0--------5-|


  PM PM PM PM PM PM PM PM PM PM PM PM PM PM PM    PM PM PM PM PM PM PM PM PM PM PM     PMPM
  E  S  S  S  S  S  S  S  S  S  S  S  S  S  S     E  S  S  S  S  S  S  S  S  S  S  E   S 
S
-----------------------------------------------|---------------------------------------------|
-----------------------------------------------|---------------------------------------------|
-----------------------------------------------|---------------------------------------------|
-----------------------------------------------|---------------------------------------------|
-----------------------------------------------|---------------------------------------------|
--0--3--5--0--3--5--0--3--5--0--0--0--0--0--0--|--0--3--5--0--3--5--0--3--5--0--0--3~--0--0--|


  PM PM PM PM PM PM PM PM PM PM PM PM PM PM PM                          PM PM
  E  S  S  S  S  S  S  S  S  S  S  S  S  S  S     E  S  S S S  S S S  S S  S  S S S S
-----------------------------------------------|--------------------------------------|
-----------------------------------------------|--------------------------------------|
-----------------------------------------------|--------------------------------------|
-----------------------------------------------|--------------------------------------|
-----------------------------------------------|-----3h-5---3h-5---3h-5-------5-3-0---|
--0--3--5--0--3--5--0--3--5--0--0--0--0--0--0--|--0--3h-5-0-3h-5-0-3h-5-0--0--------5-|


  PM PM PM PM PM PM PM PM PM PM PM PM PM PM PM    PM PM PM PM PM PM PM PM PM PM PM     PMPM
  E  S  S  S  S  S  S  S  S  S  S  S  S  S  S     E  S  S  S  S  S  S  S  S  S  S  E   S 
S
-----------------------------------------------|---------------------------------------------|
-----------------------------------------------|---------------------------------------------|
-----------------------------------------------|---------------------------------------------|
-----------------------------------------------|---------------------------------------------|
-----------------------------------------------|---------------------------------------------|
--0--3--5--0--3--5--0--3--5--0--0--0--0--0--0--|--0--3--5--0--3--5--0--3--5--0--0--3~--0--0--|


  PM PM PM PM PM PM PM PM PM PM PM PM PM PM PM                          PM PM
  E  S  S  S  S  S  S  S  S  S  S  S  S  S  S     E  S  S S S  S S S  S S  S  S S S S
-----------------------------------------------|--------------------------------------|
-----------------------------------------------|--------------------------------------|
-----------------------------------------------|--------------------------------------|
-----------------------------------------------|--------------------------------------|
-----------------------------------------------|-----3h-5---3h-5---3h-5-------5-3-0---|
--0--3--5--0--3--5--0--3--5--0--0--0--0--0--0--|--0--3h-5-0-3h-5-0-3h-5-0--0--------5-|


  Pre-chorus
                                                                   PM PM PM PM
  E  E  S E.  Q    E  E     E  E  E  E  Q.     E     H        Q    S  S  S  S
-------------------------|------------------------|----------------------------|
-------------------------|------------------------|----------------------------|
-------------------------|------------------------|----------------------------|
--3--3--L-3---3----3--3--|--3--3--L--3--L------3--|--5--------5----------------|
--1--1--L-1---1----1--1--|--1--1--L--1--L------1--|--3--------3----3--3--3--3--|
-------------------------|------------------------|----------------------------|


                             Chorus 2
  E  E   Q    Q     Q        W                   H.            Q        H.           Q
--------------------------|-------------------|----------------------|---------------------|
--------------------------|-------------------|----------------------|---------------------|
--------------------------|-------------------|----------------------|---------------------|
--5--L\-------------------|--0----------------|--L-------------------|--3------------------|
--3--L\------------12\----|--0----------------|--L-------------------|--3------------------|
-------------------12\----|--0----------------|--L------------12\----|--3------------5b----|


                                                                                      PM PM
  H.              Q        W                   H.            Q        H.           E  S  S
------------------------|-------------------|----------------------|------------------------|
------------------------|-------------------|----------------------|------------------------|
------------------------|-------------------|----------------------|------------------------|
--5---------------------|--0----------------|--L-------------------|--3------------L--------|
--5---------------------|--0----------------|--L-------------------|--3------------L--------|
--5------------7g12\----|--0----------------|--L------------12\----|--3------------L--3--3--|


  Q.     E  Q     E   E      S  S  S S  S  S S  S  S S  S  S S  S  S  S
--------------------------|---------------------------------------------|
--------------------------|---------------------------------------------|
--------------------------|---------------------------------------------|
--5------5--5----12---L\--|---------------------------------------------|
--5------5--5----12---L\--|---------------------------------------------|
--5------5--5-------------|--5p-3p-0-5p-3p-0-5p-3p-0-5p-3p-0-3h-5p-3p-0-|


                                    SH
  S  S  S S  S  S S  S  S S  S  S   Q        S  S  S S  S  S S  S  S S  S  S S  S  S  S
------------------------------------------|---------------------------------------------|
------------------------------------------|---------------------------------------------|
------------------------------------------|---------------------------------------------|
------------------------------------------|---------------------------------------------|
------------------------------------------|---------------------------------------------|
--5p-3p-0-5p-3p-0-5p-3p-0-5p-3p-0-<>6~----|--5p-3p-0-5p-3p-0-5p-3p-0-5p-3p-0-3h-5p-3p-0-|


  S  S  S S  S  S S S E  E   Q       E  E  S E.  E  E  S E.     E  E  S E.  E  E  S E.
----------------------------------|--------------------------|--------------------------|
----------------------------------|--------------------------|--------------------------|
----------------------------------|--------------------------|--------------------------|
----------------------------------|--------------------------|--------------------------|
----------------------5--L\-------|--3--3--------6--6--------|--3--3--------6--6--------|
--5p-3p-0-5p-3p-0-5-3-5--L\-------|--3--3----0---6--6--x-0---|--3--3----0---6--6--x-0---|


                                                        Guitar Solo
  E  E  S E.  E  E  S E.     E  E  S E.  E  E  S E.     E  E  S E.  E  E  S E.
--------------------------|--------------------------|--------------------------|
--------------------------|--------------------------|--------------------------|
--------------------------|--------------------------|--------------------------|
--------------------------|--------------------------|--------------------------|
--3--3--------6--6--------|--3--3--------6--6--------|--3--3--------6--6--------|
--3--3----0---6--6--x-0---|--3--3----0---6--6--x-0---|--3--3----0---6--6--x-0---|


  E  E  S E.  E  E  S E.     E  E  S E.  E  E  S E.     E  E  S E.  E  E  S E.
--------------------------|--------------------------|--------------------------|
--------------------------|--------------------------|--------------------------|
--------------------------|--------------------------|--------------------------|
--------------------------|--------------------------|--------------------------|
--3--3--------6--6--------|--3--3--------6--6--------|--3--3--------6--6--------|
--3--3----0---6--6--x-0---|--3--3----0---6--6--x-0---|--3--3----0---6--6--x-0---|


  E  E  S E.  E  E  S E.     E  E  S E.  E  E  S E.     E  E  S E.  E  E  S E.
--------------------------|--------------------------|--------------------------|
--------------------------|--------------------------|--------------------------|
--------------------------|--------------------------|--------------------------|
--------------------------|--------------------------|--------------------------|
--3--3--------6--6--------|--3--3--------6--6--------|--3--3--------6--6--------|
--3--3----0---6--6--x-0---|--3--3----0---6--6--x-0---|--3--3----0---6--6--x-0---|


                        Chorus 3
  Q    Q    H           W                   H.            Q        H.           Q
---------------------|-------------------|----------------------|---------------------|
---------------------|-------------------|----------------------|---------------------|
---------------------|-------------------|----------------------|---------------------|
---------------------|--0----------------|--L-------------------|--3------------------|
--3------------------|--0----------------|--L-------------------|--3------------------|
--3------------------|--0----------------|--L------------12\----|--3------------5b----|


                                                                                      PM PM
  H.              Q        W                   H.            Q        H.           E  S  S
------------------------|-------------------|----------------------|------------------------|
------------------------|-------------------|----------------------|------------------------|
------------------------|-------------------|----------------------|------------------------|
--5---------------------|--0----------------|--L-------------------|--3------------L--------|
--5---------------------|--0----------------|--L-------------------|--3------------L--------|
--5------------7g12\----|--0----------------|--L------------12\----|--3------------L--3--3--|


  Q.     E  Q     E   E      W                   H.            Q        H.           Q
--------------------------|-------------------|----------------------|---------------------|
--------------------------|-------------------|----------------------|---------------------|
--------------------------|-------------------|----------------------|---------------------|
--5------5--5----12---L\--|--0----------------|--L-------------------|--3------------------|
--5------5--5----12---L\--|--0----------------|--L-------------------|--3------------------|
--5------5--5-------------|--0----------------|--L------------12\----|--3------------5b----|


                                                                                      PM PM
  H.              Q        W                   H.            Q        H.           E  S  S
------------------------|-------------------|----------------------|------------------------|
------------------------|-------------------|----------------------|------------------------|
------------------------|-------------------|----------------------|------------------------|
--5---------------------|--0----------------|--L-------------------|--3------------L--------|
--5---------------------|--0----------------|--L-------------------|--3------------L--------|
--5------------7g12\----|--0----------------|--L------------12\----|--3------------L--3--3--|


  Q.     E  Q     E   E      S  S  S S  S  S S  S  S S  S  S S  S  S  S
--------------------------|---------------------------------------------|
--------------------------|---------------------------------------------|
--------------------------|---------------------------------------------|
--5------5--5----12---L\--|---------------------------------------------|
--5------5--5----12---L\--|---------------------------------------------|
--5------5--5-------------|--5p-3p-0-5p-3p-0-5p-3p-0-5p-3p-0-3h-5p-3p-0-|


                                    SH
  S  S  S S  S  S S  S  S S  S  S   Q        S  S  S S  S  S S  S  S S  S  S S  S  S  S
------------------------------------------|---------------------------------------------|
------------------------------------------|---------------------------------------------|
------------------------------------------|---------------------------------------------|
------------------------------------------|---------------------------------------------|
------------------------------------------|---------------------------------------------|
--5p-3p-0-5p-3p-0-5p-3p-0-5p-3p-0-<>6~----|--5p-3p-0-5p-3p-0-5p-3p-0-5p-3p-0-3h-5p-3p-0-|

  S  S  S S  S  S S  S  S S  S  S Q       Q                                        Q    H
---------------------------------------|---------------------------------------------------------||
---------------------------------------|---------------------------------------------------------||
----------------------------------7----|---------------------------------------------------------||
----------------------------------7----|--0------------------------------------------------------||
----------------------------------5----|--0------------------------------------------------------||
--5p-3p-0-5p-3p-0-5p-3p-0-5p-3p-0------|--0------------------------------------------------------||

Lead Guitar I

      Intro - m.6
      Q      H          E   E       Q      H          E   E       Q      H          E   E
E||-----------------------------|-----------------------------|-----------------------------|
B||--15------L----------L---L\--|--14------L----------L---L\--|--13------L----------L---L\--|
G||--17b-----L~---------L---L\--|--16b-----L~---------L---L\--|--15b-----L~---------L---L\--|
D||-----------------------------|-----------------------------|-----------------------------|
A||-----------------------------|-----------------------------|-----------------------------|
E||-----------------------------|-----------------------------|-----------------------------|


                                                       V
                     |---3---|
   Q       S    E.   S   S   S  S  S  S   S  S   S     W                     W
--------------------10h-12p-10---------------------|---------------------|--------------------|
--12-----------12--------------13-10---------------|---------------------|--------------------|
--14b~----14b~-------x---------------12p-10--------|---------------------|--------------------|
--------------------------------------------12p-10-|--12~----------------|---L----------------|
---------------------------------------------------|---------------------|--------------------|
---------------------------------------------------|---------------------|--------------------|

  Verse 1 - m.17
           ^
  Q    E   S  S  E    S  S  S  S  S  S        W                    E.   S  E   E   H
---------------------------------------|-----------------------|----------------------------|
---------------------------------------|-----------------------|----------------------------|
-------------10--L~--------------------|-----------------------|----------------------------|
-----------x---------12-10-------------|--10g12----------------|--11---11--L--11--11--------|
-----------x---------------12-11-10S-8-|-----------------------|----------------------------|
---------------------------------------|-----------------------|----------------------------|


                                                            echo
                                                   PM PM
   E.   S  E   E   H           E  E  E  E  Q.      S  S     S    E.   E   S   S H
----------------------------|---------------------------|--------------------------------|
----------------------------|---------------------------|--------------------------------|
----------------------------|---------------------------|--------------------------------|
--10---10--L--10--10--------|--9--9--L--9--9------12-10-|--10h--12----L--10h-12-L--------|
----------------------------|---------------------------|--------------------------------|
----------------------------|---------------------------|--------------------------------|


                                echo
   E.   S  E   E   H            S    E.   E  E  H           E  E  E   S   S  S  S  S  S  
 S  E
----------------------------|----------------------------|----------------------------------------|
----------------------------|----------------------------|----------------------------------------|
----------------------------|----------------------------|------------------10p-9-----------------|
--11---11--L--11---L--------|--10h--12----L--9--L--------|--9--9--L--(9)-12-------12-10-----------|
----------------------------|----------------------------|------------------------------12-10S-8--|
----------------------------|----------------------------|----------------------------------------|


     m.27
                                           |---3---|
     H         H             Q.       E    S   S   S  S  S  S  S  S  S     Q    Q    H
E||----------------------|----------------10h-12p-10-------------------|----------------------|
B||-----------13b--------|--13~------13\-------------13-10-------------|----------------------|
G||----------------------|---------------------------------12-10-------|----------------------|
D||----------------------|---------------------------------------14-12-|--10------------------|
A||----------------------|---------------------------------------------|----------------------|
E||----------------------|---------------------------------------------|----------------------|

  Chorus 1 - m.32
  H        Q    Q        S  S  S S  S  S S  S  S S  S  S S  S  S  S    W
----------------------|---------------------------------------------|-------------------|
----------------------|---------------------------------------------|-------------------|
----------------------|---------------------------------------------|-------------------|
----------------5b----|--5p-3p-0-5p-3p-0-5p-3p-0-5p-3p-0-3h-5p-3p-0-|-------------------|
----------------------|---------------------------------------------|-------------------|
----------------------|---------------------------------------------|-------------------|

   m.42
   H.              E   E       H.              E   E       H.              E   E
---------------------------|---------------------------|---------------------------|
--15---------------L---L\--|--14---------------L---L\--|--13---------------L---L\--|
--17b~-------------L---L\--|--16b~-------------L---L\--|--15b~-------------L---L\--|
---------------------------|---------------------------|---------------------------|
---------------------------|---------------------------|---------------------------|
---------------------------|---------------------------|---------------------------|


                                                  Verse 2
                                         PM PM
   Q       E   E    S   S  S   S  S   S  S  S     Q.       E   H           W
-----------------------10---------------------|-------------------------|-------------------|
--12-------L---L\--13b----13p-10--------------|-------------------------|-------------------|
--14b~-----L---L\----------------12p-10-------|-------------------------|-------------------|
----------------------------------------12-10-|--12~------10\-----------|-------------------|
----------------------------------------------|-----------10\-----------|-------------------|
----------------------------------------------|-------------------------|-------------------|


                       49                                    echo
  W                    S  E.   E   E   Q     S  S  S   S     S    E.  H.
-------------------|-------------------------------------|-------------------------|
-------------------|-------------------------------------|-------------------------|
-------------------|------------------------10p-9--------|-------------------------|
-------------------|--10-12~---L--12--12----------12p-10-|--10---12---L------------|
-------------------|-------------------------------------|-------------------------|
-------------------|-------------------------------------|-------------------------|


   W                    S  S  S   S  E   E   H           E.  S E  S  S  S  S  S   S  S  
E
--------------------|---------------------------------|--------------------------------------|
--------------------|---------------------------------|--------------------------------------|
--------------------|--10p-9--------------------------|----------------10p-9-----------------|
--11----------------|--------12p-10-12--10---L--------|--9---9----9-12-------12p-10----------|
--------------------|---------------------------------|-----------------------------12-10-8--|
--------------------|---------------------------------|--------------------------------------|


                                                        echo
   S  E.  H.               E   E   E   E   H            S    E.  Q    H
-----------------------|----------------------------|--------------------------|
-----------------------|----------------------------|--------------------------|
-----------------------|----------------------------|--------------------------|
--10-12---L------------|--11--11---L--11---L--------|--10h--12-----------------|
-----------------------|----------------------------|--------------------------|
-----------------------|----------------------------|--------------------------|


                                    echo
  E.  S E  E  Q     S  S  S   S     S    E.   E   S   S H
--------------------------------|--------------------------------|
--------------------------------|--------------------------------|
-------------------10p-9--------|--------------------------------|
--9---9----9-------------12p-10-|--10h--12----L--10h-12-L--------|
--------------------------------|--------------------------------|
--------------------------------|--------------------------------|


                                          echo
                     PM PM PMPM  PM PM
   E.   S E   E  E   S  S  S S   S  S     S    E.  Q    H
--------------------------------------|--------------------------|
--------------------------------------|--------------------------|
--------------------------10-9--------|--------------------------|
--11---11----11-----12-12-------12-12-|--10h--12-----------------|
--------------------------------------|--------------------------|
--------------------------------------|--------------------------|


  E.  S E  S  S  S  S  S   S  S  S S  S    W                   H         H
----------------------------------------|-------------------|----------------------|
----------------------------------------|-------------------|-----------13b--------|
----------------10p-9-------------------|-------------------|----------------------|
--9---9----9-12-------12p-10------------|-------------------|----------------------|
-----------------------------12-10-8S-7-|-------------------|----------------------|
----------------------------------------|-------------------|----------------------|


                 |---3---|
   Q.       E    S   S   S  S  S  S  S  S  S     Q      E   E  H
----------------10h-12p-10-------------------|--------------------------|
--13~------13\-------------13-10-------------|--------------------------|
---------------------------------12-10-------|--------------------------|
---------------------------------------14-12-|--10~-----L\--------------|
---------------------------------------------|--------------------------|
---------------------------------------------|--------------------------|


  Chorus 2
  H        Q    S  S  S  S    Q    E  S  S  S S  S  S S  S  S  S    H        S S  S  S Q
---------------------------|-------------------------------------|---------------------------|
---------------------------|-------------------------------------|---------------------------|
---------------------------|-------------------------------------|---------------------------|
----------------3h-5p-3p-0-|----------5p-3p-0-5p-3p-0-3h-5p-3p-0-|-------------5p-3p-0-5b----|
---------------------------|-------------------------------------|---------------------------|
---------------------------|-------------------------------------|---------------------------|


  S  S  S S  S  S S  S  S S  S  S S  S  S  S    W                   W
---------------------------------------------|-------------------|-------------------|
---------------------------------------------|-------------------|-------------------|
---------------------------------------------|-------------------|-------------------|
--5p-3p-0-5p-3p-0-5p-3p-0-5p-3p-0-3h-5p-3p-0-|-------------------|-------------------|
---------------------------------------------|-------------------|-------------------|
---------------------------------------------|-------------------|-------------------|

  m.80      pick scrape
  H         Q           E.   S
--------------------------------|
--------------------------------|
----------------------------(0)-|
--------------------------------|
------------x\----------x-------|
------------x\----------x-------|


        palm harmonics
        |--------3--------|  |--3--|  |--3--|  |--3--|  |--3--|
   E    S              S  S  S  S  S  S  S  S  S  S  S  S  S  S  E  E
------------------------------------------------------------------------|
------------------------------------------------------------------------|
--------------------------------------------------------------------7/--|
------------------------------------------------------------------------|
--------4p-------------2p-0h-4p-2p-0h-4p-2p-0h-4p-2p-0h-4p-2p-0h-4------|
--(7)\------------------------------------------------------------------|


   Guitar Solo
   S  S  S   S  S  S   S  S  S   S  S  S   S  S  S   S
-----20--------15--------17--------13--------15--------|
-------------------------------------------------------|
--21----21s-17----17s-19----19s-14----14s-17----17s-13-|
-------------------------------------------------------|
-------------------------------------------------------|
-------------------------------------------------------|


                                                  PM PM
                                       |--3--|  |--3-|
   S  S   S  S  S   S S  S   S  S  E   S  S  S  S S  S
--10--------13--------8--------10------7h-8p-7-------0--|
-----------------------------------------------10-8-----|
-----12s-14----14s-11---10s-12----12\-------------------|
----------------------------------12\-------------------|
--------------------------------------------------------|
--------------------------------------------------------|


                                              PM  PMPM
                                              |--3--|   |-3-|  |-3-|
   T  T  T T  T  T  T T T  T T T  T T  S S  S S   S S   S S S  S S S
---------------------------------------------------------------------|
------------------------------------8----7---------------------------|
--10-12-10-9-----------------8-9-10---10-7----------7----------------|
-------------12-11-10-9-9-11---------------10-9--10----10-9-7--------|
--------------------------------------------------------------10-8-7-|
---------------------------------------------------------------------|


                                                                 PM PM                   
   PM PM
  T   T  T  T  S S H             Q         S   S     S  S  S  S  S  S  S   S     S  S  S 
S  S  S
---------------------------------------|----------------------------------------------------------|
---------------------------------------|--12b--Lpbr--L----------------12b--Lpbr--L-10-12-10-------|
---------------------------------------|--12b--Lpbr--L-10-12-10-------12b--Lpbr--L-10-12-10----10-|
---------------------------------------|------------------------12-10-----------------------12----|
--8h-10p-8p-7--------------------------|----------------------------------------------------------|
--------------10-8-7~--------12g19\----|----------------------------------------------------------|


        PM
        |--3--|
   E    S  S  S  Q      S   S  E    S  S   S  S
-------10----------------------------------------|
----------13-10-10-------------------------------|
--12b-----------12b----12p-10-12b---L--L\-(0)----|
------------------------------------------(0)----|
-------------------------------------------------|
----------------------------------------------7/-|


   PM PM PM PM PM PM                                             PM PM PM
   |--3--|  |--3--|  |---3---|  |---3---|  |---3---|  |---3---|  |--3--|
   S  S  S  S  S  S  S   S   S  S   S   S  S   S   S  S   S   S  S  S  S  S  S
-------------------------------------------------------------------------17-20-|
-----------------------------------------------------17h-18h-20-17-18-20-------|
-------------------------------15h-17h-19-15h-17h-19---------------------------|
-----------15-17-19-15h-17h-19-------------------------------------------------|
--15-17-19---------------------------------------------------------------------|
-------------------------------------------------------------------------------|


                                 Chorus 3
   Q      Q      Q      Q        W                   W                   H        Q    Q
--20b-----Lb------------------|-------------------|-------------------|----------------------|
------------------------------|-------------------|-------------------|----------------------|
------------------------------|-------------------|-------------------|----------------------|
------------------------------|-------------------|-------------------|----------------5b----|
----------------17\-----------|-------------------|-------------------|----------------------|
-----------------------17\----|-------------------|-------------------|----------------------|


  S  S  S S  S  S S  S  S S  S  S S  S  S  S    W                   W
---------------------------------------------|-------------------|-------------------|
---------------------------------------------|-------------------|-------------------|
---------------------------------------------|-------------------|-------------------|
--5p-3p-0-5p-3p-0-5p-3p-0-5p-3p-0-3h-5p-3p-0-|-------------------|-------------------|
---------------------------------------------|-------------------|-------------------|
---------------------------------------------|-------------------|-------------------|


  m.100
  H        Q    Q        S  S  S S  S  S S  S  S S  S  S S  S  S  S    W
----------------------|---------------------------------------------|-------------------|
----------------------|---------------------------------------------|-------------------|
----------------------|---------------------------------------------|-------------------|
----------------5b----|--5p-3p-0-5p-3p-0-5p-3p-0-5p-3p-0-3h-5p-3p-0-|-------------------|
----------------------|---------------------------------------------|-------------------|
----------------------|---------------------------------------------|-------------------|


Lead Guitar II

     Intro - m.6
     H.            E  E      H.            E  E      H.            E  E      H         H
E||-----------------------|-----------------------|-----------------------|---------------------|
B||-----------------------|-----------------------|-----------------------|---------------------|
G||--5b------------L--L\--|--4b------------L--L\--|--3b------------L--L\--|--2b-----------------|
D||-----------------------|-----------------------|-----------------------|---------------------|
A||-----------------------|-----------------------|-----------------------|---------------------|
E||-----------------------|-----------------------|-----------------------|---------------------|


  Chorus 1 - m.42
  H.             E  E      H.             E  E      H.             E  E
------------------------|------------------------|------------------------|
--3--------------L--L\--|--5--------------L--L\--|--6--------------L--L\--|
--5b~------------L--L\--|--7b~------------L--L\--|--8b~------------L--L\--|
------------------------|------------------------|------------------------|
------------------------|------------------------|------------------------|
------------------------|------------------------|------------------------|


                              Verse 2
   Q      E  E   H            W                    E   E  E   E  H
--------------------------|--------------------|--------------------------|
---8------L--L\-----------|--------------------|--------------------------|
--10b~----L--L\-----------|--------------------|--------------------------|
--------------------------|--12----------------|--11--11--L--11--L--------|
--------------------------|--------------------|--------------------------|
--------------------------|--------------------|--------------------------|


   S   S  S  S E   S   S H           E.  S E  E  H
----------------------------------|-----------------------|
----------------------------------|-----------------------|
----------------------------------|-----------------------|
--10h-12-10-10-L--10h-12----------|--9---9-L--9-----------|
----------------------------------|-----------------------|
----------------------------------|-----------------------|


Duration Legend
---------------
W - whole
H - half
Q - quarter
E - 8th
S - 16th
T - 32nd
X - 64th
. - note dotted
|-n-|  - n-tuplets


Tablature Legend
----------------
L - tied note
x - dead note
g - grace note
(n) - ghost note
> - accentuded note
AH - artificial harmonic
h - hammer on
p - pull off
b - bend
br - bendRelease
S - shift slide
s - legato slide
/ -  slide into from below or out of upwards
\ -  slide into from above or out of downwards
~ - vibrato
W - wide vibrato
tr - trill
comments
print report bad tab
4 comments total. Showing first comments.
0 reply
BryceD546 wrote on June 24 2010, 06:27 pm

I made a profile just to say, that after reading a interview with ozzy and gus, and hearing teh guitar in this song...this guy kicks ass!

0 reply
TexasFury wrote on June 24 2010, 07:36 pm

I will update this tab with corrections next week.

0 reply
IbanezMan8 wrote on August 4 2010, 07:13 pm

wheres the lead guitar for the intro?

I want to post or [tab]
guest
You may want to rate the tab now too:
select rating
Please do not post tabs as comments. Select "correction" instead!