Oops, an error
Loading. Please wait.

Sin Tab

ver1
ver1

Solo

Whole song

More versions @911Tabs.com
6,317 views 12 this week
2 commentsread comments
1 2 3 4 5
accurate
x 4
Autoscroll
+/-
esc
set tempo
stop
WARNING: You are trying to view
                                    content from Ultimate-Guitar.com
                                    in an unauthorized application,
                                    which is prohibited.

                                    Please use an official Ultimate
                                    Guitar Tabs application for iPhone,
                                    iPad or Android to access legitimate
                                    chords, guitar, bass, and drum tabs
                                    from Ultimate-Guitar.com database.

                                    Type "ultimate guitar tabs" in Apple
                                    App Store's or Android Market's
                                    search to find the application.
-----------------------------------------------------------------------------
                              Sin- Ozzy Osbourne
                 (By Ozzy Osbourne, Zakk Wylde, Randy Castillo)
-----------------------------------------------------------------------------
Tuning:Eb Ab Db Gb Bb eb

Gtr2 is distorted
Gtr2
e|-------------------|--------------------------|---------------------------|
B|-------------------|--------------------------|-10b--(10)--7--10--10b-(10)|
G|-----7---9--9b-----|--------------------------|---------------------------|
D|--/9---------------|--------------------------|---------------------------|
A|-------------------|--------------------------|---------------------------|
E|-------------------|--------------------------|---------------------------|

Gtr3
e|----2--------------|--------------------------|----2------------2---------|
B|-3----3-----2------|---3----------3-----------|-------3------------2------|
G|-4------4-----2----|------0----------0--------|----------4------------4---|
D|-4---------------4-|---------4----------4-----|---------------------------|
A|-2--------0--------|--------------------------|--------------0------------|
E|-------------------|-3------------------------|-2-------------------------|
Gtr2
e|-----------12b-10h12|-12b--------------10---12-|-12b--(12)--10b---(10)----|
B|-(10)-----X---------|--------------------------|-----------------------12~|
G|----------X---------|--------------------------|--------------------------|
D|--------------------|--------------------------|--------------------------|
A|--------------------|--------------------------|--------------------------|
E|--------------------|--------------------------|--------------------------|

Gtr3
e|--------------0------|-----2----------2--------|------------------0-------|
B|--------3------------|--3----3-----------2-----|-----3------------0-------|
G|-----------0---------|--4------4------------4--|-----0------------0-------|
D|---------------------|--4----------------------|-----4------------2-------|
A|---------------------|--2---------0------------|------------------2-------|
E|---3-----------------|-------------------------|--3--------2------0-------|

Gtr2
e|---------------------|-------------------------|
B|-(12-----------------|-------------------------|
G|---------------------|-------7-----------------|
D|-------------------7-|-9--7----7-9b------------|
A|----------5-(7/9)----|-------------------------|
E|------5-7------------|-------------------------|

Gtr1
e|---------------------|-------------------------|--------------------------|
B|---------------------|-----------3------------2|--------------------------|
G|---------------------|---------------0--------2|--------------------------|
D|---(9)---------------|---------------0--------2|-(9)-------------------(9)|
A|---------------------|------------------------0|--------------------------|
E|---------------------|-0--2--3-----------------|--------------------------|


Verse(Gtr3)  (distorted)
       P.M.---------------------------------------------|
e|----------------------------------|------------------------|-0------------|
B|----------------------------------|------------------------|-0------------|
G|--4-------------------------------|------------------------|--------------|
D|--4-------------------------------|---------------------0--|-2------------|
A|--2--2-2-2-2-2-2-2-2-2-2-2-2-2-2-2|2-2-2-2-2-2-2-2-2-2--0--|-2------------|
E|----------------------------------|------------------------|-0------------|

        P.M.-             P.m.---------------------------------------------|
e|------------------|---------------------------------|---------------------
B|------------------|---------------------------------|---------------------
G|--2----------5----|-4-------------------------------|---------------------
D|--2----------5----|-4-------------------------------|---------------------
A|--0---0--0---3----|-2--2-2-2-2-2-2-2-2-2-2-2-2-2-2-2|2-2-2-2-2-2-2-2-2-2-2
E|------------------|---------------------------------|---------------------

       P.M.-                                      p.h. ----------------| 
e|---------------------|-------------------------|--------------------------|
B|---------------------|--3----------------------|-4b(Substitute Fill 1 2x)-|
G|--2------------------|--0----------------------|---(Substitute-Fill 2-3x)-|
D|--2------------------|--0----------------------|--------------------------|
A|--0--0--0------------|-------------------------|--------------------------|
E|---------------------|--3----------------------|--------------------------|

   Fill 1                 Fill 2 (Tr= Trill)
e|---------------------|-------------------------|
B|---------8----(8)----|-------------------------|
G|---10b~-------(10)---|-2tr4--4tr6--6tr7-7tr9---|
D|---------------------|-------------------------|
A|---------------------|-------------------------|
E|---------------------|-------------------------|


 
Pre chorus              P.m.----                                                P.m.-
e|--------0------------|-----------0-------------|------------0-------------|
B|-3----------3--------|---------------0---------|----------------3---------|
G|-2-------------2----0|-------2----------0------|---------4---------4------|
D|-0--0---------------0|----2----------------0---|------4-------------------|
A|-0--0----------------|-4-----------------------|---2----------------------|
E|---------------------|-------------------------|----------------------0--0|

      P.M.   P.M. P.M.      P.M.-------------------------------------------|
e|------------------------|----------------------|--------------------------|
B|------------------------|----------------------|------------------2-2-----|
G|--4------4-----4-----0h4|--------------7-7-----|------------2-2-----------|
D|--5------5-----5-----0h4|--------7-7---------7-|7--------2-2---2-2---2-2--|
A|--5------5-----5-----0h2|-5-5-5-5---5-5---5-5--|-5-5--4-4-----------------|
E|--3-X-X--3-X-X-3-X-X----|----------------------|--------------------------|

P.M.-----------------------------------------------------------------------|
e|---------------------|-------------------------|--------------------------|
B|---------------------|-------------------------|--------------------------|
G|----2-2--------------|---4-4-------------------|--------------------------|
D|-2-2---2-2--------4-4|---------4-4-2-2---------|--------------------------|
A|-----------2-2-2-2---|2-2---2-2--------------5-|5----4-4---2-2------------|
E|---------------------|----------------3-3-3-3--|--3-3---3-3---3-3-5-5-5-5-|

 P.M.----------------------------------------------------------------------- Play 2/3 time only
e|---------------------|-------------------------|--------------------------|
B|---------------------|-------------------------|--------------------------|
G|---------------------|-------------------------|--------------------------|
D|---------------------|-------------------------|--------------------------|
A|4-4---7-7-5-5-7-7----|7-7-9-9-5-5-7-7-4-4-5-5--|-------4-4-------5-5-4-4--|
E|---5-5------------5-5|-------------------------|5-5-5-5---5-5-5-5---------|

P.M.---------------------------|
e|---------------------|-------------------------|
B|---------------------|-------------------------|
G|---------------------|-------------------------|
D|---------------------|-------------------------|
A|----4-4---5-5---4-4--|-5-5---------------------|
E|-5-5---5-5---5-5----5|5---5-5------------------|

Chorus
e|---------------------|-------------------------|
B|---------------------|-------------------------|
G|-4--4--X-2--2--------|----------------2--------|3x
D|-4--4--X-2--2--------|----------------2--------|
A|-2--2--X-0--0--------|5---4----2------0--------|
E|----------------2/3--|--3---3------------------|

after 3rd time play this
   P.M.----|
e|---------------------|-------------------------|--------------------------|
B|---------------------|-5---------------5---7---|--8-----------------------|
G|---------------------|-4---------------4---6---|--7-----------------------|
D|---------------------|-2---------------2---4---|--5-----------------------|
A|--5--5--4------------|-------------------------|--------------------------|
E|--3--3--2------------|-------------------------|--------------------------|

e|---------------------|-------------------------|--------------------------|
B|--10-10-10-10-10-10--|10-10-10-10-10-10-10-----|---------------7---------8|
G|--9--9--9--9--9--9---|-9--9--9--9--9--9--9-----|-------------X-6---------7|
D|--7--7--7--7--7--7---|-7--7--7--7--7--7--7-5--4|3-----2------X-4---------5|
A|---------------------|---------------------5--4|3-----2------X------------|
E|---------------------|---------------------3--2|1-----0-------------------|

   P.m-------------|
e|---------------------|-------------------------|
B|---------------------|-------------------------|
G|-2-------------------|--2--2--2--2--2--2--2----|
D|-2-2-2-2-2-2-2-2-----|--2--2--2--2--2--2--2----|
A|-0-0-0-0-0-0-0-0-----|--0--0--0--0--0--0--0----|
E|---------------------|-------------------------|

Guitar Solo (Gtr2) All bends on G string are 1/2
                   all bends on B string are 1/4 in these two bars
                                                                 P.M---
e|-------------------------------------|------------------------------------|
B|----7b------7b----7b-------7b------7b|------7b-----7b-------7b------------|
G|-7b------7b----7b------7b-------7b---|---7b----7b-------7b----------------|
D|------9--------------9---------------|-9-------------9--------------------|
A|-------------------------------------|---------------------------9--9-----|
E|-------------------------------------|------------------------------------|
    P.H-------|
e|--------------------------------7--------7--------------------------------|
B|--9b---(9)-7---9b---(9)-10b-------10p7---7--------------------------7b----|
G|--9b---(9)-7---9b---(9)----------------9----9b-7--9--7b----------7b-------|
D|-------------------------------------------------9-9-----9--7-------------|
A|--------------------------------------------------------------9-----------|
E|--------------------------------------------------------------------------|
                          P.M. -------|
e|--------------------------------------------------------------------------|
B|----7b------7b-----7b----7--7--------7b----7b-----7b----7\----------------|
G|-7b------7b-----7b-------7--7-----7b----7b-----7b-------7\------14-11-----|
D|-------9---------------9-------9-------------9-------9----------12--9-14--|
A|-----------------------------------------------------------/14--------12--|
E|--------------------------------------------------------------------------|

e|-------------------------14--------------17-------------19-(19)/12-13-12--|
B|-12-----------15---17-15-------19-17----------22-19-----------------------|
G|--9---16------11---------14----------19--16---------21--19----------------|
D|------14--16-------16-14-------19-16----------21-19-----------------------|
A|----------14-------------------------19-------------21--------------------|
E|--------------------------------------------------------------------------|

e|10------12-13-12-10-----12-13-12-10-----12-13-12-10-----12-10-12b-(12)p10-|
B|--12-10------------12-10-----------12-10-----------12-10------12b-(12)----|
G|--------------------------------------------------------------------------|
D|--------------------------------------------------------------------------|
A|--------------------------------------------------------------------------|
E|--------------------------------------------------------------------------|

e|-12----(12)\X--22b-22p19-22-19---------19-22-19---------------------------|
B|(12)---(12)\X------------------22-19-22--------22-19----------------------|
G|----------------------------------------------------21-19-21-19------21b--|
D|---------------------------------------------------------------21-19------|
A|--------------------------------------------------------------------------|
E|--------------------------------------------------------------------------|

                          P.H.-|
e|--------------------------------------------------------------------------|
B|------22-21-19------------------------------------------------------17-17-|
G|(21)\---------22-21-19b----------------------------16-16-16-19-16-19------|
D|------------------------21-19b------------19-16-19------------------------|
A|------------------------------21-20-19-17---------------------------------|
E|--------------------------------------------------------------------------|


e|-------------17-17-17-19-17--17--17-22~~-------------22b\-----------------|
B|-17-19-17-19---------------19--19-----------------------------------------|
G|--------------------------------------------------------------------------|
D|--------------------------------------------------------------------------|
A|--------------------------------------------------------------------------|
E|--------------------------------------------------------------------------|

sorry I don't know the 2nd solo but i'll put it up eventually


| /  -slide up
| \  -slide down
| h  -hammer-on
| p  -pull-off
| ~  -vibrato
| +  -harmonic
| x  -Mute note
|(10)-Ghost note
| Tr - Trill
|P.m.- Palm mute
|P.h.- Pinch Harmonic
=============================================================================
comments
print report bad tab
2 comments total.
-1 reply
i_am_metalhead wrote on December 9 2005, 05:20 pm

not very accurate

0 reply
hawkspride wrote on August 12 2009, 05:49 pm

Good effort man

I want to post or [tab]
guest
You may want to rate the tab now too:
select rating
Please do not post tabs as comments. Select "correction" instead!