Oops, an error
Loading. Please wait.

Zarda De Monty Tab

ver1
ver1

Whole song

Interactive

More versions @911Tabs.com
3,825 views 6 this week
1 commentread comment
1 2 3 4 5
worth learning
x 1
Autoscroll
+/-
esc
set tempo
stop
Hey! There's an official Ultimate Guitar app which is ideal
for learning songs when you're away from computer. Get the app
WARNING: You are trying to view
                                    content from Ultimate-Guitar.com
                                    in an unauthorized application,
                                    which is prohibited.

                                    Please use an official Ultimate
                                    Guitar Tabs application for iPhone,
                                    iPad or Android to access legitimate
                                    chords, guitar, bass, and drum tabs
                                    from Ultimate-Guitar.com database.

                                    Type "ultimate guitar tabs" in Apple
                                    App Store's or Android Market's
                                    search to find the application.
Zarda de Monty
V.Monty Paco de Lucia
Romano@wanadoo.fr
http://perso.wanadoo.fr/romano
Partition fournie par José Urbano Cuesta " MACARENO "
Accordage : Mi La Ré Sol Si Mi  Tuning 2 :  Mi La Ré Sol Si Mi  Signature Rythmique: 4/4

 |       |       |       |        |       |       |       |        |       |       |       |        |       |       |       |        
|----0-----------0---------------|----0-----------0---------------|--------------------------------|7---------------7---------------|
|--------0-----------0-------0---|--------0-----------0-------0---|--------0-------1h1h1---0-------|----------------8---8-------8---|
|------------0-----------0-------|------------0-----------0-------|--------------------------------|----------------9-------9-------|
|--------------------------------|--------------------------------|--------------------------------|----------------9---------------|
|--------------------------------|--------------------------------|--------------------------------|--------------------------------|
|0-------------------------------|0-------------------------------|0-------------------------------|0------------------------------- 
|
|----0-----------0---------------|----0-----------0---------------|----0-----------0---------------|----0-----------0---------------|
|--------0-----------0-------0---|--------0-----------0-------0---|--------0-----------0-------0---|--------0-----------0-------0---|
|------------0-----------0-------|------------0-----------0-------|------------0-----------0-------|------------0-----------0-------|
|--------------------------------|--------------------------------|--------------------------------|--------------------------------|
|--------------------------------|--------------------------------|--------------------------------|--------------------------------|
|0-------------------------------|0-------------------------------|0-------------------------------|0-------------------------------|

 |       |       |       |        |       |       |       |        |       |       |       |        |       |       |       |        
|--------------------------------|8---------------8---------------|----8-----------8---------------|------------------------2-------|
|----8-------10--8h8-----7-------|--------------------10------10--|--------10----------10------10--|1h1h1---0-------4---------------|
|--------------------------------|------------------------9-------|------------9-----------9-------|----------------2---------------|
|--------------------------------|----9-------10------------------|--------------------------------|----------------4---------------|
|--------------------------------|0-------------------------------|0-------------------------------|--------------------------------|
|0-------------------------------|--------------------------------|--------------------------------|-------------------------------- 
|
|----0-----------0---------------|----0-----------0---------------|----0-----------0---------------|----2-----------2---------------|
|--------0-----------0-------0---|--------1-----------1-------1---|--------1-----------1-------1---|--------0-----------0-------0---|
|------------0-----------0-------|------------2-----------2-------|------------2-----------2-------|------------2-----------2-------|
|--------------------------------|--------------------------------|--------------------------------|--------------------------------|
|--------------------------------|0-------------------------------|0-------------------------------|2-------------------------------|
|0-------------------------------|--------------------------------|--------------------------------|--------------------------------|

 |       |       |       |        |       |       |       |        |       |       |       |        |       |       |       |        
|5---------------3h3-------------|2h2h2---0-------0-------0---2---|3-------------------------------|7---------------7---------------|
|------------------------4-------|0-------------------4-----------|--------0-------1h1h1---0-------|----------------8---8-------8---|
|5-------------------------------|0-------------------------------|--------------------------------|----------------9-------9-------|
|--------------------------------|--------------------------------|--------------------------------|----------------9---------------|
|--------------------------------|--------------------------------|--------------------------------|--------------------------------|
|--------------------------------|0-------------------------------|--------------------------------|0------------------------------- 
|
|----2-----------2---------------|----0-----------0---------------|----0-----------0---------------|----0-----------0---------------|
|--------0-----------0-------0---|--------0-----------0-------0---|--------0-----------0-------0---|--------0-----------0-------0---|
|------------2-----------2-------|------------0-----------0-------|------------0-----------0-------|------------0-----------0-------|
|--------------------------------|--------------------------------|--------------------------------|--------------------------------|
|2-------------------------------|--------------------------------|--------------------------------|--------------------------------|
|--------------------------------|0-------------------------------|0-------------------------------|0-------------------------------|

 |       |       |       |        |       |       |       |        |       |       |       |        |       |       |       |        
|--------------------------------|8---------------8---------------|----8-----------8---------------|------------------------2-------|
|----8-------10--8h8-----7-------|--------------------10------10--|--------10----------10------10--|1h1h1---0-------4---------------|
|--------------------------------|------------------------9-------|------------9-----------9-------|----------------2---------------|
|--------------------------------|----9-------10------------------|--------------------------------|----------------4---------------|
|--------------------------------|0-------------------------------|0-------------------------------|--------------------------------|
|0-------------------------------|--------------------------------|--------------------------------|-------------------------------- 
|
|----0-----------0---------------|----0-----------0---------------|----0-----------0---------------|----2-----------2---------------|
|--------0-----------0-------0---|--------1-----------1-------1---|--------1-----------1-------1---|--------0-----------0-------0---|
|------------0-----------0-------|------------2-----------2-------|------------2-----------2-------|------------2-----------2-------|
|--------------------------------|--------------------------------|--------------------------------|--------------------------------|
|--------------------------------|0-------------------------------|0-------------------------------|2-------------------------------|
|0-------------------------------|--------------------------------|--------------------------------|--------------------------------|

 |       |       |       |        |       |       |       |        |       |       |       |        |       |       |       |        
|5---------------3h3-------------|2h2h2---0-------0-------0---2---|0---------------0---------------|--------------------------------|
|------------------------4-------|0-------------------4-----------|--------0-----------0-------0---|----------------------------7---|
|5-------------------------------|0-------------------------------|------------0-----------0-------|--------------------------7-----|
|--------------------------------|--------------------------------|--------------------------------|--------------------7---10------|
|--------------------------------|--------------------------------|--------------------------------|------------------9-------------|
|--------------------------------|0-------------------------------|0-------------------------------|10------------------------------ 
|
|----2-----------2---------------|----0-----------0---------------|----0-----------0---------------|----2-----------2---------------|
|--------0-----------0-------0---|--------0-----------0-------0---|--------0-----------0-------0---|--------1-----------1-------1---|
|------------2-----------2-------|------------0-----------0-------|------------0-----------0-------|------------2-----------2-------|
|--------------------------------|--------------------------------|--------------------------------|0-------------------------------|
|2-------------------------------|--------------------------------|--------------------------------|--------------------------------|
|--------------------------------|0-------------------------------|0-------------------------------|--------------------------------|

 |       |       |       |        |       |       |       |        |       |       |       |        |       |       |       |        
|--------------------------------|--------------------------------|--------------------------------|--------------------------------|
|10----------8---7h7-------------|--------------------------------|--------8-------7-------5-------|----------------------------4---|
|--------------------9---7---5---|5-------4-------4-------3-------|4-------------------------------|--------------------------4-----|
|--------------------------------|--------------------------------|--------------------------------|--------------------4---7-------|
|--------------------------------|--------------------------------|--------10------9-------7-------|------------------6-------------|
|--------------------------------|--------------------------------|--------------------------------|7------------------------------- 
|
|----2-----------2---------------|----3-----------3---------------|----3-----------3---------------|----2-----------2---------------|
|--------1-----------1-------1---|--------0-----------0-------0---|--------0-----------0-------0---|--------0-----------0-------0---|
|------------2-----------2-------|------------0-----------0-------|------------0-----------0-------|------------2-----------2-------|
|0-------------------------------|--------------------------------|--------------------------------|--------------------------------|
|--------------------------------|--------------------------------|--------------------------------|--------------------------------|
|--------------------------------|3-------------------------------|3-------------------------------|2-------------------------------|

 |       |       |       |        |       |       |       |        |       |       |       |        |       |       |       |        
|--------------------------------|2h2h2---0-------0-------0---2---|3-------3-------3-------3-------|3---------------2---------------|
|7-------4-------12------0-------|0-------------------4-----------|1-------------------------------|----------------1---------------|
|--------------------------------|0-------------------------------|0-------------------------------|----------------2---------------|
|--------------------------------|--------------------------------|--------------------------------|----------------2-----------0---|
|--------------------------------|--------------------------------|3-------------------------------|0-------------------0---2-3-----|
|--------------------------------|0-------------------------------|--------------------------------|------------------3------------- 
|
|----2-----------2---------------|----0-----------0---------------|----0-----------0---------------|----0-----------0---------------|
|--------0-----------0-------0---|--------0-----------0-------0---|--------1-----------1-------1---|--------1-----------1-------1---|
|------------2-----------2-------|------------0-----------0-------|------------0-----------0-------|------------2-----------2-------|
|--------------------------------|--------------------------------|--------------------------------|--------------------------------|
|--------------------------------|--------------------------------|3-------------------------------|0-------------------------------|
|2-------------------------------|0-------------------------------|--------------------------------|--------------------------------|

 |       |       |       |        |       |       |       |        |       |       |       |        |       |       |       |        
|0-------2-3h2-1-2-3-2-1-2-3-2-1-|2-3-2-1-2-5-3-1-2h2-------------|0-------------------------------|--------------------------------|
|1-------------------------------|----------------0-------0-------|0-------------------0---1h1-0---|----0---3---1---1h1-0---0h0-----|
|2-------------------------------|----------------0---------------|0-------------------------------|3---------------------------2---|
|2-------------------------------|--------------------------------|2-------------------------------|--------------------------------|
|3-------------------------------|--------------------------------|2-------------------------------|--------------------------------|
|--------------------------------|----------------0---------------|0-------------------------------|-------------------------------- 
|
|0-------------------------------|----------------0---------------|0-------------------------------|--------------------------------|
|1-------------------------------|----------------0---------------|0-------------------------------|--------------------------------|
|2-------------------------------|----------------0---------------|0-------------------------------|--------------------------------|
|2-------------------------------|----------------2---------------|2-------------------------------|--------------------------------|
|0-------------------------------|----------------2---------------|2-------------------------------|--------------------------------|
|--------------------------------|----------------0---------------|0-------------------------------|--------------------------------|

 |       |       |       |        |       |       |       |        |       |       |       |        |       |       |       |        
|--------------------------------|--------------------------------|0-------------------------------|0---12------8h8-----7-----------|
|--------------------------------|--------------------------------|0-------------------------------|----------------------------8---|
|2h2-0---0h0---------------------|--------------------------------|0-------------------------------|--------------------------------|
|------------4/--9-----------4-4-|4-------2-------2-------1-------|2-------------------------------|--------------------------------|
|----------------9---------------|----------------3-------2-------|2-------------------------------|--------------------------------|
|----------------7---------------|----------------3-------2-------|0-------------------------------|0------------------------------- 
|
|----------------2---------------|----------------0-------2-------|0-------------------------------|--------------------------------|
|----------------0---------------|----------------1-------0-------|0-------------------------------|--------------------------------|
|----------------2---------------|----------------0-------2-------|0-------------------------------|--------------------------------|
|----------------1---------------|----------------2-------1-------|2-------------------------------|----2---------------------------|
|----------------0---------------|----------------3-------0-------|2-------------------------------|------------3-------2-----------|
|----------------2---------------|----------------3-------2-------|0-------------------------------|0---------------------------3---|

 |       |       |       |        |       |       |       |        |       |       |       |        |       |       |       |        
|------------------------0-------|0-2-3-2-0-2-3-2-0-2-3-2-0-2-3-0-|3---2-------1---2-------2-------|5-7-8-7-5-7-8-7-5-7-8-7-5-7-8-5-|
|7h7---------------------0-------|--------------------------------|------------------------1-------|--------------------------------|
|----9-------8---9-------0-------|--------------------------------|------------------------2-------|--------------------------------|
|--------------------------------|--------------------------------|--------------------------------|--------------------------------|
|--------------------------------|--------------------------------|--------------------------------|0-------------------------------|
|--------------------------------|0-------------------------------|--------------------------------|-------------------------------- 
|
|------------------------0-------|----0-------0-------0-------0---|----0-------0-------0-------0---|----0-------0-------0-------0---|
|------------------------0-------|----0-------0-------0-------0---|----1-------1-------1-------1---|----1-------1-------1-------1---|
|------------------------0-------|----0-------0-------0-------0---|----2-------2-------2-------2---|----2-------2-------2-------2---|
|----------------2-------2-------|--------------------------------|--------2---------------2-------|--------2---------------2-------|
|------------2-----------2-------|--------2---------------2-------|0---------------0---------------|0---------------3---------------|
|2---0-------------------0-------|0---------------0---------------|--------------------------------|--------------------------------|

 |       |       |       |        |       |       |       |        |       |       |       |        |       |       |       |        
|3-5-7-5-3-5-7-5-3-5-7-5-3-5-7-3-|------0-2-3-5-7-8-7-5-----------|----------------0-------0-------|0---12------8h8-----7-----------|
|--------------------------------|0-2-4-----------------8-7-5-4-5-|7---5-------4-----------0-------|----------------------------8---|
|--------------------------------|--------------------------------|------------------------0-------|--------------------------------|
|--------------------------------|--------------------------------|--------------------------------|--------------------------------|
|--------------------------------|--------------------------------|--------------------------------|--------------------------------|
|0-------------------------------|--------------------------------|------------------------0-------|0------------------------------- 
|
|----0-------0-------0-------0---|--------------------------------|----0-------0-------0-------0---|--------------------------------|
|----0-------0-------0-------0---|----0-------0-------0-------0---|----0-------0-------0-------0---|--------------------------------|
|----0-------0-------0-------0---|----2-------2-------2-------2---|----0-------0-------0-------0---|--------------------------------|
|--------------------------------|----1-------1-------1-------1---|--------------------------------|----2---------------------------|
|--------2---------------2-------|--------0-----------------------|--------2---------------2-------|------------3-------2-----------|
|0---------------3---------------|2---------------3-------2-------|0---------------0---------------|0---------------------------3---|

 |       |       |       |        |       |       |       |        |       |       |       |        |       |       |       |        
|------------------------0-------|0-2-3-2-0-2-3-2-0-2-3-2-0-2-3-0-|3---2-------1---2-------2-------|5-7-8-7-5-7-8-7-5-7-8-7-5-7-8-5-|
|7h7---------------------0-------|--------------------------------|------------------------1-------|--------------------------------|
|----9-------8---9-------0-------|--------------------------------|------------------------2-------|--------------------------------|
|--------------------------------|--------------------------------|--------------------------------|--------------------------------|
|--------------------------------|--------------------------------|--------------------------------|0-------------------------------|
|--------------------------------|0-------------------------------|--------------------------------|-------------------------------- 
|
|------------------------0-------|----0-------0-------0-------0---|----0-------0-------0-------0---|----0-------0-------0-------0---|
|------------------------0-------|----0-------0-------0-------0---|----1-------1-------1-------1---|----1-------1-------1-------1---|
|------------------------0-------|----0-------0-------0-------0---|----2-------2-------2-------2---|----2-------2-------2-------2---|
|----------------2-------2-------|--------------------------------|--------2---------------2-------|--------2---------------2-------|
|------------2-----------2-------|--------2---------------2-------|0---------------0---------------|0---------------3---------------|
|2---0-------------------0-------|0---------------0---------------|--------------------------------|--------------------------------|

 |       |       |       |        |       |       |       |        |       |       |       |        |       |       |       |        
|3-5-7-5-3-5-7-5-3-5-7-5-3-5-7-3-|------0-2-3-5-7-8-7-5-----------|----------------0-------0-------|--------5-8h5-----------5-8h5---|
|--------------------------------|0-2-4-----------------8-7-5-4-5-|7---5-------4-----------0-------|------7-------7-------7---------|
|--------------------------------|--------------------------------|------------------------0-------|7h6-7-----------7h6-7---------7h|
|--------------------------------|--------------------------------|--------------------------------|--------------------------------|
|--------------------------------|--------------------------------|--------------------------------|--------------------------------|
|0-------------------------------|--------------------------------|------------------------0-------|-------------------------------- 
|
|----0-------0-------0-------0---|--------------------------------|----0-------0-------0-------0---|----2-------2-------2-------2---|
|----0-------0-------0-------0---|----0-------0-------0-------0---|----0-------0-------0-------0---|----1-------1-------1-------1---|
|----0-------0-------0-------0---|----2-------2-------2-------2---|----0-------0-------0-------0---|----2-------2-------2-------2---|
|--------------------------------|----1-------1-------1-------1---|--------------------------------|--------------------------------|
|--------2---------------2-------|--------0-----------------------|--------2---------------2-------|--------0---------------0-------|
|0---------------3---------------|2---------------3-------2-------|0---------------0---------------|2---------------2---------------|

 |       |       |       |        |       |       |       |        |       |       |       |        |       |       |       |        
|--------------5-7-------7-------|--------2-5h2-----------2-5h2---|----------0-2-0-3-------3-------|8-7-5-7-8-7-5-7-8-7-5-7-8-7-5-8-|
|--------5-7-8-----------3-------|------4-------4-------4-------4h|0---0-2-4---------------0-------|--------------------------------|
|5---5-7-----------------4-------|4h3-4-----------4h3-4-----------|--3---------------------0-------|--------------------------------|
|--9-----------------------------|--------------------------------|--------------------------------|--------------------------------|
|--------------------------------|--------------------------------|------------------------2-------|0-------------------------------|
|--------------------3-----------|--------------------------------|--------------------0-----------|-------------------------------- 
|
|----3-------3-----------3-------|----2-------2-------2-------2---|----2-------2-----------2-------|----0-------0-------0-------0---|
|----0-------0-----------0-------|----0-------0-------0-------0---|----0-------0-----------0-------|----1-------1-------1-------1---|
|----0-------0-----------0-------|------------------------0-------|2-------3-------4---------------|----2-------2-------2-------2---|
|--------------------------------|1-------2-------4---------------|--------------------------------|--------2---------------2-------|
|--------2---------------2-------|--------------------------------|--------------------------------|0---------------3---------------|
|3---------------3---------------|--------------------------------|--------------------------------|--------------------------------|

 |       |       |       |        |       |       |       |        |       |       |       |        |       |       |       |        
|7-5---5-7-5---5-7-5---5-7-5---7-|------0-2-3-5-7-8-7-5-----------|----------------0-------0-------|--------5-8h5-----------5-8h5---|
|----8-------8-------8-------8---|0-2-4-----------------8-7-5-4-5-|7---5-------4-----------0-------|------7-------7-------7---------|
|--------------------------------|--------------------------------|------------------------0-------|7h6-7-----------7h6-7---------7h|
|--------------------------------|--------------------------------|------------------------2-------|--------------------------------|
|--------------------------------|--------------------------------|------------------------2-------|--------------------------------|
|0-------------------------------|--------------------------------|------------------------0-------|-------------------------------- 
|
|----0-------0-------0-------0---|--------------------------------|----0-------0-----------0-------|----2-------2-------2-------2---|
|----0-------0-------0-------0---|----0-------0-------0-------0---|----0-------0-----------0-------|----1-------1-------1-------1---|
|----0-------0-------0-------0---|----2-------2-------2-------2---|----0-------0-----------0-------|----2-------2-------2-------2---|
|--------------------------------|----1-------1-------1-------1---|------------------------2-------|--------------------------------|
|--------2---------------2-------|--------0-----------------------|--------2---------------2-------|--------0---------------0-------|
|0---------------3---------------|2---------------3-------2-------|0---------------0-------0-------|2---------------2---------------|

 |       |       |       |        |       |       |       |        |       |       |       |        |       |       |       |        
|--------------5-7-------7-------|--------2-5h2-----------2-5h2---|----------0-2-0-3-------3-------|8-7-5-7-8-7-5-7-8-7-5-7-8-7-5-8-|
|--------5-7-8-----------3-------|------4-------4-------4-------4h|0---0-2-4---------------0-------|--------------------------------|
|5---5-7-----------------4-------|4h3-4-----------4h3-4-----------|--3---------------------0-------|--------------------------------|
|--9-----------------------------|--------------------------------|--------------------------------|--------------------------------|
|--------------------------------|--------------------------------|------------------------2-------|0-------------------------------|
|--------------------3-----------|--------------------------------|--------------------0-----------|-------------------------------- 
|
|----3-------3-----------3-------|----2-------2-------2-------2---|----2-------2-----------2-------|----0-------0-------0-------0---|
|----0-------0-----------0-------|----0-------0-------0-------0---|----0-------0-----------0-------|----1-------1-------1-------1---|
|----0-------0-----------0-------|------------------------0-------|2-------3-------4---------------|----2-------2-------2-------2---|
|--------------------------------|1-------2-------4---------------|--------------------------------|--------2---------------2-------|
|--------2---------------2-------|--------------------------------|--------------------------------|0---------------3---------------|
|3---------------3---------------|--------------------------------|--------------------------------|--------------------------------|

 |       |       |       |        |       |       |       |        |       |       |       |        |       |       |       |        
|7-5---5-7-5---5-7-5---5-7-5---7-|------0-2-3-5-7-8-7-5-----------|----------------0---------------|12------------------------------|
|----8-------8-------8-------8---|0-2-4-----------------8-7-5-4-5-|7---5-------4---0---------------|9-----------------------12------|
|--------------------------------|--------------------------------|----------------0---------------|9-------------------------------|
|--------------------------------|--------------------------------|----------------2---------------|9-------------------------------|
|--------------------------------|--------------------------------|----------------2---------------|11------------------------------|
|0-------------------------------|--------------------------------|----------------0---------------|0------------------------------- 
|
|----0-------0-------0-------0---|--------------------------------|----0-------0---0---------------|----0-----------0---------------|
|----0-------0-------0-------0---|----0-------0-------0-------0---|----0-------0---0---------------|--------0-----------0-------0---|
|----0-------0-------0-------0---|----2-------2-------2-------2---|----0-------0---0---------------|------------1-----------1-------|
|--------------------------------|----1-------1-------1-------1---|----------------2---------------|--------------------------------|
|--------2---------------2-------|--------0-----------------------|--------2-------2---------------|--------------------------------|
|0---------------3---------------|2---------------3-------2-------|0---------------0---------------|0-------------------------------|

 |       |       |       |        |       |       |       |        |       |       |       |        |       |       |       |        
|9h9-----------------------------|--------------------------------|9-------------------------------|9-------------------------------|
|--------12------10------9-------|9-------7-------7h7-----7---10--|--------------------------------|7-----------------------9-------|
|--------------------------------|--------------------10----------|--------------------------------|8-------------------------------|
|--------------------------------|--------------------------------|--------------------------------|--------------------------------|
|--------------------------------|0-------------------------------|0-------------------------------|--------------------------------|
|0-------------------------------|--------------------------------|--------------------------------|7------------------------------- 
|
|----0-----------0---------------|----2-----------2---------------|----2-----------2---------------|----2-----------2---------------|
|--------0-----------0-------0---|--------2-----------2-------2---|--------2-----------2-------0---|--------0-----------0-------0---|
|------------1-----------1-------|------------2-----------2-------|------------2-----------2-------|------------2-----------2-------|
|--------------------------------|--------------------------------|--------------------------------|--------------------------------|
|--------------------------------|--------------------------------|--------------------------------|2-------------------------------|
|0-------------------------------|2-------------------------------|2-------------------------------|--------------------------------|

 |       |       |       |        |       |       |       |        |       |       |       |        |       |       |       |        
|11------9h9---------------------|--------------------------------|------------------------7-------|12----------------------7-------|
|7---------------9-------10------|10------9-------9h9-7-------7---|9-------------------------------|9-------------------------------|
|8-------------------------------|------------------------9-------|--------------------------------|9-------------------------------|
|--------------------------------|--------------------------------|--------------------------------|--------------------------------|
|--------------------------------|--------------------------------|--------------------------------|--------------------------------|
|7-------------------------------|0-------------------------------|0-------------------------------|0------------------------------- 
|
|----2-----------2---------------|----0-----------0---------------|----0-----------0---------------|----0-----------0---------------|
|--------0-----------0-------0---|--------0-----------0-------0---|--------0-----------0-------0---|--------0-----------0-------0---|
|------------2-----------2-------|------------1-----------1-------|------------1-----------1-------|------------1-----------1-------|
|--------------------------------|--------------------------------|--------------------------------|--------------------------------|
|2-------------------------------|--------------------------------|--------------------------------|--------------------------------|
|--------------------------------|0-------------------------------|0-------------------------------|0-------------------------------|

 |       |       |       |        |       |       |       |        |       |       |       |        |       |       |       |        
|9h9-----------------------------|--------------------------------|9-------------9-11--9---8---9---|12------------------------------|
|--------12------10------9-------|9-------7-------7h7-----7---10--|--------------------------------|--------------------------------|
|--------------------------------|--------------------10----------|--------------------------------|--------------------------------|
|--------------------------------|--------------------------------|--------------------------------|--------------9-9---------------|
|--------------------------------|0-------------------------------|0-------------------------------|--------------------------------|
|0-------------------------------|--------------------------------|--------------------------------|0------------------------------- 
|
|----0-----------0---------------|----2-----------2---------------|----2-----------2---------------|----0-----------0---------------|
|--------0-----------0-------0---|--------2-----------2-------2---|--------2-----------2-------0---|--------0-----------0-------0---|
|------------1-----------1-------|------------2-----------2-------|------------2-----------2-------|------------1-----------1-------|
|--------------------------------|--------------------------------|--------------------------------|--------------------------------|
|--------------------------------|--------------------------------|--------------------------------|--------------------------------|
|0-------------------------------|2-------------------------------|2-------------------------------|0-------------------------------|

 |       |       |       |        |       |       |       |        |       |       |       |        |       |       |       |        
|--------------------------------|--------------------------------|0-------------------------------|--------5-8h5-----------5-8h5---|
|--------------------------------|--------------------------------|--------------------------------|------7-------7-------7---------|
|------------------------8-------|11------9-----119-------8-------|--------------------------------|7h6-7-----------7h6-7---------7h|
|11------9-----------------------|--------------------------------|--------------------------------|--------------------------------|
|--------------------------------|--------------------------------|--------------------------------|--------------------------------|
|--------------------------------|--------------------------------|0-------------------------------|-------------------------------- 
|
|----2-----------2---------------|----2-----------2---------------|0-------------------------------|----2-------2-------2-------2---|
|--------0-----------0-------0---|--------0-----------0-------0---|0-------------------------------|----1-------1-------1-------1---|
|------------2-----------2-------|------------2-----------2-------|1-------------------------------|----2-------2-------2-------2---|
|--------------------------------|--------------------------------|2-------------------------------|--------------------------------|
|2-------------------------------|--------------------------------|2-------------------------------|--------0---------------0-------|
|--------------------------------|2-------------------------------|0-------------------------------|2---------------2---------------|

 |       |       |       |        |       |       |       |        |       |       |       |        |       |       |       |        
|--------------5-7-------7-------|--------2-5h2-----------2-5h2---|----------0-2-0-3-------3-------|8-7-5-7-8-7-5-7-8-7-5-7-8-7-5-8-|
|--------5-7-8-----------3-------|------4-------4-------4-------4h|0---0-2-4---------------0-------|--------------------------------|
|5---5-7-----------------4-------|4h3-4-----------4h3-4-----------|--3---------------------0-------|--------------------------------|
|--9-----------------------------|--------------------------------|--------------------------------|--------------------------------|
|--------------------------------|--------------------------------|------------------------2-------|0-------------------------------|
|--------------------3-----------|--------------------------------|--------------------0-----------|-------------------------------- 
|
|----3-------3-----------3-------|----2-------2-------2-------2---|----2-------2-----------2-------|----0-------0-------0-------0---|
|----0-------0-----------0-------|----0-------0-------0-------0---|----0-------0-----------0-------|----1-------1-------1-------1---|
|----0-------0-----------0-------|------------------------0-------|2-------3-------4---------------|----2-------2-------2-------2---|
|--------------------------------|1-------2-------4---------------|--------------------------------|--------2---------------2-------|
|--------2---------------2-------|--------------------------------|--------------------------------|0---------------3---------------|
|3---------------3---------------|--------------------------------|--------------------------------|--------------------------------|

 |       |       |       |        |       |       |       |        |       |       |       |        |       |       |       |        
|7-5---5-7-5---5-7-5---5-7-5---7-|--------------------------------|----0-------0-------0-------0-0-|0---12------9h9-----7-----------|
|----8-------8-------8-------8---|--------------------------------|----0-------0-------0-----------|----------------------------9---|
|--------------------------------|------------------------------8-|----1-------1-------1-----------|--------------------------------|
|--------------------------------|------------7-9-109-8-9-8-9-11--|--------------------------------|--------------------------------|
|--------------------------------|------7-9-10--------------------|--------------------------------|--------------------------------|
|0-------------------------------|7h9-11--------------------------|0-------0-------0-------0-------|0------------------------------- 
|
|----0-------0-------0-------0---|----2-------2-------2-------2---|----0-------0-------0-------0---|--------------------------------|
|----0-------0-------0-------0---|----0-------0-------0-------0---|----0-------0-------0-------0---|--------------------------------|
|----0-------0-------0-------0---|----2-------2-------2-------2---|----1-------1-------1-------1---|--------------------------------|
|--------------------------------|--------------------------------|--------------------------------|----2---------------------------|
|--------2---------------2-------|--------0---------------0-------|--------------------------------|------------4-------2-----------|
|0---------------3---------------|2---------------2---------------|0-------0-------0-------0-------|0---------------------------4---|

 |       |       |       |        |       |       |       |        |       |       |       |        |       |       |       |        
|------------------------0-------|0-2-4-2-0-2-4-2-0-2-4-2-0-2-4-0-|4---2-------1---2-------2-------|5-7-9-7-5-7-9-7-5-7-9-7-5-9-7-5-|
|7h7---------------------0-------|--------------------------------|------------------------2-------|--------------------------------|
|----9-------8---9-------1-------|--------------------------------|------------------------2-------|--------------------------------|
|--------------------------------|--------------------------------|------------------------2-------|--------------------------------|
|--------------------------------|--------------------------------|--------------------------------|0-------------------------------|
|--------------------------------|0-------------------------------|--------------------------------|-------------------------------- 
|
|------------------------0-------|----0-------0-------0-------0---|----0-------0-------0-------0---|----0-------0-------0-------0---|
|------------------------0-------|----0-------0-------0-------0---|----2-------2-------2-------2---|----2-------2-------2-------2---|
|------------------------1-------|----1-------1-------1-------1---|----2-------2-------2-------2---|----2-------2-------2-------2---|
|----------------2-------2-------|--------------------------------|--------2---------------2-------|--------2---------------2-------|
|------------2-----------2-------|--------2---------------2-------|0---------------0---------------|0---------------3---------------|
|2---0-------------------0-------|0---------------0---------------|--------------------------------|--------------------------------|

 |       |       |       |        |       |       |       |        |       |       |       |        |       |       |       |        
|4-5-7-5-4-5-7-5-4-5-7-5-4-7-5-4-|2-4-6-4-2-4-6-4-2-4-6-4-2-4-6-4-|7---7-------7-------7-------7---|0---12------9h9-----7-----------|
|--------------------------------|--------------------------------|------------4-------4-------4---|----------------------------9---|
|--------------------------------|--------------------------------|------4-----4-------4-------4---|--------------------------------|
|--------------------------------|--------------------------------|--------4-----------------------|--------------------------------|
|--------------------------------|--------------------------------|----------------6---------------|--------------------------------|
|0-------------------------------|2-------------------------------|------------------------4-------|0------------------------------- 
|
|----0-------0-------0-------0---|----2-------2-------2-------2---|2-------------------------------|--------------------------------|
|----0-------0-------0-------0---|----2-------2-------2-------2---|5-------------------------------|--------------------------------|
|----1-------1-------1-------1---|----3-------3-------3-------3---|4-------------------------------|--------------------------------|
|--------------------------------|--------------------------------|4-------------------------------|----2---------------------------|
|--------2---------------2-------|--------4---------------4-------|2-------------------------------|------------4-------2-----------|
|0---------------4---------------|2---------------2---------------|2-------------------------------|0---------------------------4---|

 |       |       |       |        |       |       |       |        |       |       |       |        |       |       |       |        
|------------------------0-------|0-2-4-2-0-2-4-2-0-2-4-2-0-2-4-0-|4---2-------1---2-------2-------|5-7-9-7-5-7-9-7-5-7-9-7-5-9-7-5-|
|7h7---------------------0-------|--------------------------------|------------------------2-------|--------------------------------|
|----9-------8---9-------1-------|--------------------------------|------------------------2-------|--------------------------------|
|--------------------------------|--------------------------------|------------------------2-------|--------------------------------|
|--------------------------------|--------------------------------|--------------------------------|0-------------------------------|
|--------------------------------|0-------------------------------|--------------------------------|-------------------------------- 
|
|------------------------0-------|----0-------0-------0-------0---|----0-------0-------0-------0---|----0-------0-------0-------0---|
|------------------------0-------|----0-------0-------0-------0---|----2-------2-------2-------2---|----2-------2-------2-------2---|
|------------------------1-------|----1-------1-------1-------1---|----2-------2-------2-------2---|----2-------2-------2-------2---|
|----------------2-------2-------|--------------------------------|--------2---------------2-------|--------2---------------2-------|
|------------2-----------2-------|--------2---------------2-------|0---------------0---------------|0---------------3---------------|
|2---0-------------------0-------|0---------------0---------------|--------------------------------|--------------------------------|

 |       |       |       |        |       |       |       |        |       |       |       |        |       |       |       |        
|4-5-7-5-4-5-7-5-4-5-7-5-4-7-5-4-|------4-5-4-5-7-9h7---7-9-7-9-11|12------12----1212--------------|--------------------------------|
|--------------------------------|7-6-7---------------11----------|--------9-----9-9---------------|--------------------------------|
|--------------------------------|--------------------------------|--------9-----9-9---------------|--------------------------------|
|--------------------------------|--------------------------------|--------9-----9-9---------------|--------------------------------|
|--------------------------------|--------------------------------|--------11----1111--------------|--------------------------------|
|0-------------------------------|--------------------------------|--------0-----0-0---------------|-------------------------------- 
|
|----0-------0-------0-------0---|--------------------------------|--------0-----0-0---------------|--------------------------------|
|----0-------0-------0-------0---|----0-------0-------0-------0---|--------0-----0-0---------------|--------------------------------|
|----1-------1-------1-------1---|----2-------2-------2-------2---|--------1-----1-1---------------|--------------------------------|
|--------------------------------|----1-------1-------1-------1---|--------2-----2-2---------------|--------------------------------|
|--------2---------------2-------|--------0-----------------------|--------2-----2-2---------------|--------------------------------|
|0---------------4---------------|2---------------4-------2-------|0-------0-----0-0---------------|--------------------------------|

 |       |       |       |        |       |       |       |        |       |       |       |        |       |       |       |        
|--------------------------------|--------------------------------|--------------------------------|--------------------------------|
|--------------------------------|--------------------------------|--------------------------------|--------------------------------|
|--------------------------------|--------------------------------|--------------------------------|--------------------------------|
|--------------------------------|--------------------------------|--------------------------------|--------------------------------|
|--------------------------------|--------------------------------|--------------------------------|--------------------------------|
|--------------------------------|--------------------------------|--------------------------------|-------------------------------- 
|
|--------------------------------|--------------------------------|--------------------------------|--------------------------------|
|--------------------------------|--------------------------------|--------------------------------|--------------------------------|
|--------------------------------|--------------------------------|--------------------------------|--------------------------------|
|--------------------------------|--------------------------------|--------------------------------|--------------------------------|
|--------------------------------|--------------------------------|--------------------------------|--------------------------------|
|--------------------------------|--------------------------------|--------------------------------|--------------------------------|

 |       |       |       |        |       |       |       |        |       |       |       |        |       |       |       |        
|--------------------------------|--------------------------------|--------------------------------|--------------------------------|
|--------------------------------|--------------------------------|--------------------------------|--------------------------------|
|--------------------------------|--------------------------------|--------------------------------|--------------------------------|
|--------------------------------|--------------------------------|--------------------------------|--------------------------------|
|--------------------------------|--------------------------------|--------------------------------|--------------------------------|
|--------------------------------|--------------------------------|--------------------------------|-------------------------------- 
|
|--------------------------------|--------------------------------|--------------------------------|--------------------------------|
|--------------------------------|--------------------------------|--------------------------------|--------------------------------|
|--------------------------------|--------------------------------|--------------------------------|--------------------------------|
|--------------------------------|--------------------------------|--------------------------------|--------------------------------|
|--------------------------------|--------------------------------|--------------------------------|--------------------------------|
|--------------------------------|--------------------------------|--------------------------------|--------------------------------|

 |       |       |       |        |       |       |       |        |       |       |       |        
|--------------------------------|--------------------------------|--------------------------------|
|--------------------------------|--------------------------------|--------------------------------|
|--------------------------------|--------------------------------|--------------------------------|
|--------------------------------|--------------------------------|--------------------------------|
|--------------------------------|--------------------------------|--------------------------------|
|--------------------------------|--------------------------------|-------------------------------- 
|
|--------------------------------|--------------------------------|--------------------------------|
|--------------------------------|--------------------------------|--------------------------------|
|--------------------------------|--------------------------------|--------------------------------|
|--------------------------------|--------------------------------|--------------------------------|
|--------------------------------|--------------------------------|--------------------------------|
|--------------------------------|--------------------------------|--------------------------------|


Created with TablEdit http://www.tabledit.com/
comments
We did not receive enough feedback on this tab! Please rate:
print report bad tab
1 2 3 4 5
1 comment total.
0 reply
MustaphaIbrahim wrote on November 23 2013, 03:07 pm

could you tell me what means 1h1h1?

I want to post or [tab]
guest
You may want to rate the tab now too:
select rating
Please do not post tabs as comments. Select "correction" instead!