Oops, an error
Loading. Please wait.

Aegan Shores Bass Tab

ver1
ver1

Whole song

Interactive

More versions @911Tabs.com
204 views 1 this week
no commentswrite comment
1 2 3 4 5
please rate
Autoscroll
+/-
esc
set tempo
stop
Contributor
Hey! There's an official Ultimate Guitar app which is ideal
for learning songs when you're away from computer. Get the app
WARNING: You are trying to view
                                    content from Ultimate-Guitar.com
                                    in an unauthorized application,
                                    which is prohibited.

                                    Please use an official Ultimate
                                    Guitar Tabs application for iPhone,
                                    iPad or Android to access legitimate
                                    chords, guitar, bass, and drum tabs
                                    from Ultimate-Guitar.com database.

                                    Type "ultimate guitar tabs" in Apple
                                    App Store's or Android Market's
                                    search to find the application.
Aegan Shores
Pagan's Mind
Transcribed By Tod Allgemeinen

                             Q    Q    Q    Q        Q    Q    Q    Q     
G||-------|-------|-------|-----------------------|----------------------|
D||-------|-------|-------|-----------------------|----------------------|
A||-------|-------|-------|-----------------7S----|----------------------|
E||-------|-------|-------|-----------------------|--0----0----0----0----|
B||-------|-------|-------|-----------------------|----------------------|


  Q    Q    Q    Q       Q    Q    Q    Q       Q    Q    Q    Q     
----------------------|----------------------|----------------------|
----------------------|----------------------|----------------------|
----------------------|----------------------|----------------------|
--0----0----0----0----|--0----0----0----0----|--0----0----0----0----|
----------------------|----------------------|----------------------|


  Q    Q    Q    Q       Q    Q    Q    Q       Q    Q    Q    Q     
----------------------|----------------------|----------------------|
----------------------|----------------------|----------------------|
----------------------|----------------------|--3----3----3----3----|
--0----0----0----0----|--0----0----2----2----|----------------------|
----------------------|----------------------|----------------------|


  Q    Q    Q    Q       Q    Q    Q    Q       Q    Q    Q    Q     
----------------------|----------------------|----------------------|
----------------------|----------------------|----------------------|
--3----3----5----5----|----------------------|------------5----5----|
----------------------|--0----0----0----0----|--0----0--------------|
----------------------|----------------------|----------------------|


  Q    Q    Q    Q       Q    Q    Q    Q       Q    Q    Q    Q     
----------------------|----------------------|----------------------|
----------------------|----------------------|----------------------|
--3----3----3----3----|--3----3----3----3----|----------------------|
----------------------|----------------------|--0----0----0----0----|
----------------------|----------------------|----------------------|


  Q    Q    Q    Q       Q    Q    Q    Q       Q    Q    Q    Q     
----------------------|----------------------|----------------------|
----------------------|----------------------|----------------------|
----------------------|--3----3----3----3----|--3----3----3----3----|
--2----2----2----2----|----------------------|----------------------|
----------------------|----------------------|----------------------|


  Q    Q    Q    Q       Q    Q    Q    Q       Q    Q    Q    Q     
----------------------|----------------------|----------------------|
----------------------|----------------------|----------------------|
----------------------|----------------------|----------------------|
--0----0----0----0----|--0----0----2----2----|--3----3----3----3----|
----------------------|----------------------|----------------------|


  Q    Q    Q    E     Q    E  E  E  E  E  E     E  E  E  E  E  E  E  E   
--------------------|-------------------------|--------------------------|
--------------------|-------------------------|--------------------------|
--------------------|--0----0--0--0--0--0--0--|--0--0--0--0--0--0--0--6--|
--3----3----3----3--|-------------------------|--------------------------|
--------------------|-------------------------|--------------------------|


  E  E  E  E  E  E  E  E     E  E  E  E  E  E  E     Q    E  E  E  E  E  E   
--------------------------|-----------------------|-------------------------|
--------------------------|-----8--8--6--6--------|-------------------------|
--L--6--6--6--6--6--6--6--|--6--------------6-----|--6----0--0--0--0--0--0--|
--------------------------|--------------------6--|-------------------------|
--------------------------|-----------------------|-------------------------|


  E  E  E  E  E  E  E  E     Q    E  E  E  E  E  E   
--------------------------|-------------------------|
--------------------------|-------------------------|
--0--0--0--0--0--0--0--0--|--6----6--6--6--6--6--6--|
--------------------------|-------------------------|
--------------------------|-------------------------|


  E  E  E  E  E  E  E  E  E     E  E  E  E  E  E  E  E   
-----------------------------|--------------------------|
-----------------------------|--------------------------|
--6--6--6--6--6--6--6--6--6--|--------------------------|
-----------------------------|--0-----0--0--0-----0--0--|
-----------------------------|--------------------------|


  E  E  E  E  E  E  E  E     E  E  E  E  E  E  E  E   
--------------------------|--------------------------|
--------------------------|--------------------------|
--------------------------|--------------------------|
--0-----0--0--0--2--3--0--|--0-----0--0--0-----0--0--|
--------------------------|--------------------------|


  E  E  E  E  E  E  E  E     E  E  E  E  E  E  E  E   
--------------------------|--------------------------|
--------------------------|--------------------------|
--------------------------|--------------------------|
--------0--0--0--2--3--0--|--0-----0--0--0-----0--0--|
--------------------------|--------------------------|


  E  E  E  E  E  E  E  E     E  E  E  E  E  E  E  E   
--------------------------|--------------------------|
--------------------------|--------------------------|
--------------------------|--------------------------|
--0-----0--0--0--2--3--0--|--0-----0--0--0-----0--0--|
--------------------------|--------------------------|


  E  E  E  E  E  E  E  E     E  E  E  E  E  E  E  E   
--------------------------|--------------------------|
--------------------------|--------------------------|
--------------------------|--------------------------|
--------0--0--0--2--3--0--|--0-----0--0--0-----0--0--|
--------------------------|--------------------------|


  E  E  E  E  E  E  E  E     E  E  E  E  E  E  E  E   
--------------------------|--------------------------|
--------------------------|--------------------------|
--------------------------|--------------------------|
--------------------------|--------------------------|
--3-----3--3--3-----3--3--|--1-----1--1--1-----1--1--|


  E  E  E  E  E  E  E  E     E  E  E  E  E  E  E  E   
--------------------------|--------------------------|
--------------------------|--------------------------|
--------------------------|--------------------------|
-----------------3--------|--0-----0--0--0-----0--0--|
--1-----1--1--1-----1--3--|--------------------------|


  E  E  E  E  E  E  E  E     E  E  E  E  E  E  E  E     E  E  E  E  E  E  E   
--------------------------|--------------------------|-----------------------|
--------------------------|--------------------------|-----------------------|
--------------------------|--------------------------|-----------------------|
--0-----0--0--3--0--1--3--|--3-----3--3--3-----3--3--|--3-----3--3--3--3--3--|
--------------------------|--------------------------|-----------------------|


  Q    E  E  E  E  E  E     E  E  E  E  E  E  E  E     E  E  E  E  E  E  E  E   
-------------------------|--------------------------|--------------------------|
-------------------------|--------------------------|--------------------------|
--0----0--0--0--0--0--0--|--0--0--0--0--0--0--0--6--|--L--6--6--6--6--6--6--6--|
-------------------------|--------------------------|--------------------------|
-------------------------|--------------------------|--------------------------|


  E  E  E  E  E  E  E     Q    E  E  E  E  E  E     E  E  E  E  E  E  E  E   
-----------------------|-------------------------|--------------------------|
-----8--8--6--6--------|-------------------------|--------------------------|
--6--------------6-----|--6----0--0--0--0--0--0--|--0--0--0--0--0--0--0--0--|
--------------------6--|-------------------------|--------------------------|
-----------------------|-------------------------|--------------------------|


  Q    E  E  E  E  E  E     E  E  E  E  E  E  E  E  E   
-------------------------|-----------------------------|
-------------------------|-----------------------------|
--6----6--6--6--6--6--6--|--6--6--6--6--6--6--6--6--6--|
-------------------------|-----------------------------|
-------------------------|-----------------------------|


  E  E  E  E  E  E  E  E     E  E  E  E  E  E  E  E   
--------------------------|--------------------------|
--------------------------|--------------------------|
--4--4--4--4--4--4--4--4--|--0--0--0--0--0--0--0--0--|
--------------------------|--------------------------|
--------------------------|--------------------------|


  E  E  E  E  E  E  E  E     E  E  H.              E  E  E  E  S S E  E  E   
--------------------------|---------------------|---------------------------|
--------------------------|---------------------|---------------------------|
--4--4--4--4--4--4--4--4--|---------------------|---------------------------|
--------------------------|--3------------------|--2--0--2--0--2-2-0--2--0--|
--------------------------|---------------------|---------------------------|


  E  E  E  E  E  E  E  E     E  E  E  E  S S E  E  E   
--------------------------|---------------------------|
--------------------------|---------------------------|
--------------------------|---------------------------|
--2--0--2--0--2--3--3--3--|--2--0--2--0--2-2-0--2--0--|
--------------------------|---------------------------|


  E  E  E  E  E  E  E  E     E  E  E  E  S S E  E  E   
--------------------------|---------------------------|
--------------------------|---------------------------|
--------------------------|---------------------------|
--2--0--2--0--2--0--0--0--|--2--0--2--0--2-2-0--2--0--|
--------------------------|---------------------------|


  E  E  E  E  E  E  E  E     E  E  E  E  S S E  E  E   
--------------------------|---------------------------|
--------------------------|---------------------------|
--------------------------|---------------------------|
--2--0--2--0--2--3--3--3--|--2--0--2--0--2-2-0--2--0--|
--------------------------|---------------------------|


  E  E  E  E  E  E  E  E     E  E  E  E  E  E  E  E   
--------------------------|--------------------------|
--------------------------|--------------------------|
--------------------------|--5--5--5--5--5--5--5--5--|
--2--0--2--0--2--0--0--0--|--------------------------|
--------------------------|--------------------------|


  E  E  E  E  E  E  E  E     E  E  E  E  E  E  E  E   
--------------------------|--------------------------|
--------------------------|--------------------------|
--5--5--5--5--3--3--3--3--|--1--1--1--1--1--1--1--1--|
--------------------------|--------------------------|
--------------------------|--------------------------|


  E  E  E  E  E  E  E  E     E  E  E  E  E  E  E  E   
--------------------------|--------------------------|
--------------------------|--------------------------|
--1--1--1--1--0--0--0--0--|--------------------------|
--------------------------|--3--3--3--3--3--3--3--3--|
--------------------------|--------------------------|


  E  E  E  E  E  E  E  E     Q    E  E  Q    E  E     Q    E  E  E  E  E  E   
--------------------------|------------------------|-------------------------|
--------------------------|------------------------|-------------------------|
--------------------------|------------------------|-------------------------|
--3--3--3--3--3--3--1--1--|------------------------|-------------------------|
--------------------------|--4----4--4--4----4--4--|--4----4--4--4--4--5--4--|


  E  E  E  E  E  E  E  E     E  E  E  E  E  E  E  E   
--------------------------|--------------------------|
--------------------------|--------------------------|
--------------------------|--------------------------|
--------------------------|--------------------------|
--3--3--3--3--3--3--3--3--|--3--3--3--3--3--5--7--3--|


  E  E  E  E  E  E  E  E     E  E  E  E  E  E  E  E   
--------------------------|--------------------------|
--------------------------|--------------------------|
--1--1--1--1--1--1--1--1--|--1--1--1--1--1--3--1--0--|
--------------------------|--------------------------|
--------------------------|--------------------------|


  E  E  E  E  E  E  E  E     E  E  E  E  E  E  E  E     Q    E  E  Q    E  E   
--------------------------|--------------------------|------------------------|
--------------------------|--------------------------|------------------------|
--------------------------|--------------------------|------------------------|
--3--3--3--3--3--3--3--3--|--3--3--3--3--3--5--3--1--|------------------------|
--------------------------|--------------------------|--4----4--4--4----4--4--|


  Q    E  E  S S E  E  E     E  E  S S E  S S E  E  E     E  E  E  E   
--------------------------|----------------------------|--------------|
--------------------------|----------------------------|--------------|
--------------------------|----------------------------|--------------|
-------------5-5-5--5--5--|--5--5--5-5-5--5-5-5--5--5--|--5--5--5--5--|
--4----4--4---------------|----------------------------|--------------|


  E  E  E  E  E  E  E  E     E  E  E  E  E  E  E  E   
--------------------------|--------------------------|
--------------------------|--------------------------|
--------------------------|--------------------------|
--0--0--0--0--0--0--0--0--|--0--0--0--0--0--0--0--0--|
--------------------------|--------------------------|


  E  E  E  E  E  E  E  E     E  E  E  E  E  E  E  E   
--------------------------|--------------------------|
--------------------------|--------------------------|
--------------------------|--------------------------|
--0--0--0--0--0--0--0--0--|--0--0--0--0--0--0--0--2--|
--------------------------|--------------------------|


  E  E  E  E  E  E  E  E     E  E  E  E  E  E  E  E   
--------------------------|--------------------------|
--------------------------|--------------------------|
--------------------------|--------------------------|
--0--0--0--0--0--0--0--0--|--0--0--0--0--0--0--0--0--|
--------------------------|--------------------------|


  E  E  E  E  E  E  E  E     E  E  E  E  E  E  E  E   
--------------------------|--------------------------|
--------------------------|--------------------------|
--------------------------|--------------------------|
--0--0--0--0--0--0--0--0--|--3--0--2--0--3--2--0-----|
--------------------------|-----------------------3--|


  E  E  E  E  E  E  E  E     E  E  E  E  E  E  E  E   
--------------------------|--------------------------|
--------------------------|--------------------------|
--------------------------|--------------------------|
--0--0--0--0--0--0--0--0--|--------------------------|
--------------------------|--3--3--3--3--3--3--3--3--|


  E  E  E  E  E  E  E  E     E  E  E  E  E  E  E  E   
--------------------------|--------------------------|
--------------------------|--------------------------|
--------------------------|--------------------------|
--------------------------|--------------------------|
--1--1--1--1--1--1--1--1--|--1--1--1--1--1--1--3--1--|


  E  E  E  E  E  E  E  E     E  E  E  E  E  E  E  E   
--------------------------|--------------------------|
--------------------------|--------------------------|
--------------------------|--------------------------|
--0--0--0--0--0--0--0--0--|--0--0--0--0--0--0--2--2--|
--------------------------|--------------------------|


  E  E  E  E  E  E  E  E     E  E  E  E  E  E  E     Q    E  E  E  E  E  E   
--------------------------|-----------------------|-------------------------|
--------------------------|-----------------------|-------------------------|
--------------------------|-----------------------|--0----0--0--0--0--0--0--|
--3--3--3--3--3--3--3--3--|--3--3--3--3--3--3--3--|-------------------------|
--------------------------|-----------------------|-------------------------|


  E  E  E  E  E  E  E  E     E  E  E  E  E  E  E  E     E  E  E  E  E  E  E   
--------------------------|--------------------------|-----------------------|
--------------------------|--------------------------|-----8--8--6--6--------|
--0--0--0--0--0--0--0--6--|--L--6--6--6--6--6--6--6--|--6--------------6-----|
--------------------------|--------------------------|--------------------6--|
--------------------------|--------------------------|-----------------------|


  Q    E  E  E  E  E  E     E  E  E  E  E  E  E  E     Q    E  E  E  E  E  E   
-------------------------|--------------------------|-------------------------|
-------------------------|--------------------------|-------------------------|
--6----0--0--0--0--0--0--|--0--0--0--0--0--0--0--0--|--6----6--6--6--6--6--6--|
-------------------------|--------------------------|-------------------------|
-------------------------|--------------------------|-------------------------|


  E  E  E  E  E  E  E  E  E     E  E  E  E  E  E  E  E   
-----------------------------|--------------------------|
-----------------------------|--------------------------|
--6--6--6--6--6--6--6--6--6--|--4--4--4--4--4--4--4--4--|
-----------------------------|--------------------------|
-----------------------------|--------------------------|


  E  E  E  E  E  E  E  E     E  E  E  E  E  E  E  E   
--------------------------|--------------------------|
--------------------------|--------------------------|
--0--0--0--0--0--0--0--0--|--4--4--4--4--4--4--4--4--|
--------------------------|--------------------------|
--------------------------|--------------------------|


  E  E  E  E  E  E  E  E     E  E  E  E  E  E  E  E   
--------------------------|--------------------------|
--------------------------|--------------------------|
--------------------------|--4--4--4--4--4--4--4--4--|
--3--3--3--3--3--3--3--3--|--------------------------|
--------------------------|--------------------------|


  E  E  E  E  E  E  E  E     E  E  E  E  E  E  E  E   
--------------------------|--------------------------|
--------------------------|--------------------------|
--0--0--0--0--0--0--0--0--|--4--4--4--4--4--4--4--4--|
--------------------------|--------------------------|
--------------------------|--------------------------|


  E  E  E  E  E  E  E  E     E  E  E  E  S S E  E  E   
--------------------------|---------------------------|
--------------------------|---------------------------|
--------------------------|---------------------------|
--3-----3-----3-----3-----|--2--0--2--0--2-2-0--2--0--|
--------------------------|---------------------------|


  E  E  E  E  E  E  E  E     E  E  E  E  S S E  E  E   
--------------------------|---------------------------|
--------------------------|---------------------------|
--------------------------|---------------------------|
--2--0--2--0--2--3--3--3--|--2--0--2--0--2-2-0--2--0--|
--------------------------|---------------------------|


  E  E  E  E  E  E  E  E     E  E  E  E  S S E  E  E   
--------------------------|---------------------------|
--------------------------|---------------------------|
--------------------------|---------------------------|
--2--0--2--0--2--0--0--0--|--2--0--2--0--2-2-0--2--0--|
--------------------------|---------------------------|


  E  E  E  E  E  E  E  E     E  E  E  E  S S E  E  E   
--------------------------|---------------------------|
--------------------------|---------------------------|
--------------------------|---------------------------|
--2--0--2--0--2--3--3--3--|--2--0--2--0--2-2-0--2--0--|
--------------------------|---------------------------|


  E  E  E  E  E  E  E  E     E  E  E  E  E  E  E  E   
--------------------------|--------------------------|
--------------------------|--------------------------|
--------------------------|--5--5--5--5--5--5--5--5--|
--2--0--2--0--2--0--0--0--|--------------------------|
--------------------------|--------------------------|


  E  E  E  E  E  E  E  E     E  E  E  E  E  E  E  E   
--------------------------|--------------------------|
--------------------------|--------------------------|
--5--5--5--5--3--3--3--3--|--1--1--1--1--1--1--1--1--|
--------------------------|--------------------------|
--------------------------|--------------------------|


  E  E  E  E  E  E  E  E     E  E  E  E  E  E  E  E   
--------------------------|--------------------------|
--------------------------|--------------------------|
--1--1--1--1--0--0--0--0--|--------------------------|
--------------------------|--3--3--3--3--3--3--3--3--|
--------------------------|--------------------------|


  E  E  E  E  E  E  E  E     Q    E  E  Q    E  E     Q    E  E  E  E  E  E   
--------------------------|------------------------|-------------------------|
--------------------------|------------------------|-------------------------|
--------------------------|------------------------|-------------------------|
--3--3--3--3--3--3--1--1--|------------------------|-------------------------|
--------------------------|--4----4--4--4----4--4--|--4----4--4--4--4--5--4--|


  E  E  E  E  E  E  E  E     E  E  E  E  E  E  E  E   
--------------------------|--------------------------|
--------------------------|--------------------------|
--------------------------|--------------------------|
--------------------------|--------------------------|
--3--3--3--3--3--3--3--3--|--3--3--3--3--3--5--7--3--|


  E  E  E  E  E  E  E  E     E  E  E  E  E  E  E  E   
--------------------------|--------------------------|
--------------------------|--------------------------|
--1--1--1--1--1--1--1--1--|--1--1--1--1--1--3--1--0--|
--------------------------|--------------------------|
--------------------------|--------------------------|


  E  E  E  E  E  E  E  E     E  E  E  E  E  E  E  E     Q    E  E  Q    E  E   
--------------------------|--------------------------|------------------------|
--------------------------|--------------------------|------------------------|
--------------------------|--------------------------|------------------------|
--3--3--3--3--3--3--3--3--|--3--3--3--3--3--5--3--1--|------------------------|
--------------------------|--------------------------|--4----4--4--4----4--4--|


  Q    E  E     E  E  E  Q    E  E  E     S S S S E  E  S S S S S S S S  
-------------|-------------------------|--------------------------------|
-------------|-------------------------|--------------------------------|
-------------|-------------------------|--------------------------------|
-------------|--0-----6-------0-----6--|--0-0-0-0-6-----0-0-0-0-6-6-6-6-|
--4----4--4--|-------------------------|--------------------------------|


  E  E  E  Q    E  E  E     S S S S E  E  S S S S S S S S  
-------------------------|--------------------------------|
-------------------------|--------------------------------|
-------------------------|--------------------------------|
--0-----6-------0-----6--|--0-0-0-0-6-----0-0-0-0-6-6-6-6-|
-------------------------|--------------------------------|


  E  E  E  Q    E  E  E     S S S S E  E  S S S S S S S S  
-------------------------|--------------------------------|
-------------------------|--------------------------------|
--------0-------------0--|----------0-------------0-0-0-0-|
--1-------------1--------|--1-1-1-1-------1-1-1-1---------|
-------------------------|--------------------------------|


  E  E  E  Q    E  E  E     S S S S E  E  S S S S S S S S  
-------------------------|--------------------------------|
-------------------------|--------------------------------|
--------1-------------1--|----------1-------------1-1-1-1-|
--2-------------2--------|--2-2-2-2-------2-2-2-2---------|
-------------------------|--------------------------------|


  E  E  E  Q    E  E  E     S S S S E  E  S S S S S S S S  
-------------------------|--------------------------------|
-------------------------|--------------------------------|
--------0-------------0--|----------0-------------0-0-0-0-|
--1-------------1--------|--1-1-1-1-------1-1-1-1---------|
-------------------------|--------------------------------|


  E  E  E  Q    E  E  E     S S S S E  E  S S S S S S S S  
-------------------------|--------------------------------|
-------------------------|--------------------------------|
--------1-------------1--|----------1-------------1-1-1-1-|
--2-------------2--------|--2-2-2-2-------2-2-2-2---------|
-------------------------|--------------------------------|


  E  E  E  Q    E  E  E     S S S S E  E  S S S S S S S S  
-------------------------|--------------------------------|
-------------------------|--------------------------------|
--------0-------------0--|----------0-------------0-0-0-0-|
--1-------------1--------|--1-1-1-1-------1-1-1-1---------|
-------------------------|--------------------------------|


  E  E  E  Q    E  E  E     S S S S E  E  S S S S S S S S  
-------------------------|--------------------------------|
-------------------------|--------------------------------|
--------1-------------1--|----------1-------------1-1-1-1-|
--2-------------2--------|--2-2-2-2-------2-2-2-2---------|
-------------------------|--------------------------------|


  E  E  E  Q    E  E  E     S S S S E  E  S S S S S S S S  
-------------------------|--------------------------------|
-------------------------|--------------------------------|
--------0-------------0--|----------0-------------0-0-0-0-|
--1-------------1--------|--1-1-1-1-------1-1-1-1---------|
-------------------------|--------------------------------|


  E  E  E  Q    E  E  E     S S S S S S S S S S S S S S S S  
-------------------------|----------------------------------|
-------------------------|----------------------------------|
--------1-------------1--|----------1-1-1-1---------1-1-1-1-|
--2-------------2--------|--2-2-2-2---------2-2-2-2---------|
-------------------------|----------------------------------|


  E  E  E  E  E  E  E  E     E  E  E  E  E  E  E  E   
--------------------------|--------------------------|
--------------------------|--------------------------|
--------------------------|--------------------------|
--5--5--5--5--5--5--5--5--|--7--7--7--7--7--7--7--7--|
--------------------------|--------------------------|


  E  E  E  E  E  E  E  E     E  E  E  E  E  E  E  E   
--------------------------|--------------------------|
--------------------------|--------------------------|
--4--4--4--4--4--4--4--4--|--------------------------|
--------------------------|--4--4--4--4--4--4--4--7--|
--------------------------|--------------------------|


  E  S S E  E  E  S S E  E     E  S S E  E  E  S S E  E   
----------------------------|----------------------------|
----------------------------|----------------------------|
----------------------------|----------------------------|
--5--5-5-5--5--5--5-5-5--5--|--7--7-7-7--7--7--7-7-7--7--|
----------------------------|----------------------------|


  E  S S E  E  E  S S E  E     E  E  E  E  E  E  E  E   
----------------------------|--------------------------|
----------------------------|--------------------------|
--4--4-4-4--4--4--4-4-4--4--|--7--7--7--7--7--7--7--7--|
----------------------------|--------------------------|
----------------------------|--------------------------|


  S S S S S S S S S S S S S S S S    S S S S S S S S S S S S S S S S  
----------------------------------|----------------------------------|
----------------------------------|----------------------------------|
----------------------------------|----------------------------------|
----------------------------------|----------------------------------|
--3-3-3-3-3-3-3-3-3-3-3-3-3-3-3-3-|--5-5-5-5-5-5-5-5-5-5-5-5-5-5-5-5-|


  S S S S S S S S S S S S S S S S    S S S S S S S S S S S S S S S S  
----------------------------------|----------------------------------|
----------------------------------|----------------------------------|
----------------------------------|----------------------------------|
----------------------------------|----------------------------------|
--7-7-7-7-7-7-7-7-7-7-7-7-7-7-7-7-|--2-2-2-2-2-2-2-2-2-2-2-2-2-2-5-5-|


  S S S S S S S S S S S S S S S S    S S S S S S S S S S S S S S S S  
----------------------------------|----------------------------------|
----------------------------------|----------------------------------|
----------------------------------|----------------------------------|
----------------------------------|--0-0-0-0-0-0-0-0-0-0-0-0-0-0-0-0-|
--3-3-3-3-3-3-3-3-3-3-3-3-3-3-3-3-|----------------------------------|


  E  E  S S E  E  E  S S E     E  E  S S E  E  E  E  E   
----------------------------|---------------------------|
----------------------------|---------------------------|
----------------------------|---------------------------|
--2--0--2---0--2--0--2---0--|--2--0--2---0--2--3--3--3--|
----------------------------|---------------------------|


  E  E  S S E  E  E  S S E     E  E  S S E  E  E  E  E   
----------------------------|---------------------------|
----------------------------|---------------------------|
----------------------------|---------------------------|
--2--0--2---0--2--0--2---0--|--2--0--2---0--2--0--0--0--|
----------------------------|---------------------------|


  E  E  S S E  E  E  S S E     E  E  S S E  E  E  E  E   
----------------------------|---------------------------|
----------------------------|---------------------------|
----------------------------|---------------------------|
--2--0--2---0--2--0--2---0--|--2--0--2---0--2--3--3--3--|
----------------------------|---------------------------|


  E  E  S S E  E  E  S S E     E  E  S S H        E     W                 
----------------------------|------------------------|-------------------|
----------------------------|------------------------|-------------------|
----------------------------|------------------------|--5----------------|
--2--0--2---0--2--0--2---0--|--2--0--2---0--------L--|-------------------|
----------------------------|------------------------|-------------------|


  W                   E  E  E  E  E  E  E  E     E  E  E  E  E  E  E  E   
-------------------|--------------------------|--------------------------|
-------------------|--------------------------|--------------------------|
--L----------------|--1--1--1--1--1--1--1--1--|--1--1--1--1--1--3--1--0--|
-------------------|--------------------------|--------------------------|
-------------------|--------------------------|--------------------------|


  E  E  E  E  E  E  E  E     E  E  E  E  E  E  E  E   
--------------------------|--------------------------|
--------------------------|--------------------------|
--------------------------|--------------------------|
--3--3--3--3--3--3--3--3--|--3--3--3--3--3--3--1--1--|
--------------------------|--------------------------|


  E  E  E  E  E  E  E  E     E  E  E  E  E  E  E  E   
--------------------------|--------------------------|
--------------------------|--------------------------|
--------------------------|--------------------------|
--------------------------|--------------------------|
--4--4--4--4--4--4--4--4--|--4--4--4--4--4--6--4--3--|


  E  E  E  E  E  E  E  E     E  E  E  E  E  E  E  E   
--------------------------|--------------------------|
--------------------------|--------------------------|
--------------------------|--------------------------|
--------------------------|--------------------------|
--3--3--3--3--3--3--3--3--|--3--3--3--3--3--5--7--3--|


  E  E  E  E  E  E  E  E     E  E  E  E  E  E  E  E   
--------------------------|--------------------------|
--------------------------|--------------------------|
--1--1--1--1--1--1--1--1--|--1--1--1--1--1--3--1--0--|
--------------------------|--------------------------|
--------------------------|--------------------------|


  E  E  E  E  E  E  E  E     E  E  E  E  E  E  E  E     Q    E  E  Q    E  E   
--------------------------|--------------------------|------------------------|
--------------------------|--------------------------|------------------------|
--------------------------|--------------------------|------------------------|
--3--3--3--3--3--3--3--3--|--3--3--3--3--3--3--1--1--|------------------------|
--------------------------|--------------------------|--4----4--4--4----4--4--|


  Q    E  E  Q    E  E     S S S S S S S S S S S S S S S S  
------------------------|----------------------------------|
------------------------|----------------------------------|
------------------------|--5-5-5-5-5-5-5-5-5-5-5-5-5-5-5-5-|
------------------------|----------------------------------|
--4----4--4--8----8--8--|----------------------------------|


  S S S S S S S S S S S S S S S S    S S S S S S S S S S S S S S S S  
----------------------------------|----------------------------------|
----------------------------------|----------------------------------|
--5-5-5-5-5-5-5-5-5-5-5-5-5-7-5-3-|--1-1-1-1-1-1-1-1-1-1-1-1-1-1-1-1-|
----------------------------------|----------------------------------|
----------------------------------|----------------------------------|


  S S S S S S S S S S S S S S S S    S S S S S S S S S S S S S S S S  
----------------------------------|----------------------------------|
----------------------------------|----------------------------------|
--1-1-1-1-1-1-1-1-1-1-1-1-1-3-1-0-|----------------------------------|
----------------------------------|--3-3-3-3-3-3-3-3-3-3-3-3-3-3-3-3-|
----------------------------------|----------------------------------|


  S S S S S S S S S S S S S S S S    S S S S S S S S S S S S S S S S  
----------------------------------|----------------------------------|
----------------------------------|----------------------------------|
----------------------------------|----------------------------------|
--3-3-3-3-3-3-3-3-3-3-3-3-3-3-3-3-|----------------------------------|
----------------------------------|--4-4-4-4-4-4-4-4-4-4-4-4-4-4-4-4-|


  S S S S S S S S S S S S S S S S    S S S S S S S S S S S S S S S S  
----------------------------------|----------------------------------|
----------------------------------|----------------------------------|
----------------------------------|--5-5-5-5-5-5-5-5-5-5-5-5-5-5-5-5-|
----------------------------------|----------------------------------|
--4-4-4-4-4-4-4-4-4-4-4-4-4-4-4-4-|----------------------------------|


  S S S S S S S S S S S S S S S S    S S S S S S S S S S S S S S S S  
----------------------------------|----------------------------------|
----------------------------------|--8-8-8-8-8-8-8-8-8-8-8-8-8-8-8-8-|
--5-5-5-5-5-5-5-5-5-5-5-5-7-5-7-8-|----------------------------------|
----------------------------------|----------------------------------|
----------------------------------|----------------------------------|


  S S S S S S S S S S S S S  S S S    S S S S S S S S S S S S S S S S  
-----------------------------------|----------------------------------|
--8-8-8-8-8-8-8-8-8-8-8-8-8-10-8-7-|----------------------------------|
-----------------------------------|----------------------------------|
-----------------------------------|--3-3-3-3-3-3-3-3-3-3-3-3-3-3-3-3-|
-----------------------------------|----------------------------------|


  S S S S S S S S S S S S S S S S    H        H           H        H         
----------------------------------|--------------------|--------------------|
----------------------------------|--------------------|--------------------|
----------------------------------|--6-----------------|--6-----------------|
--3-3-3-3-3-3-3-3-3-3-3-3-3-3-3-3-|--------------------|-----------5--------|
----------------------------------|-----------4--------|--------------------|


  W                   H        H          
-------------------|--------------------||
-------------------|--------------------||
-------------------|--------------------||
--L----------------|--L-----------------||
-------------------|--------------------||


comments
We did not receive enough feedback on this tab! Please rate:
print report bad tab
1 2 3 4 5
I want to post or [tab]
guest
You may want to rate the tab now too:
select rating
Please do not post tabs as comments. Select "correction" instead!