Oops, an error
Loading. Please wait.

Aegan Shores Tab

934 views 3 this week
no commentswrite comment
1 2 3 4 5
please rate
add to favorites launch autoscroll
font size
0
reset
Autoscroll
+/-
esc
set tempo
stop
Contributor
WARNING: You are trying to view
                                    content from Ultimate-Guitar.com
                                    in an unauthorized application,
                                    which is prohibited.

                                    Please use an official Ultimate
                                    Guitar Tabs application for iPhone,
                                    iPad or Android to access legitimate
                                    chords, guitar, bass, and drum tabs
                                    from Ultimate-Guitar.com database.

                                    Type "ultimate guitar tabs" in Apple
                                    App Store's or Android Market's
                                    search to find the application.
Pagan's Mind
Aegan Shores
Celestial Entrance
Tod Allgemeinen 

     PM PM PM PM PM PM            PM PM PM PM PM PM          
     E  E  E  E  E  E  S S S S    E  E  E  E  E  E  S S S S  
E||----------------------------|----------------------------|
B||----------------------------|----------------------------|
G||----------------------------|----------------------------|
D||----------------------------|----------------------------|
A||--7--7--7--7--7--7--7-7-7-7-|--7--7--7--7--7--7--7-7-7-7-|
E||--0--0--0--0--0--0--0-0-0-0-|--0--0--0--0--0--0--0-0-0-0-|


  PM PM PM PM PM PM            PM PM PM PM PM PM          
  E  E  E  E  E  E  S S S S    E  E  E  E  E  E  S S S S  
----------------------------|----------------------------|
----------------------------|----------------------------|
----------------------------|----------------------------|
----------------------------|----------------------------|
--7--7--7--7--7--7--7-7-7-7-|--7--7--7--7--7--7--7-7-7-7-|
--0--0--0--0--0--0--0-0-0-0-|--0--0--0--0--0--0--0-0-0-0-|


  PM PM PM PM PM PM            PM PM PM PM PM PM          
  E  E  E  E  E  E  S S S S    E  E  E  E  E  E  S S S S  
----------------------------|----------------------------|
----------------------------|----------------------------|
----------------------------|----------------------------|
----------------------------|----------------------------|
--7--7--7--7--7--7--7-7-7-7-|--7--7--7--7--7--7--7-7-7-7-|
--0--0--0--0--0--0--0-0-0-0-|--0--0--0--0--0--0--0-0-0-0-|


  PM PM PM PM PM PM            PM PM PM PM PM PM                              
  E  E  E  E  E  E  S S S S    E  E  E  E  E  E  S S S S    W                 
----------------------------|----------------------------|-------------------|
----------------------------|----------------------------|-------------------|
----------------------------|----------------------------|-------------------|
----------------------------|----------------------------|--2----------------|
--7--7--7--7--7--7--7-7-7-7-|--7--7--7--7--7--7--7-7-7-7-|--2----------------|
--0--0--0--0--0--0--0-0-0-0-|--0--0--0--0--0--0--0-0-0-0-|--0----------------|


  H        H           W                   W                 
--------------------|-------------------|-------------------|
--------------------|-------------------|-------------------|
--------------------|--5----------------|--5----------------|
--2-----------------|--5----------------|--5----------------|
--2--------2--------|--3----------------|--3----------------|
--0-----------------|-------------------|-------------------|


  W                   H        H           W                 
-------------------|--------------------|-------------------|
-------------------|--------------------|-------------------|
-------------------|--------------------|--5----------------|
--2----------------|--2-----------------|--5----------------|
--2----------------|--2--------5--------|--3----------------|
--0----------------|--0-----------------|-------------------|


  W                   W                   W                   W                 
-------------------|-------------------|-------------------|-------------------|
-------------------|-------------------|-------------------|-------------------|
--5----------------|-------------------|-------------------|--5----------------|
--5----------------|--2----------------|--4----------------|--5----------------|
--3----------------|--2----------------|--4----------------|--3----------------|
-------------------|--0----------------|--2----------------|-------------------|


  W                   W                   H        H         
-------------------|-------------------|--------------------|
-------------------|-------------------|--------------------|
--5----------------|-------------------|--------------------|
--5----------------|--2----------------|--------------------|
--3----------------|--2----------------|--------------------|
-------------------|--0----------------|--0--------2--------|


  W                   H        Q.        Q    E  E  E  E  E  E   
-------------------|------------------|-------------------------|
-------------------|------------------|-------------------------|
-------------------|------------------|--8----9-----------------|
--5----------------|--L--------L------|--9----9-----------------|
--5----------------|--L--------L------|----------0--0--0--0--0--|
--3----------------|--L--------L------|-------------------------|


  E  E  E  E  E  E  E  E     W                   H        Q.      
--------------------------|-------------------|------------------|
--------------------------|-------------------|------------------|
-----------------------8--|--L----------------|--L--------L------|
-----------------------8--|--L----------------|--L--------L------|
--0--0--0--0--0--0--0--6--|--L----------------|--L--------L------|
--------------------------|-------------------|------------------|


  Q    E  E  E  E  E  E     E  E  E  E  E  E  E  E     W                 
-------------------------|--------------------------|-------------------|
-------------------------|--------------------------|-------------------|
--8----9-----------------|--------------------------|--8----------------|
--9----9-----------------|--------------------------|--8----------------|
----------0--0--0--0--0--|--0--0--0--0--0--0--0--0--|--6----------------|
-------------------------|--------------------------|-------------------|


  H        H        E     H         H                                       
-----------------------|---------------------|-----|-----|-----|-----|-----|
-----------------------|---------------------|-----|-----|-----|-----|-----|
--L--------L--------L--|--9\-----------------|-----|-----|-----|-----|-----|
--L--------L--------L--|--9\-----------------|-----|-----|-----|-----|-----|
--L--------L--------6--|--7\-----------------|-----|-----|-----|-----|-----|
-----------------------|---------------------|-----|-----|-----|-----|-----|


                                                        Q    Q      Q      E   
-----|-----|-----|-----|-----|-----|-----|-----|-----|------------------------|
-----|-----|-----|-----|-----|-----|-----|-----|-----|------------------------|
-----|-----|-----|-----|-----|-----|-----|-----|-----|------------(17)\----L--|
-----|-----|-----|-----|-----|-----|-----|-----|-----|------------(17)\----L--|
-----|-----|-----|-----|-----|-----|-----|-----|-----|------------(15)\----L--|
-----|-----|-----|-----|-----|-----|-----|-----|-----|------------------------|


  Q    E  E  E  E  E  E     E  E  E  E  E  E  E  E     W                 
-------------------------|--------------------------|-------------------|
-------------------------|--------------------------|-------------------|
--8----9-----------------|-----------------------8--|--L----------------|
--9----9-----------------|-----------------------8--|--L----------------|
----------0--0--0--0--0--|--0--0--0--0--0--0--0--6--|--L----------------|
-------------------------|--------------------------|-------------------|


  H        Q.        Q    E  E  E  E  E  E     E  E  E  E  E  E  E  E   
------------------|-------------------------|--------------------------|
------------------|-------------------------|--------------------------|
--L--------L------|--8----9-----------------|--------------------------|
--L--------L------|--9----9-----------------|--------------------------|
--L--------L------|----------0--0--0--0--0--|--0--0--0--0--0--0--0--0--|
------------------|-------------------------|--------------------------|


  W                   H        H        E     W                 
-------------------|-----------------------|-------------------|
-------------------|-----------------------|-------------------|
--8----------------|--L--------L--------L--|--6----------------|
--8----------------|--L--------L--------L--|--6----------------|
--6----------------|--L--------L--------L--|--4----------------|
-------------------|-----------------------|-------------------|


  W                   W                   E  E  H.            
-------------------|-------------------|---------------------|
-------------------|-------------------|---------------------|
--2----------------|--6----------------|---------------------|
--2----------------|--6----------------|--5------------------|
--0----------------|--4----------------|--5------------------|
-------------------|-------------------|--3------------------|


  E  E  E  E  S S E  E  E     E  E  S S E  E  E  Q     
---------------------------|--------------------------|
---------------------------|--------------------------|
---------------------------|--------------------------|
---------------------------|------------------5--L----|
---------------------------|------------------5--L----|
--2--0--2--0--2-2-0--2--0--|--2--0--2-2-0--2--3--L----|


  E  E  E  E  S S E  E  E     E  E  S S E  E  E  Q     
---------------------------|--------------------------|
---------------------------|--------------------------|
---------------------------|--------------------------|
---------------------------|------------------2--L----|
---------------------------|------------------2--L----|
--2--0--2--0--2-2-0--2--0--|--2--0--2-2-0--2--0--L----|


  E  E  E  E  S S E  E  E     E  E  S S E  E  E  Q     
---------------------------|--------------------------|
---------------------------|--------------------------|
---------------------------|--------------------------|
---------------------------|------------------5--L----|
---------------------------|------------------5--L----|
--2--0--2--0--2-2-0--2--0--|--2--0--2-2-0--2--3--L----|


  E  E  E  E  S S E  E  E     E  E  E  E   H            W                 
---------------------------|-------------------------|-------------------|
---------------------------|-------------------------|-------------------|
---------------------------|-------------------------|--7----------------|
---------------------------|-------------------------|--7----------------|
---------------------------|--------------10\--------|--5----------------|
--2--0--2--0--2-2-0--2--0--|--2--0--2--3--10\--------|-------------------|


  H        H           W                   H        H         
--------------------|-------------------|--------------------|
--------------------|-------------------|--------------------|
--L--------5--------|--3----------------|--L--------2--------|
--L--------5--------|--3----------------|--L--------3--------|
--L--------3--------|--1----------------|--L--------0--------|
--------------------|-------------------|--------------------|


  W                   W                     H          H         
-------------------|-------------------|------------------------|
-------------------|-------------------|------------------------|
-------------------|-------------------|------------------------|
--5----------------|--L----------------|------------------------|
--5----------------|--L----------------|--4g6--------6g8--------|
--3----------------|--L----------------|------------------------|


     H          H           W                   W                 
-------------------------|-------------------|-------------------|
-------------------------|-------------------|-------------------|
-------------------------|--7----------------|--L----------------|
--------------6g8--------|--7----------------|--L----------------|
--8g10-------------------|--5----------------|--L----------------|
-------------------------|-------------------|-------------------|


  W                   W                   E  E  S S E  S S E  E  E   
-------------------|-------------------|----------------------------|
-------------------|-------------------|----------------------------|
--3----------------|--L----------------|----------------------------|
--3----------------|--L----------------|----------------------------|
--1----------------|--L----------------|----------------------------|
-------------------|-------------------|--3--3--3-3-3--3-3-3--3--3--|


  E  S S E  E  E  E  E  E       H          H         
---------------------------|------------------------|
---------------------------|------------------------|
---------------------------|------------------------|
---------------------------|------------------------|
---------------------------|--4g6--------6g8--------|
--3--3-3-3--3--3--5--3--1--|------------------------|


     H        S S E  E  E     E  E  S S E  S S E  E  E     E  E  E  E   
---------------------------|----------------------------|--------------|
---------------------------|----------------------------|--------------|
---------------------------|----------------------------|--------------|
---------------------------|----------------------------|--------------|
--8g10---------------------|----------------------------|--------------|
--------------5-5-5--5--5--|--5--5--5-5-5--5-5-5--5--5--|--5--5--5--5--|


  H         H                                                               
---------------------|-----|-----|-----|-----|-----|-----|-----|-----|-----|
---------------------|-----|-----|-----|-----|-----|-----|-----|-----|-----|
--9\-----------------|-----|-----|-----|-----|-----|-----|-----|-----|-----|
--9\-----------------|-----|-----|-----|-----|-----|-----|-----|-----|-----|
--7\-----------------|-----|-----|-----|-----|-----|-----|-----|-----|-----|
---------------------|-----|-----|-----|-----|-----|-----|-----|-----|-----|


                                Q    Q      Q      E   
-----|-----|-----|-----|-----|------------------------|
-----|-----|-----|-----|-----|------------------------|
-----|-----|-----|-----|-----|------------(17)\----L--|
-----|-----|-----|-----|-----|------------(17)\----L--|
-----|-----|-----|-----|-----|------------(15)\----L--|
-----|-----|-----|-----|-----|------------------------|


  Q    E  E  E  E  E  E     E  E  E  E  E  E  E  E     W                 
-------------------------|--------------------------|-------------------|
-------------------------|--------------------------|-------------------|
--8----9-----------------|-----------------------8--|--L----------------|
--9----9-----------------|-----------------------8--|--L----------------|
----------0--0--0--0--0--|--0--0--0--0--0--0--0--6--|--L----------------|
-------------------------|--------------------------|-------------------|


  H        Q.        Q    E  E  E  E  E  E     E  E  E  E  E  E  E  E   
------------------|-------------------------|--------------------------|
------------------|-------------------------|--------------------------|
--L--------L------|--8----9-----------------|--------------------------|
--L--------L------|--9----9-----------------|--------------------------|
--L--------L------|----------0--0--0--0--0--|--0--0--0--0--0--0--0--0--|
------------------|-------------------------|--------------------------|


  W                   H        H        E     W                 
-------------------|-----------------------|-------------------|
-------------------|-----------------------|-------------------|
--8----------------|--L--------L--------L--|--6----------------|
--8----------------|--L--------L--------L--|--6----------------|
--6----------------|--L--------L--------L--|--4----------------|
-------------------|-----------------------|-------------------|


  W                   W                   W                   W                 
-------------------|-------------------|-------------------|-------------------|
-------------------|-------------------|-------------------|-------------------|
--2----------------|--6----------------|-------------------|--6----------------|
--2----------------|--6----------------|--5----------------|--6----------------|
--0----------------|--4----------------|--5----------------|--4----------------|
-------------------|-------------------|--3----------------|-------------------|


  W                   W                   E  E  E  E  E  E  E  E   
-------------------|-------------------|--------------------------|
-------------------|-------------------|--------------------------|
--2----------------|--6----------------|--------------------------|
--2----------------|--6----------------|--5-----5-----5-----5-----|
--0----------------|--4----------------|--5-----5-----5-----5-----|
-------------------|-------------------|--3-----3-----3-----3-----|


  E  E  E  E  S S E  E  E     E  E  S S E  E  E  Q     
---------------------------|--------------------------|
---------------------------|--------------------------|
---------------------------|--------------------------|
---------------------------|------------------5--L----|
---------------------------|------------------5--L----|
--2--0--2--0--2-2-0--2--0--|--2--0--2-2-0--2--3--L----|


  E  E  E  E  S S E  E  E     E  E  S S E  E  E  Q     
---------------------------|--------------------------|
---------------------------|--------------------------|
---------------------------|--------------------------|
---------------------------|------------------2--L----|
---------------------------|------------------2--L----|
--2--0--2--0--2-2-0--2--0--|--2--0--2-2-0--2--0--L----|


  E  E  E  E  S S E  E  E     E  E  S S E  E  E  Q     
---------------------------|--------------------------|
---------------------------|--------------------------|
---------------------------|--------------------------|
---------------------------|------------------5--L----|
---------------------------|------------------5--L----|
--2--0--2--0--2-2-0--2--0--|--2--0--2-2-0--2--3--L----|


  E  E  E  E  S S E  E  E     E  E  E  E   H            W                 
---------------------------|-------------------------|-------------------|
---------------------------|-------------------------|-------------------|
---------------------------|-------------------------|--7----------------|
---------------------------|-------------------------|--7----------------|
---------------------------|--------------10\--------|--5----------------|
--2--0--2--0--2-2-0--2--0--|--2--0--2--3--10\--------|-------------------|


  H        H           W                   H        H         
--------------------|-------------------|--------------------|
--------------------|-------------------|--------------------|
--L--------5--------|--3----------------|--L--------2--------|
--L--------5--------|--3----------------|--L--------3--------|
--L--------3--------|--1----------------|--L--------0--------|
--------------------|-------------------|--------------------|


  W                   W                     H          H         
-------------------|-------------------|------------------------|
-------------------|-------------------|------------------------|
-------------------|-------------------|------------------------|
--5----------------|--L----------------|------------------------|
--5----------------|--L----------------|--4g6--------6g8--------|
--3----------------|--L----------------|------------------------|


     H          H           W                   W                 
-------------------------|-------------------|-------------------|
-------------------------|-------------------|-------------------|
-------------------------|--7----------------|--L----------------|
--------------6g8--------|--7----------------|--L----------------|
--8g10-------------------|--5----------------|--L----------------|
-------------------------|-------------------|-------------------|


  W                   W                   E  E  E  E  E  E  E  S S  
-------------------|-------------------|---------------------------|
-------------------|-------------------|---------------------------|
--3----------------|--L----------------|---------------------------|
--3----------------|--L----------------|--------5-----3--5---------|
--1----------------|--L----------------|---------------------------|
-------------------|-------------------|--3--3-----3--------3--3-3-|


  E  E  E  E  E  E  E  E       H          H              H         
--------------------------|------------------------|--------------|
--------------------------|------------------------|--------------|
--------------------------|------------------------|--------------|
--------5-----------------|------------------------|--------------|
--------------------------|--4g6--------6g8--------|--8g10--------|
--3--3-----3--3--3--1--1--|------------------------|--------------|


  E  E  E.  E.  E  E  E     S S S S E.  S S S S S S S S S  
-------------------------|--------------------------------|
-------------------------|--------------------------------|
--9----------------------|--------------------------------|
--9-----8-------2-----8--|----------8---------------------|
--7-----8-------2-----8--|----------8---------------------|
--------6-------0-----6--|--0-0-0-0-6-----0-0-0-0-6-6-6-6-|


  E  E  E.  E.  E  E  E     S S S S E.  S S S S S S S S S  
-------------------------|--------------------------------|
-------------------------|--------------------------------|
--9-------------9--------|--------------------------------|
--9-----8-------9-----8--|----------8---------------------|
--7-----8-------7-----8--|----------8---------------------|
--------6-------------6--|--0-0-0-0-6-----0-0-0-0-6-6-6-6-|


  E  E  E  Q    E  E  E     S S S S E  E  S S S S S S S S  
-------------------------|--------------------------------|
-------------------------|--------------------------------|
-------------------------|--------------------------------|
-------------------------|--------------------------------|
--------0-------------0--|----------0-------------0-0-0-0-|
--1-------------1--------|--1-1-1-1-------1-1-1-1---------|


  E  E  E  Q    E  E  E     S S S S E  E  S S S S S S S S  
-------------------------|--------------------------------|
-------------------------|--------------------------------|
-------------------------|--------------------------------|
-------------------------|--------------------------------|
--------1-------------1--|----------1-------------1-1-1-1-|
--2-------------2--------|--2-2-2-2-------2-2-2-2---------|


  E  E  E  Q    E  E  E     S S S S E  E  S S S S S S S S  
-------------------------|--------------------------------|
-------------------------|--------------------------------|
-------------------------|--------------------------------|
-------------------------|--------------------------------|
--------0-------------0--|----------0-------------0-0-0-0-|
--1-------------1--------|--1-1-1-1-------1-1-1-1---------|


  E  E  E  Q    E  E  E     S S S S E  E  S S S S S S S S  
-------------------------|--------------------------------|
-------------------------|--------------------------------|
-------------------------|--------------------------------|
-------------------------|--------------------------------|
--------1-------------1--|----------1-------------1-1-1-1-|
--2-------------2--------|--2-2-2-2-------2-2-2-2---------|


  E  E  E  Q    E  E  E     S S S S E  E  S S S S S S S S  
-------------------------|--------------------------------|
-------------------------|--------------------------------|
-------------------------|--------------------------------|
-------------------------|--------------------------------|
--------0-------------0--|----------0-------------0-0-0-0-|
--1-------------1--------|--1-1-1-1-------1-1-1-1---------|


  E  E  E  Q    E  E  E     S S S S E  E  S S S S S S S S  
-------------------------|--------------------------------|
-------------------------|--------------------------------|
-------------------------|--------------------------------|
-------------------------|--------------------------------|
--------1-------------1--|----------1-------------1-1-1-1-|
--2-------------2--------|--2-2-2-2-------2-2-2-2---------|


  E  E  E  Q    E  E  E     S S S S E  E  S S S S S S S S  
-------------------------|--------------------------------|
-------------------------|--------------------------------|
-------------------------|--------------------------------|
-------------------------|--------------------------------|
--------0-------------0--|----------0-------------0-0-0-0-|
--1-------------1--------|--1-1-1-1-------1-1-1-1---------|


  E  E  E  Q    E  E  E     W                     H.            E   E   
-------------------------|--------------------|------------------------|
-------------------------|--------------------|------------------------|
-------------------------|--------------------|------------------------|
-------------------------|--------------------|--14------------13--14--|
--------1-------------1--|--------------------|------------------------|
--2-------------2--------|--5\----------------|------------------------|


   H.            E   E      H.           E   S  S     Q     E   Q    Q     E   
--------------------11--|--12------------L--11-12-|--11-----------------------|
--12------------14------|-------------------------|--------14--12----L----12--|
------------------------|-------------------------|---------------------------|
------------------------|-------------------------|---------------------------|
------------------------|-------------------------|---------------------------|
------------------------|-------------------------|---------------------------|


   Q     E   Q.      Q        Q     E   H         E      H        H          
--------------------------|--------------------------|----------------------|
--12----------------------|--------------------------|----------------------|
--------14----------13----|--11----------------------|----------------------|
------------14------------|--------14--13------------|--11------------------|
--------------------------|----------------------14--|----------------------|
--------------------------|--------------------------|------------9\--------|


   S  S  S  S  S  S  S  S  S  S  S  S  S  S  S  S     H.             Q        
--------------------------------------------------|--16b------------16pbr----|
--------------------------------------------14-16-|--------------------------|
--------------------11-13----------13-14-16-------|--------------------------|
-----------11-13-14-------13-14-16----------------|--------------------------|
--11-12-14----------------------------------------|--------------------------|
--------------------------------------------------|--------------------------|


  Q.      E   H         
--L------14------------|
-------------17--------|
-----------------------|
-----------------------|
-----------------------|
-----------------------|


                        Some wheird whammy thing...       
   H             Q      E                           S  S  
-----------------------14--------------------------12-14-|
--17brb--------(19)--------------------------------------|
---------------------------------------------------------|
---------------------------------------------------------|
---------------------------------------------------------|
---------------------------------------------------------|


   E    Q       S S  H          
-------------------------------|
--12b--------------------------|
-------13br----11-9-11~--------|
-------------------------------|
-------------------------------|
-------------------------------|


   Not sure...                                                                  
   T                          T                        T            T           
   |-------3-------|   |---3--|  |---3---|  |---3---|  |---3--|  |--3--|   |--3-
   S           S   S   S   S  S  S   S   S  S   S   S  S  S   S  S  S  S   S  S 
--17----------16p-14p-12S-10-16-14p-12p-10--------------------------------------
-------------------------------------------14p-12p-10---------------------------
------------------------------------------------------14-13p-11p-9-14-13p-11p-9-
--------------------------------------------------------------------------------
--------------------------------------------------------------------------------
--------------------------------------------------------------------------------


   T            T            T            T            T                        
   |---3--|  |--3--|   |--3--|  |---3--|  |---3--|  |--3--|   |--3--|   |--3--| 
   S  S   S  S  S  S   S  S  S  S   S  S  S  S   S  S  S  S   S  S  S   S  S  S 
--------------------------------------------------------------------------------
--------------------------------------------------------------------------------
--------------------------------------------------------------------------------
--14-12p-11p-9-14-12p-11p-9-14-12p-11p-9----------------------------------------
-----------------------------------------14-12p-11p-9-14-12p-11p-9--------------
-------------------------------------------------------------------12p-11p-9p-7-


                                                 :)                
                                                 \1/               
   H.            E   E      W                    W                 
--23b------------L--23--|--23~----------------|-------------------|
------------------------|---------------------|-------------------|
------------------------|---------------------|--9----------------|
------------------------|---------------------|--9----------------|
------------------------|---------------------|-------------------|
------------------------|---------------------|-------------------|


  W                     E.    S  S  S  Q      S  S  E   E    
--------------------|--------14-17-14--------14-17-14-------|
--------------------|--17b------------17b--------------17b--|
--9~----------------|---------------------------------------|
--------------------|---------------------------------------|
--------------------|---------------------------------------|
--------------------|---------------------------------------|


  E   S  S  S. S. S. S. E  Q     
-----14-17-14----14-17-19--L----|
--L-----------17----------------|
--------------------------------|
--------------------------------|
--------------------------------|
--------------------------------|


   E   S   S  S  S  S  S  S  S  S  S  E   S  S  
--19--16S-14-17-16-14----17-16-14--------------|
----------------------17----------17-19--------|
-----------------------------------------16-14-|
-----------------------------------------------|
-----------------------------------------------|
-----------------------------------------------|


   E   S  S  S  S  S  S  E   S  S  S  S  S  S     W                 
----------------------------------------------|--------------------|
----------------------------------------------|--------------------|
--16--14-13-14-13-----------------------------|--------------------|
------------------16-14-16--14-12-14-12-11----|--12----------------|
-------------------------------------------14-|--------------------|
----------------------------------------------|--------------------|


  W                   W                   W                   W                 
-------------------|-------------------|-------------------|-------------------|
-------------------|--3----------------|-------------------|-------------------|
-------------------|--3----------------|--3----------------|-------------------|
--L----------------|--3----------------|--3----------------|--5----------------|
-------------------|--1----------------|--1----------------|--5----------------|
-------------------|-------------------|-------------------|--3----------------|


  W                     H          H              H          H         
-------------------|------------------------|-------------------------|
-------------------|------------------------|-------------------------|
-------------------|------------------------|-------------------------|
--L----------------|------------------------|--------------6g8--------|
--L----------------|--4g6--------6g8--------|--8g10-------------------|
--L----------------|------------------------|-------------------------|


  W                   W                   W                   W                 
-------------------|-------------------|-------------------|-------------------|
-------------------|-------------------|-------------------|-------------------|
--7----------------|--L----------------|--3----------------|--L----------------|
--7----------------|--L----------------|--3----------------|--L----------------|
--5----------------|--L----------------|--1----------------|--L----------------|
-------------------|-------------------|-------------------|-------------------|


  E  E  E  E  E  E  E  E     E  E  E  E  H             H          H         
--------------------------|-----------------------|------------------------|
--------------------------|-----------------------|------------------------|
--------------------------|-----------------------|------------------------|
--------5-----3--5--------|--5-----3--5--L--------|------------------------|
--------------------------|-----------------------|--4g6--------6g8--------|
--3--3-----3--------3--3--|-----3-----------------|------------------------|


     H          H           W                   H        H         
-------------------------|-------------------|--------------------|
-------------------------|-------------------|--------------------|
-------------------------|--7----------------|--L--------L--------|
--------------6g8--------|--7----------------|--L--------L--------|
--8g10-------------------|--5----------------|--L--------L--------|
-------------------------|-------------------|--------------------|


  W                   W                    H        H         
-------------------|-------------------|---------------------|
--6----------------|--5----------------|---------------------|
--3----------------|--3----------------|---------------------|
--3----------------|--3----------------|---------------------|
--1----------------|--1----------------|--10--------8--------|
-------------------|-------------------|---------------------|


  H        H           S S Q    S S  Q    S S E   
--------------------|----------------------------|
--------------------|----------------------------|
--------------------|----------------------------|
--------------------|------8--------10--------8--|
--5--------8--------|--6-6-6----6-6--6----6-6-6--|
--------------------|----------------------------|


  E  S S  Q    S S E  S S  E     W                   H        H         
------------------------------|-------------------|--------------------|
------------------------------|-------------------|--------------------|
------------------------------|--7----------------|--L--------L--------|
--L------10--------8------10--|--7----------------|--L--------L--------|
--L--6-6--6----6-6-6--6-6--6--|--5----------------|--L--------L--------|
------------------------------|-------------------|--------------------|


  W                   W                    H         H         
-------------------|-------------------|----------------------|
--6----------------|--5----------------|----------------------|
--3----------------|--3----------------|--12--------10--------|
--3----------------|--3----------------|----------------------|
--1----------------|--1----------------|--10---------8--------|
-------------------|-------------------|----------------------|


   H         H             H          H              H            H         
----------------------|------------------------|---------------------------|
----------------------|------------------------|---------------------------|
--12--------10--------|------------------------|---------------------------|
----------------------|------------------------|---------------------------|
--10---------8--------|--4g6--------6g8--------|--8g10--------10g12--------|
----------------------|------------------------|---------------------------|


  H        H           H        H          
--------------------|--------------------||
--------------------|--------------------||
--------------------|--------------------||
--------------------|--------------------||
--L--------L--------|--L-----------------||
--------------------|--------------------||




Duration Legend
---------------
W - whole
H - half
Q - quarter
E - 8th
S - 16th
T - 32nd
X - 64th
. - note dotted
|-n-|  - n-tuplets


Tablature Legend
----------------
L - tied note
x - dead note
g - grace note
(n) - ghost note
> - accentuded note
NH - natural harmonic
AH - artificial harmonic
TH - tapped harmonic
SH - semi harmonic
PH - pitch harmonic
h - hammer on
p - pull off
b - bend
br - bendRelease
pb - preBend
pbr - preBendRelease
brb - bendReleaseBend
\n/ - tremolo bar dip
\n - tremolo bar dive
-/n - tremolo bar Release up
/n\ - tremolo bar inverted dip
/n - tremolo bar return
-\n - tremolo bar Release down
S - shift slide
s - legato slide
/ -  slide into from below or out of upwards
\ -  slide into from above or out of downwards
~ - vibrato
W - wide vibrato
tr - trill
TP - tremolo picking
T - tapping
S - slap
P - pop
< - fade in
^ - brush up
v - brush down
comments
We did not receive enough feedback on this tab! Please rate:
1 2 3 4 5
I want to post or [tab]
guest
You may want to rate the tab now too:
select rating
Please do not post tabs as comments. Select "correction" instead!