Oops, an error
Loading. Please wait.

Back To The Magic Of Childhood Conception Part 1 Tab

ver1
ver1

Whole song

Interactive

More versions @911Tabs.com
611 views 1 this week
no commentswrite comment
1 2 3 4 5
please rate
Autoscroll
+/-
esc
set tempo
stop
Contributor
Hey! There's an official Ultimate Guitar app which is ideal
for learning songs when you're away from computer. Get the app
WARNING: You are trying to view
                                    content from Ultimate-Guitar.com
                                    in an unauthorized application,
                                    which is prohibited.

                                    Please use an official Ultimate
                                    Guitar Tabs application for iPhone,
                                    iPad or Android to access legitimate
                                    chords, guitar, bass, and drum tabs
                                    from Ultimate-Guitar.com database.

                                    Type "ultimate guitar tabs" in Apple
                                    App Store's or Android Market's
                                    search to find the application.
#----------------------------------PLEASE NOTE---------------------------------#
#This file is the author's own work and represents their interpretation of the #
#song. You may only use this file for private study, scholarship, or research. #
#------------------------------------------------------------------------------#

BACK TO THE MAGIC OF CHILDHOOD: PART 1, CONCEPTION
As recorded by Pagan's Mind
(From the 2002 Album CELESTIAL ENTRANCE)

Transcribed by Ryan A. Silke (ryansilke@hotmail.com)
        

Words by (instrumental) Music by Pagan's Mind
Arranged by Pagan's Mind

Gtr I (B E A D G B E) - 'Acoustic Guitar 1'
Gtr II (B E A D G B E) - 'Acoustic Guitar 2'
Gtr III (B E A D G B E) - 'Distortion Guitar 1'
Gtr IV (B E A D G B E) - 'Distortion Guitar 2'
Gtr V (B E A D G B E) - 'Piano'

 Guitar Intro - 0:00
  Q=190
  Asus2/F   F       Asus2/F   F       Asus2/F   F       Asus2/F   F
 5/4
  Gtr I
  Q.   Q.   Q  Q    Q.   Q.   Q  Q    Q.   Q.   Q  Q    Q.   Q.   H
|-----------------|-----------------|-----------------|----------------|
|-0---------1-----|-0---------1-----|-0---------1-----|-0---------1----|
|------2-------2--|------2-------2--|------2-------2--|------2---------|
|-3---------------|-----------------|-3---------------|----------------|
|-----------------|-----------------|-----------------|----------------|
|-----------------|-----------------|-----------------|----------------|
|-----------------|-----------------|-----------------|----------------|


  Em9               Em9               Em9               Em9
  Q.   Q.   Q  Q    Q.   Q.   Q  Q    Q.   Q.   Q  Q    Q.   Q.   Q  Q
|-----------------|-----------------|-----------------|------------------|
|-3---------------|-3---------------|-3---------------|-3----------------|
|------0-------0--|------0-------0--|------0-------0--|------0-------0---|
|-----------4-----|-----------4-----|-----------4-----|-----------4------|
|-----------------|-----------------|-----------------|------------------|
|-0---------------|-----------------|-----------------|------------------|
|-----------------|-----------------|-----------------|------------------|


  Asus2/F   F       Asus2/F   F       Asus2/F   F       Asus2/F   F
  Q.   Q  E Q  Q    Q.   Q.   Q  Q    Q.   Q  E Q  Q    Q.   Q.   H
|-----------------|-----------------|-----------------|----------------|
|-0---------1-----|-0---------1-----|-0---------1-----|-0---------1----|
|------2-------2--|------2-------2--|------2-------2--|------2---------|
|-3-------3-------|-----------------|-3-------3-------|----------------|
|-----------------|-----------------|-----------------|----------------|
|-----------------|-----------------|-----------------|----------------|
|-----------------|-----------------|-----------------|----------------|


  Em9               Em9               E5/Gb             E5/Gb
  Q.   Q.   Q  Q    Q.   Q.   Q  Q    Q.   Q.   Q  Q    Q.   Q.   H
|-----------------|-----------------|-----------------|----------------|
|-3---------------|-3---------------|-5---------------|-5--------------|
|------0-------0--|------0-------0--|------4----3-----|------4----3----|
|-----------4-----|-----------4-----|--------------4--|----------------|
|-----------------|-----------------|-----------------|----------------|
|-0---------------|-----------------|-----------------|----------------|
|-----------------|-----------------|-----------------|----------------|


  C                     C
   Q.    Q.    Q   Q     Q.    Q.    Q   Q
|---------------------|---------------------|
|--8-----7------------|--8-----7------------|
|--------------7---5--|--------------7---5--|
|---------------------|---------------------|
|---------------------|---------------------|
|---------------------|---------------------|
|---------------------|---------------------|
|
| Gtr V
|  Q.    Q.    Q   Q     Q.    Q.    Q   Q
|---------------------|---------------------|
|-20----19------------|-20----19------------|
|-------------19--17--|-------------19--17--|
|---------------------|---------------------|
|---------------------|---------------------|
|---------------------|---------------------|
|---------------------|---------------------|


  Bb                    Bb
   Q.    Q.    Q   Q     Q.    Q.    Q   Q
|---------------------|----------------------|
|--6-----5------------|--6-----5-------------|
|--------------5---3--|--------------5---3---|
|---------------------|----------------------|
|---------------------|----------------------|
|---------------------|----------------------|
|---------------------|----------------------|
|
|  Q.    Q.    Q   Q     Q.    Q.    Q   Q
|---------------------|----------------------|
|-18----17------------|-18----17-------------|
|-------------17--15--|-------------17--15---|
|---------------------|----------------------|
|---------------------|----------------------|
|---------------------|----------------------|
|---------------------|----------------------|


  Ab                    Ab
   Q.    Q.    Q   Q     Q.    Q.    Q   Q
|---------------------|---------------------|
|--4-----3------------|--4-----3------------|
|--------------3---1--|--------------3---1--|
|---------------------|---------------------|
|---------------------|---------------------|
|---------------------|---------------------|
|---------------------|---------------------|
|
|  Q.    Q.    Q   Q     Q.    Q.    Q   Q
|---------------------|---------------------|
|-16----15------------|-16----15------------|
|-------------15--13--|-------------15--13--|
|---------------------|---------------------|
|---------------------|---------------------|
|---------------------|---------------------|
|---------------------|---------------------|


  G                     G
   Q.    Q.    Q   Q     Q.    Q.    Q   Q
|---------------------|----------------------|
|--3-----2------------|--3-----2-------------|
|--------------2---0--|--------------2---4---|
|---------------------|----------------------|
|---------------------|----------------------|
|---------------------|----------------------|
|---------------------|----------------------|
|
|  Q.    Q.    Q   Q     Q.    Q.    Q   Q
|---------------------|----------------------|
|-15----14------------|-15----14-------------|
|-------------14--12--|-------------14--16---|
|---------------------|----------------------|
|---------------------|----------------------|
|---------------------|----------------------|
|---------------------|----------------------|


  G                     G
   Q.    Q.    Q   Q     Q.    Q.    Q   Q
|---------------------|---------------------|
|--3-----2------------|--3-----2------------|
|--------------2---0--|--------------2---4--|
|---------------------|---------------------|
|---------------------|---------------------|
|---------------------|---------------------|
|---------------------|---------------------|
|
|  Q.    Q.    Q   Q     Q.    Q.    Q   Q
|---------------------|---------------------|
|-15----14------------|-15----14------------|
|-------------14--12--|-------------14--16--|
|---------------------|---------------------|
|---------------------|---------------------|
|---------------------|---------------------|
|---------------------|---------------------|


 Guitar Solo - 0:41
  Asus2/F        F      Asus2/F    F
  Gtr II
  E W             +E    +W            +Q
|-3h5-------------(5)-|-(5)-----------(5)--|
|---------------------|--------------------|
|---------------------|--------------------|
|---------------------|--------------------|
|---------------------|--------------------|
|---------------------|--------------------|
|---------------------|--------------------|
|
| Gtr I
| Q.   Q  E Q  Q         Q.   Q.   Q   Q
|---------------------|--------------------|
|-0---------1---------|--0---------1-------|
|------2-------2------|-------2--------2---|
|---------3-----------|--------------------|
|---------------------|--------------------|
|---------------------|--------------------|
|---------------------|--------------------|


  Asus2/F           F  Asus2/F
  +W            +Q     +H       +E  E Q  Q
|-(5)-----------(5)--|-(5)------(5)-x-3--5--|
|--------------------|----------------------|
|--------------------|----------------------|
|--------------------|----------------------|
|--------------------|----------------------|
|--------------------|----------------------|
|--------------------|----------------------|
|
|  Q.   Q  E Q   Q      Q.   Q.       H
|--------------------|----------------------|
|--0---------1-------|--0-------------1-----|
|-------2--------2---|-------2--------------|
|----------3---------|----------------------|
|--------------------|----------------------|
|--------------------|----------------------|
|--------------------|----------------------|


  Em9                  Em9
   W            +Q     +W            +Q
|-/7------------(7)--|-(7)-----------(7)--|
|--------------------|--------------------|
|--------------------|--------------------|
|--------------------|--------------------|
|--------------------|--------------------|
|--------------------|--------------------|
|--------------------|--------------------|
|
|  Q.   Q.   Q   Q      Q.   Q.   Q   Q
|--------------------|--------------------|
|--3-----------------|--3-----------------|
|-------0--------0---|-------0--------0---|
|------------4-------|------------4-------|
|--------------------|--------------------|
|--------------------|--------------------|
|--------------------|--------------------|


  Em9                 Em9
    Q.   Q.   q  q     Q.   Q.   q  Q
|-/10----8----7--5--|-/7----5----3--3---|
|-------------------|-------------------|
|-------------------|-------------------|
|-------------------|-------------------|
|-------------------|-------------------|
|-------------------|-------------------|
|-------------------|-------------------|
|
|   Q.   Q.   Q  Q     Q.   Q.   H
|-------------------|-------------------|
|---3---------------|--3----------------|
|--------0-------0--|-------0-----------|
|-------------4-----|------------4------|
|-------------------|-------------------|
|-------------------|-------------------|
|-------------------|-------------------|


  Asus2/F           F  Asus2/F        F
   W            +Q     +H       +E  E  q  Q
|-/5------------(5)--|-(5)------(5)---/5--8--|
|--------------------|--------------6--------|
|--------------------|-----------------------|
|--------------------|-----------------------|
|--------------------|-----------------------|
|--------------------|-----------------------|
|--------------------|-----------------------|
|
|  Q.   Q  E Q   Q      Q.   Q.        Q  Q
|--------------------|-----------------------|
|--0---------1-------|--0--------------1-----|
|-------2--------2---|-------2------------2--|
|----------3---------|-----------------------|
|--------------------|-----------------------|
|--------------------|-----------------------|
|--------------------|-----------------------|


  Asus2/F   F          Asus2/F        F
  Q.   E H.            +H       +E  E q  Q
|-7----5-------------|----------------------|
|--------6-----------|-(6)------(6)---5S=7--|
|--------------------|--------------4-------|
|--------------------|----------------------|
|--------------------|----------------------|
|--------------------|----------------------|
|--------------------|----------------------|
|
| Q.   Q     E Q  Q     Q.   Q.       H
|--------------------|----------------------|
|-0------------1-----|--0-------------1-----|
|------2----------2--|-------2--------------|
|------------3-------|----------------------|
|--------------------|----------------------|
|--------------------|----------------------|
|--------------------|----------------------|


  Em9               Em9
  Q.   Q.   Q  Q     Q.   Q.   Q  Q
|-----------------|------------------|
|-8----7----5-----|------------------|
|--------------7--|-/4----2----0--2--|
|-----------------|------------------|
|-----------------|------------------|
|-----------------|------------------|
|-----------------|------------------|
|
| Gtr II
| Q.   Q.   Q  Q     Q.   Q.   Q  Q
|-----------------|------------------|
|-3---------------|--3---------------|
|------0-------0--|-------0-------0--|
|-----------4-----|------------4-----|
|-----------------|------------------|
|-----------------|------------------|
|-----------------|------------------|
|
| Gtr IV
| W            Q     W            Q
|-----------------|------------------|
|-----------------|------------------|
|-----------------|------------------|
|-----------------|------------------|
|-----------------|------------------|
|-----------------|------------------|
|-----------------|------------------|


  E5/Gb                E5/Gb
   W            +Q     +W            +Q
|--------------------|---------------------|
|--------------------|---------------------|
|-/3------------(3)--|-(3)-----------(3)---|
|--------------------|---------------------|
|--------------------|---------------------|
|--------------------|---------------------|
|--------------------|---------------------|
|
|  Q.   Q.   Q   Q      Q.   Q.   H
|--------------------|---------------------|
|--5-----------------|--5------------------|
|-------4----3-------|-------4----3--------|
|----------------4---|---------------------|
|--------------------|---------------------|
|--------------------|---------------------|
|--------------------|---------------------|
|
|                       <
|  W             Q      W            +Q
|--------------------|---------------------|
|--------------------|---------------------|
|--------------------|---------------------|
|--------------------|--4------------(4)---|
|--------------------|--4------------(4)---|
|--------------------|--2------------(2)---|
|--------------------|---------------------|


 Enter Band - 1:07
  C                    C
  Gtr III
   Q.   Q.   Q   Q      Q.   Q.   Q   Q
|--------------------|--------------------|
|-/8----7------------|-/8----7------------|
|------------7---5---|------------7---5---|
|--------------------|--------------------|
|--------------------|--------------------|
|--------------------|--------------------|
|--------------------|--------------------|
|
|  W             Q      W             Q
|--------------------|--------------------|
|--------------------|--------------------|
|--------------------|--------------------|
|--------------------|--------------------|
|--------------------|--------------------|
|--------------------|--------------------|
|--------------------|--------------------|
|
| Gtr IV
|  W            +Q     +W            +Q
|--------------------|--------------------|
|--3-----------------|--------------------|
|--5------------(5)--|-(5)-----------(5)--|
|--5------------(5)--|-(5)-----------(5)--|
|--3------------(3)--|-(3)-----------(3)--|
|--------------------|--------------------|
|--------------------|--------------------|


  Bb                   Bb
   Q.   Q.   Q   Q      Q.    Q.   Q   Q
|--------------------|----------------------|
|-/6----5------------|-/6-----5-------------|
|------------5---3---|-------------5---3----|
|--------------------|----------------------|
|--------------------|----------------------|
|--------------------|----------------------|
|--------------------|----------------------|
|
|  W             Q      Q   W
|--------------------|----------------------|
|--------------------|----------------------|
|--------------------|----------------------|
|--------------------|----------------------|
|--------------------|----------------------|
|--------------------|----------------------|
|--------------------|----------------------|
|
|  W            +Q     +W             +Q
|--------------------|----------------------|
|--1-----------------|----------------------|
|--3------------(3)--|-(3)------------(3)---|
|--3------------(3)--|-(3)------------(3)---|
|--1------------(1)--|-(1)------------(1)---|
|--------------------|----------------------|
|--------------------|----------------------|


  Ab                  Ab
  Q.   Q.   Q   Q      Q.   Q.   Q   Q
|-------------------|--------------------|
|-4----3------------|-/4----3------------|
|-----------3---1---|------------3---1---|
|-------------------|--------------------|
|-------------------|--------------------|
|-------------------|--------------------|
|-------------------|--------------------|
|
| W             Q      W             Q
|-------------------|--------------------|
|-------------------|--------------------|
|-------------------|--------------------|
|-------------------|--------------------|
|-------------------|--------------------|
|-------------------|--------------------|
|-------------------|--------------------|
|
| W            +Q     +W            +Q
|-------------------|--------------------|
|-------------------|--------------------|
|-5------------(5)--|--------------------|
|-6------------(6)--|-(6)-----------(6)--|
|-6------------(6)--|-(6)-----------(6)--|
|-4------------(4)--|-(4)-----------(4)--|
|-------------------|--------------------|


  G                    G
   Q.   Q.   Q   Q      Q.   Q.   Q   Q
|--------------------|---------------------|
|-/3----2------------|--3----2-------------|
|------------2---0---|------------2---4----|
|--------------------|---------------------|
|--------------------|---------------------|
|--------------------|---------------------|
|--------------------|---------------------|
|
|  W             Q      W             Q
|--------------------|---------------------|
|--------------------|---------------------|
|--------------------|---------------------|
|--------------------|---------------------|
|--------------------|---------------------|
|--------------------|---------------------|
|--------------------|---------------------|
|
|  W            +Q     +W            +Q
|--------------------|---------------------|
|--------------------|---------------------|
|--4------------(4)--|---------------------|
|--5------------(5)--|-(5)-----------(5)---|
|--5------------(5)--|-(5)-----------(5)---|
|--3------------(3)--|-(3)-----------(3)---|
|--------------------|---------------------|


  G                     G
   Q.    Q.     Q  Q     Q.    Q.     Q   Q
|-10-----9------------|-10-----9--------------|
|--------------10--8--|--------------10--12\--|
|---------------------|-----------------------|
|---------------------|-----------------------|
|---------------------|-----------------------|
|---------------------|-----------------------|
|---------------------|-----------------------|
|
|  W               Q     W                Q
|---------------------|-----------------------|
|---------------------|-----------------------|
|---------------------|-----------------------|
|---------------------|-----------------------|
|---------------------|-----------------------|
|---------------------|-----------------------|
|---------------------|-----------------------|
|
|  PM------------------------------------|
|  q   q    q   q  q     q   q    q   q   q
|---------------------|-----------------------|
|---------------------|-----------------------|
|-----------4---4-----|------4----4-----------|
|-----------5---5-----|------5----5-----------|
|--5---5----5---5--5--|--5---5----5---5---5\--|
|--3---3-----------3--|--3------------3---3\--|
|---------------------|-----------------------|


  F/C
   Q.     Q.     Q   Q      Q.   Q.    Q   Q
|------------------------|---------------------|
|------------------------|---------------------|
|-/4------2-----/5---2---|-/4----2----/5---2---|
|------------------------|---------------------|
|------------------------|---------------------|
|------------------------|---------------------|
|------------------------|---------------------|
|
|  W                +Q     +W             +Q
|------------------------|---------------------|
|-^1----------------(1)--|-(1)------------(1)--|
|-^2----------------(2)--|-(2)------------(2)--|
|-^3----------------(3)--|-(3)------------(3)--|
|-^3----------------(3)--|-(3)------------(3)--|
|------------------------|---------------------|
|------------------------|---------------------|
|
|  PM-------------------------------------------
|  E  E E Q   E  q   q      W             +Q
|------------------------|---------------------|
|------------------------|---------------------|
|------------------------|---------------------|
|------------------------|---------------------|
|--3--3-3-3---3--3---3---|--3-------------(3)--|
|--1--1-1-1---1--1---1---|--1-------------(1)--|
|------------------------|---------------------|


   Q.     Q.     Q   Q      Q.   Q.   H
|------------------------|---------------------|
|------------------------|---------------------|
|-/4------2-----/5---2---|-/4----2----5--------|
|------------------------|---------------------|
|------------------------|---------------------|
|------------------------|---------------------|
|------------------------|---------------------|
|
| +W                +Q     +W            +Q
|------------------------|---------------------|
|-(1)---------------(1)--|-(1)-----------(1)---|
|-(2)---------------(2)--|-(2)-----------(2)---|
|-(3)---------------(3)--|-(3)-----------(3)---|
|-(3)---------------(3)--|-(3)-----------(3)---|
|------------------------|---------------------|
|------------------------|---------------------|
|
|----------------------------------------|
|  E  E E Q   E  q   q      W            +Q
|------------------------|---------------------|
|------------------------|---------------------|
|------------------------|---------------------|
|------------------------|---------------------|
|--3--3-3-3---3--3---3---|--3------------(3)---|
|--1--1-1-1---1--1---1---|--1------------(1)---|
|------------------------|---------------------|


  Esus2
   Q.     Q.    Q   Q      Q.   Q.   Q   Q
|-----------------------|--------------------|
|-/3--------------------|-/3-----------------|
|---------0---------0---|-------0--------0---|
|---------------4-------|------------4-------|
|-----------------------|--------------------|
|-----------------------|--------------------|
|-----------------------|--------------------|
|
|  W               +Q     +W            +Q
|-----------------------|--------------------|
|-^7---------------(7)--|-(7)-----------(7)--|
|-^9---------------(9)--|-(9)-----------(9)--|
|-^9---------------(9)--|-(9)-----------(9)--|
|-^7---------------(7)--|-(7)-----------(7)--|
|-^0---------------(0)--|-(0)-----------(0)--|
|-----------------------|--------------------|
|
|  PM-----------------------------------------
|  E  E E Q   E q   q      W            +Q
|-----------------------|--------------------|
|-----------------------|--------------------|
|-----------------------|--------------------|
|-----------------------|--------------------|
|--2--2-2-2---2-2---2---|--2------------(2)--|
|--0--0-0-0---0-0---0---|--0------------(0)--|
|-----------------------|--------------------|


   Q.     Q.    Q   Q      Q.   Q.   Q   Q
|-----------------------|---------------------|
|-/3--------------------|-/3------------------|
|---------0---------0---|-------0--------0----|
|---------------4-------|------------4--------|
|-----------------------|---------------------|
|-----------------------|---------------------|
|-----------------------|---------------------|
|
| +W               +Q     +W            +Q
|-----------------------|---------------------|
|-(7)--------------(7)--|-(7)-----------(7)---|
|-(9)--------------(9)--|-(9)-----------(9)---|
|-(9)--------------(9)--|-(9)-----------(9)---|
|-(7)--------------(7)--|-(7)-----------(7)---|
|-(0)--------------(0)--|-(0)-----------(0)---|
|-----------------------|---------------------|
|
|---------------------------------------|
|  E  E E Q   E q   q      W            +Q
|-----------------------|---------------------|
|-----------------------|---------------------|
|-----------------------|---------------------|
|-----------------------|---------------------|
|--2--2-2-2---2-2---2---|--2------------(2)---|
|--0--0-0-0---0-0---0---|--0------------(0)---|
|-----------------------|---------------------|


  F/C
   Q.     Q.     Q   Q      Q.   Q.    Q   Q
|------------------------|---------------------|
|------------------------|---------------------|
|-/4------2-----/5---2---|-/4----2----/5---2---|
|------------------------|---------------------|
|------------------------|---------------------|
|------------------------|---------------------|
|------------------------|---------------------|
|
|  W                +Q     +W             +Q
|------------------------|---------------------|
|-^1----------------(1)--|-(1)------------(1)--|
|-^2----------------(2)--|-(2)------------(2)--|
|-^3----------------(3)--|-(3)------------(3)--|
|-^3----------------(3)--|-(3)------------(3)--|
|------------------------|---------------------|
|------------------------|---------------------|
|
|  PM-------------------------------------------
|  E  E E Q   E  q   q      W             +Q
|------------------------|---------------------|
|------------------------|---------------------|
|------------------------|---------------------|
|------------------------|---------------------|
|--3--3-3-3---3--3---3---|--3-------------(3)--|
|--1--1-1-1---1--1---1---|--1-------------(1)--|
|------------------------|---------------------|


   Q.     Q.     Q   Q      Q.   Q.   H
|------------------------|---------------------|
|------------------------|---------------------|
|-/4------2-----/5---2---|-/4----2----5--------|
|------------------------|---------------------|
|------------------------|---------------------|
|------------------------|---------------------|
|------------------------|---------------------|
|
| +W                +Q     +W            +Q
|------------------------|---------------------|
|-(1)---------------(1)--|-(1)-----------(1)---|
|-(2)---------------(2)--|-(2)-----------(2)---|
|-(3)---------------(3)--|-(3)-----------(3)---|
|-(3)---------------(3)--|-(3)-----------(3)---|
|------------------------|---------------------|
|------------------------|---------------------|
|
|----------------------------------------|
|  E  E E Q   E  q   q      W            +Q
|------------------------|---------------------|
|------------------------|---------------------|
|------------------------|---------------------|
|------------------------|---------------------|
|--3--3-3-3---3--3---3---|--3------------(3)---|
|--1--1-1-1---1--1---1---|--1------------(1)---|
|------------------------|---------------------|


  Esus2
   Q.     Q.    Q   Q      W         +Q
|-----------------------|-----------------|
|-/3--------------------|-/3---------(3)--|
|---------0---------0---|-----------------|
|---------------4-------|-----------------|
|-----------------------|-----------------|
|-----------------------|-----------------|
|-----------------------|-----------------|
|
|  W               +Q     +W         +Q
|-----------------------|-----------------|
|-^7---------------(7)--|-(7)--------(7)--|
|-^9---------------(9)--|-(9)--------(9)--|
|-^9---------------(9)--|-(9)--------(9)--|
|-^7---------------(7)--|-(7)--------(7)--|
|-^0---------------(0)--|-(0)--------(0)--|
|-----------------------|-----------------|
|
|  PM--------------------------------------
|  E  E E Q   E q   q      W         +Q
|-----------------------|-----------------|
|-----------------------|-----------------|
|-----------------------|-----------------|
|-----------------------|-----------------|
|--2--2-2-2---2-2---2---|--2---------(2)--|
|--0--0-0-0---0-0---0---|--0---------(0)--|
|-----------------------|-----------------|


  Gb5
   Q.     Q.    Q   Q      W         +Q
|-----------------------|------------------|
|-/5--------------------|-/5---------(5)---|
|---------4-----3-------|------------------|
|-------------------4---|------------------|
|-----------------------|------------------|
|-----------------------|------------------|
|-----------------------|------------------|
|
|  W               +Q     +W         +Q
|-----------------------|------------------|
|-^7---------------(7)--|-(7)--------(7)---|
|-^6---------------(6)--|-(6)--------(6)---|
|-^4---------------(4)--|-(4)--------(4)---|
|-----------------------|------------------|
|-----------------------|------------------|
|-----------------------|------------------|
|
|------------------------------------|
|  E  E E Q   E q   q      W         +Q
|-----------------------|------------------|
|-----------------------|------------------|
|-----------------------|------------------|
|-----------------------|------------------|
|--4--4-4-4---4-4---4---|--4---------(4)---|
|--2--2-2-2---2-2---2---|--2---------(2)---|
|-----------------------|------------------|


  C5                      C
   Q.     Q.    Q   Q      Q.     Q.    Q   Q
|-----------------------|-----------------------|
|-/8------7-------------|-/8------7-------------|
|---------------7---5---|---------------7---9---|
|-----------------------|-----------------------|
|-----------------------|-----------------------|
|-----------------------|-----------------------|
|-----------------------|-----------------------|
|
|  W               +Q      W               +Q
|-----------------------|-----------------------|
|-^8---------------(8)--|-^5---------------(5)--|
|-^5---------------(5)--|-^5---------------(5)--|
|-^5---------------(5)--|-^5---------------(5)--|
|-----------------------|-----------------------|
|-----------------------|-----------------------|
|-----------------------|-----------------------|
|
|  PM--------------------------------------------
|  E  E E Q   E q   q      E  E E Q   E q   q
|-----------------------|-----------------------|
|-----------------------|-----------------------|
|-----------------------|-------------------5\--|
|--5--5-5-5---5-5---5---|--5--5-5-5---5-5---5\--|
|--3--3-3-3---3-3---3---|--3--3-3-3---3-3---3\--|
|-----------------------|-----------------------|
|-----------------------|-----------------------|


  Bb5                     Bb
   Q.     Q.    Q   Q      Q.     Q.    Q   Q
|-----------------------|------------------------|
|-/6------5-------------|-/6------5--------------|
|---------------5---3---|---------------5---7----|
|-----------------------|------------------------|
|-----------------------|------------------------|
|-----------------------|------------------------|
|-----------------------|------------------------|
|
|  W               +Q      W               +Q
|-----------------------|------------------------|
|-^6---------------(6)--|-^3---------------(3)---|
|-^3---------------(3)--|-^3---------------(3)---|
|-^3---------------(3)--|-^3---------------(3)---|
|-----------------------|------------------------|
|-----------------------|------------------------|
|-----------------------|------------------------|
|
|------------------------------------------|
|  E  E E Q   E q   q      E  E E Q   E q   q
|-----------------------|------------------------|
|-----------------------|------------------------|
|-----------------------|-------------------3\---|
|--3--3-3-3---3-3---3---|--3--3-3-3---3-3---3\---|
|--1--1-1-1---1-1---1---|--1--1-1-1---1-1---1\---|
|-----------------------|------------------------|
|-----------------------|------------------------|


  Ab5
   Q.     Q.    Q   Q      Q.     Q.    Q   Q
|-----------------------|-----------------------|
|-/4------3-------------|-/4------3-------------|
|---------------3---1---|---------------3---5---|
|-----------------------|-----------------------|
|-----------------------|-----------------------|
|-----------------------|-----------------------|
|-----------------------|-----------------------|
|
|  W               +Q      W               +Q
|-----------------------|-----------------------|
|-^4---------------(4)--|-^4---------------(4)--|
|-^1---------------(1)--|-^1---------------(1)--|
|-^1---------------(1)--|-^1---------------(1)--|
|-----------------------|-----------------------|
|-----------------------|-----------------------|
|-----------------------|-----------------------|
|
|  PM--------------------------------------------
|  E  E E Q   E q   q      E  E E Q   E q   q
|-----------------------|-----------------------|
|-----------------------|-----------------------|
|-----------------------|-----------------------|
|-----------------------|-------------------6\--|
|--6--6-6-6---6-6---6---|--6--6-6-6---6-6---6\--|
|--4--4-4-4---4-4---4---|--4--4-4-4---4-4---4\--|
|-----------------------|-----------------------|


  G5
   Q.     Q.    Q   Q      Q.     Q.    Q   Q
|-----------------------|------------------------|
|-/3------2-------------|-/3------2--------------|
|---------------2---0---|---------------2---4----|
|-----------------------|------------------------|
|-----------------------|------------------------|
|-----------------------|------------------------|
|-----------------------|------------------------|
|
|  W               +Q      W               +Q
|-----------------------|------------------------|
|-^3---------------(3)--|-^3---------------(3)---|
|-^0---------------(0)--|-^0---------------(0)---|
|-^0---------------(0)--|-^0---------------(0)---|
|-----------------------|------------------------|
|-----------------------|------------------------|
|-----------------------|------------------------|
|
|------------------------------------------|
|  E  E E Q   E q   q      E  E E Q   E q   q
|-----------------------|------------------------|
|-----------------------|------------------------|
|-----------------------|------------------------|
|-----------------------|-------------------5\---|
|--5--5-5-5---5-5---5---|--5--5-5-5---5-5---5\---|
|--3--3-3-3---3-3---3---|--3--3-3-3---3-3---3\---|
|-----------------------|------------------------|


  G                      G
   Q.     Q.     Q  Q     Q.     Q.     Q   Q
|-10------9------------|-10------9--------------|
|---------------10--8--|---------------10--12\--|
|----------------------|------------------------|
|----------------------|------------------------|
|----------------------|------------------------|
|----------------------|------------------------|
|----------------------|------------------------|
|
|  Q.     Q.     Q  Q     Q.     Q.     Q   Q
|--2------0------------|--2------0--------------|
|----------------2--0--|----------------2---3\--|
|----------------------|------------------------|
|----------------------|------------------------|
|----------------------|------------------------|
|----------------------|------------------------|
|----------------------|------------------------|
|
|  PM-----|
|  E  E E Q   E  q  q     E  E E Q   E  q   q
|----------------------|------------------------|
|----------------------|------------------------|
|----------------------|------------------------|
|----------------------|------------------------|
|--5--5-5-5---5--5--5--|--5--5-5-5---5--5---5\--|
|--3--3-3-3---3--3--3--|--3--3-3-3---3--3---3\--|
|----------------------|------------------------|


  F5
    Q.      Q.     Q   Q      Q.      Q.     Q   Q
|-------------------------|-------------------------|
|-/12------10-----13--10--|-/12------10-----13--10--|
|-------------------------|-------------------------|
|-------------------------|-------------------------|
|-------------------------|-------------------------|
|-------------------------|-------------------------|
|-------------------------|-------------------------|
|
|   Q.      Q.     Q   Q      Q.      Q.     Q   Q
|-------------------------|-------------------------|
|---0--------------1------|---0--------------1------|
|-----------2----------2--|-----------2----------2--|
|-------------------------|-------------------------|
|-------------------------|-------------------------|
|-------------------------|-------------------------|
|-------------------------|-------------------------|
|
| Gtr IV
|   PM------------|           PM------------|
|   E  E E  Q   E  q   q      E  E E  Q   E  q   q
|-------------------------|-------------------------|
|-------------------------|-------------------------|
|----------------------5--|----------------------5--|
|----------------------3--|----------------------3--|
|---3--3-3--3---3--3---3--|---3--3-3--3---3--3---3--|
|---1--1-1--1---1--1---1--|---1--1-1--1---1--1---1--|
|-------------------------|-------------------------|


    Q.      Q.     Q   Q      Q.      Q.     H
|-------------------------|-------------------------|
|-/12------10-----13--10--|-/12------10-----13------|
|-------------------------|-------------------------|
|-------------------------|-------------------------|
|-------------------------|-------------------------|
|-------------------------|-------------------------|
|-------------------------|-------------------------|
|
|   Q.      Q.     Q   Q      Q.      Q.     H
|-------------------------|-------------------------|
|---0--------------1------|---0--------------1------|
|-----------2----------2--|-----------2-------------|
|-------------------------|-------------------------|
|-------------------------|-------------------------|
|-------------------------|-------------------------|
|-------------------------|-------------------------|
|
|   PM------------|           PM------------|
|   E  E E  Q   E  q   q      E  E E  Q   E  q  q
|-------------------------|-------------------------|
|-------------------------|-------------------------|
|----------------------5--|---------------------5---|
|----------------------3--|---------------------3---|
|---3--3-3--3---3--3---3--|---3--3-3--3---3--3--3---|
|---1--1-1--1---1--1---1--|---1--1-1--1---1--1--1---|
|-------------------------|-------------------------|


  E5
    Q.     Q.    Q  Q      Q.     Q.    Q  Q
|-/10------------------|-/10------------------|
|----------8-----7--8--|----------8-----7--8--|
|----------------------|----------------------|
|----------------------|----------------------|
|----------------------|----------------------|
|----------------------|----------------------|
|----------------------|----------------------|
|
|   Q.     Q.    Q  Q      Q.     Q.    Q  Q
|----------------------|----------------------|
|---3------------------|---3------------------|
|----------0--------0--|----------0--------0--|
|----------------4-----|----------------4-----|
|----------------------|----------------------|
|----------------------|----------------------|
|----------------------|----------------------|
|
|   PM-----------------------------------------
|   E  E E Q   E q  q      E  E E Q   E q  q
|----------------------|----------------------|
|----------------------|----------------------|
|----------------------|----------------------|
|----------------------|----------------------|
|---2--2-2-2---2-2--2--|---2--2-2-2---2-2--2--|
|---0--0-0-0---0-0--0--|---0--0-0-0---0-0--0--|
|----------------------|----------------------|


    Q.     Q.    Q  Q      Q.     Q.    Q  Q
|-/10------------------|-/10-------------------|
|----------8-----7--8--|----------8-----7--8---|
|----------------------|-----------------------|
|----------------------|-----------------------|
|----------------------|-----------------------|
|----------------------|-----------------------|
|----------------------|-----------------------|
|
|   Q.     Q.    Q  Q      Q.     Q.    Q  Q
|----------------------|-----------------------|
|---3------------------|---3-------------------|
|----------0--------0--|----------0--------0---|
|----------------4-----|----------------4------|
|----------------------|-----------------------|
|----------------------|-----------------------|
|----------------------|-----------------------|
|
|------------------------------------------|
|   E  E E Q   E q  q      E  E E Q   E q  q
|----------------------|-----------------------|
|----------------------|-----------------------|
|----------------------|-----------------------|
|----------------------|-----------------------|
|---2--2-2-2---2-2--2--|---2--2-2-2---2-2--2---|
|---0--0-0-0---0-0--0--|---0--0-0-0---0-0--0---|
|----------------------|-----------------------|


  F5
    Q.      Q.     Q   Q      Q.      Q.     Q   Q
|-------------------------|-------------------------|
|-/12------10-----13--10--|-/12------10-----13--10--|
|-------------------------|-------------------------|
|-------------------------|-------------------------|
|-------------------------|-------------------------|
|-------------------------|-------------------------|
|-------------------------|-------------------------|
|
|   Q.      Q.     Q   Q      Q.      Q.     Q   Q
|-------------------------|-------------------------|
|---0--------------1------|---0--------------1------|
|-----------2----------2--|-----------2----------2--|
|-------------------------|-------------------------|
|-------------------------|-------------------------|
|-------------------------|-------------------------|
|-------------------------|-------------------------|
|
|   PM------------|           PM------------|
|   E  E E  Q   E  q   q      E  E E  Q   E  q   q
|-------------------------|-------------------------|
|-------------------------|-------------------------|
|----------------------5--|----------------------5--|
|----------------------3--|----------------------3--|
|---3--3-3--3---3--3---3--|---3--3-3--3---3--3---3--|
|---1--1-1--1---1--1---1--|---1--1-1--1---1--1---1--|
|-------------------------|-------------------------|


    Q.      Q.     Q   Q      Q.      Q.     H
|-------------------------|-------------------------|
|-/12------10-----13--10--|-/12------10-----13------|
|-------------------------|-------------------------|
|-------------------------|-------------------------|
|-------------------------|-------------------------|
|-------------------------|-------------------------|
|-------------------------|-------------------------|
|
|   Q.      Q.     Q   Q      Q.      Q.     H
|-------------------------|-------------------------|
|---0--------------1------|---0--------------1------|
|-----------2----------2--|-----------2-------------|
|-------------------------|-------------------------|
|-------------------------|-------------------------|
|-------------------------|-------------------------|
|-------------------------|-------------------------|
|
|   PM------------|           PM------------|
|   E  E E  Q   E  q   q      E  E E  Q   E  q  q
|-------------------------|-------------------------|
|-------------------------|-------------------------|
|----------------------5--|---------------------5---|
|----------------------3--|---------------------3---|
|---3--3-3--3---3--3---3--|---3--3-3--3---3--3--3---|
|---1--1-1--1---1--1---1--|---1--1-1--1---1--1--1---|
|-------------------------|-------------------------|


  E5
    Q.     Q.    Q  Q       W                +Q
|-/10-------------------|-/10---------------(10)--|
|----------8-----7--8---|-------------------------|
|-----------------------|-------------------------|
|-----------------------|-------------------------|
|-----------------------|-------------------------|
|-----------------------|-------------------------|
|-----------------------|-------------------------|
|
|   Q.     Q.    Q  Q       Q.     Q.    Q    Q
|-----------------------|-------------------------|
|---3-------------------|---3---------------------|
|----------0--------0---|----------0----------0---|
|----------------4------|----------------4--------|
|-----------------------|-------------------------|
|---0-------------------|-------------------------|
|-----------------------|-------------------------|
|
|   PM---------|            PM---------|
|   E  E E Q   E q  q       E  E E Q   E q    q
|-----------------------|-------------------------|
|-----------------------|-------------------------|
|-----------------------|-------------------------|
|----------------2--2\--|----------------2----2\--|
|---2--2-2-2---2-2--2\--|---2--2-2-2---2-2----2\--|
|---0--0-0-0---0-0--0---|---0--0-0-0---0-0----0---|
|-----------------------|-------------------------|


  Gb5
    Q.      Q.     Q   Q    Q.     Q.    Q   Q
|-/12---------------------|-----------------------|
|----------12-----11------|-----------------------|
|---------------------11--|-9---------------------|
|-------------------------|--------9-----8--------|
|-------------------------|------------------9----|
|-------------------------|-----------------------|
|-------------------------|-----------------------|
|
|   Q.      Q.     Q   Q    W               +Q
|-------------------------|-----------------------|
|---5---------------------|-5---------------(5)---|
|-----------4------3------|-----------------------|
|----------------------4--|-----------------------|
|-------------------------|-----------------------|
|-------------------------|-----------------------|
|-------------------------|-----------------------|
|
|   E  E E  Q   E  q   q    E  E E Q   E q   q
|-------------------------|-----------------------|
|-------------------------|-----------------------|
|-------------------------|-----------------------|
|-------------------------|-----------------------|
|---4--4-4--4---4--4---4--|-4--4-4-4---4-4---4----|
|---2--2-2--2---2--2---2--|-2--2-2-2---2-2---2----|
|-------------------------|-----------------------|


 Ending - 2:30
  C
  Q.     Q.    Q  Q    Q.     Q.    Q  Q
|--------------------|--------------------|
|-8------7-----------|-8------7-----------|
|--------------7--5--|--------------7--5--|
|--------------------|--------------------|
|--------------------|--------------------|
|--------------------|--------------------|
|--------------------|--------------------|
|
| Q.     Q.    Q  Q    Q.     Q.    Q  Q
|--------------------|--------------------|
|-8------7-----------|-8------7-----------|
|--------------7--5--|--------------7--5--|
|--------------------|--------------------|
|--------------------|--------------------|
|--------------------|--------------------|
|--------------------|--------------------|
|
| E  E E Q   E q  q    E  E E Q   E q  q
|--------------------|--------------------|
|--------------------|--------------------|
|--------------------|--------------------|
|-5--5-5-5---5-5--5--|-5--5-5-5---5-5--5--|
|-3--3-3-3---3-3--3--|-3--3-3-3---3-3--3--|
|-3--3-3-3---3-3--3--|-3--3-3-3---3-3--3--|
|--------------------|--------------------|


  Bb
  Q.     Q.    Q  Q    Q.     Q.    Q  Q
|--------------------|---------------------|
|-6------5-----------|-6------5------------|
|--------------5--3--|--------------5--3---|
|--------------------|---------------------|
|--------------------|---------------------|
|--------------------|---------------------|
|--------------------|---------------------|
|
| Q.     Q.    Q  Q    Q.     Q.    Q  Q
|--------------------|---------------------|
|-6------5-----------|-6------5------------|
|--------------5--3--|--------------5--3---|
|--------------------|---------------------|
|--------------------|---------------------|
|--------------------|---------------------|
|--------------------|---------------------|
|
| E  E E Q   E q  q    E  E E Q   E q  q
|--------------------|---------------------|
|--------------------|---------------------|
|--------------------|---------------------|
|-3--3-3-3---3-3--3--|-3--3-3-3---3-3--3---|
|-1--1-1-1---1-1--1--|-1--1-1-1---1-1--1---|
|-1--1-1-1---1-1--1--|-1--1-1-1---1-1--1---|
|--------------------|---------------------|


  Ab
  Q.     Q.    Q  Q    Q.     Q.    Q  Q
|--------------------|--------------------|
|-4------3-----------|-4------3-----------|
|--------------3--1--|--------------3--5--|
|--------------------|--------------------|
|--------------------|--------------------|
|--------------------|--------------------|
|--------------------|--------------------|
|
| Q.     Q.    Q  Q    Q.     Q.    Q  Q
|--------------------|--------------------|
|-4------3-----------|-4------3-----------|
|--------------3--1--|--------------3--5--|
|--------------------|--------------------|
|--------------------|--------------------|
|--------------------|--------------------|
|--------------------|--------------------|
|
| E  E E Q   E q  q    E  E E Q   E q  q
|--------------------|--------------------|
|--------------------|--------------------|
|--------------------|--------------------|
|--------------------|--------------------|
|-6--6-6-6---6-6--6--|-6--6-6-6---6-6--6--|
|-4--4-4-4---4-4--4--|-4--4-4-4---4-4--4--|
|-4--4-4-4---4-4--4--|-4--4-4-4---4-4--4--|


  G
  Q.     Q.    Q  Q    Q.     Q.    Q  Q
|--------------------|---------------------|
|-3------2-----------|-3------2------------|
|--------------2--0--|--------------2--4---|
|--------------------|---------------------|
|--------------------|---------------------|
|--------------------|---------------------|
|--------------------|---------------------|
|
| Q.     Q.    Q  Q    Q.     Q.    Q  Q
|--------------------|---------------------|
|-3------2-----------|-3------2------------|
|--------------2--0--|--------------2--4---|
|--------------------|---------------------|
|--------------------|---------------------|
|--------------------|---------------------|
|--------------------|---------------------|
|
| E  E E Q   E q  q    E  E E Q   E q  q
|--------------------|---------------------|
|--------------------|---------------------|
|--------------------|---------------------|
|--------------------|---------------------|
|-5--5-5-5---5-5--5--|-5--5-5-5---5-5--5---|
|-3--3-3-3---3-3--3--|-3--3-3-3---3-3--3---|
|-3--3-3-3---3-3--3--|-3--3-3-3---3-3--3---|


  G
   Q.     Q.     Q  Q     Q.     Q.     Q   Q
|-10------9------------|-10------9-------------*|
|---------------10--8--|---------------10--12--*|
|----------------------|-----------------------*|
|----------------------|-----------------------*|
|----------------------|-----------------------*|
|----------------------|-----------------------*|
|----------------------|-----------------------*|
|
|  Q.     Q.     Q  Q     Q.     Q.     Q   Q
|----------------------|-----------------------*|
|--3------2------------|--3------2-------------*|
|----------------2--0--|----------------2---4--*|
|----------------------|-----------------------*|
|----------------------|-----------------------*|
|----------------------|-----------------------*|
|----------------------|-----------------------*|
|
|  E  E E Q   E  q  q     E  E E Q   E  q   q
|----------------------|-----------------------*|
|----------------------|-----------------------*|
|----------------------|-----------------------*|
|----------------------|-----------------------*|
|--5--5-5-5---5--5--5--|--5--5-5-5---5--5---5--*|
|--3--3-3-3---3--3--3--|--3--3-3-3---3--3---3--*|
|--3--3-3-3---3--3--3--|--3--3-3-3---3--3---3--*|



Duration Legend
---------------
W - whole; H - half; Q - quarter; E - 8th; S - 16th; T - 32nd; X - 64th; a - acciaccatura
+ - note tied to previous; . - note dotted; .. - note double dotted
Uncapitalized letters represent notes that are staccato (1/2 duration)
Irregular groupings are notated above the duration line
Duration letters will always appear directly above the note/fret number it represents the
duration for.  Duration letters with no fret number below them represent rests.  Multi-
bar rests are notated in the form Wxn, where n is the number of bars to rest for.  Low
melody durations appear below the staff

Tablature Legend
----------------
 h   - hammer-on
 p   - pull-off
 b   - bend
 pb  - pre-bend
 r   - bend release (if no number after the r, then release immediately)
 /\  - slide into or out of (from/to "nowhere")
 s   - legato slide
 S   - shift slide
 - natural harmonic
[n]  - artificial harmonic
n(n) - tapped harmonic
 ~   - vibrato
 tr  - trill
 T   - tap
 TP  - trem. picking
 PM  - palm muting
\n/  - tremolo bar dip; n = amount to dip
 \n  - tremolo bar down
 n/  - tremolo bar up
/n\  - tremolo bar inverted dip
 =   - hold bend; also acts as connecting device for hammers/pulls
 <> - volume swell (louder/softer)
 x   - on rhythm slash represents muted slash
 o   - on rhythm slash represents single note slash

Misc Legend
-----------
 |  - bar
||  - double bar
||o - repeat start
o|| - repeat end
*|  - double bar (ending)
 :  - bar (freetime)
 $  - Segno
 &  - Coda
Tempo markers -  = BPM(8/16=s8/s16), where s8 = swing 8ths, s16 = swing 16ths

comments
We did not receive enough feedback on this tab! Please rate:
print report bad tab
1 2 3 4 5
I want to post or [tab]
guest
You may want to rate the tab now too:
select rating
Please do not post tabs as comments. Select "correction" instead!