Oops, an error
Loading. Please wait.

Dimensions Of Fire Bass Tab

ver1
ver1

Whole song

Interactive

More versions @911Tabs.com
143 views 1 this week
no commentswrite comment
1 2 3 4 5
please rate
Autoscroll
+/-
esc
set tempo
stop
Contributor
WARNING: You are trying to view
                                    content from Ultimate-Guitar.com
                                    in an unauthorized application,
                                    which is prohibited.

                                    Please use an official Ultimate
                                    Guitar Tabs application for iPhone,
                                    iPad or Android to access legitimate
                                    chords, guitar, bass, and drum tabs
                                    from Ultimate-Guitar.com database.

                                    Type "ultimate guitar tabs" in Apple
                                    App Store's or Android Market's
                                    search to find the application.
#----------------------------------PLEASE NOTE---------------------------------#
#This file is the author's own work and represents their interpretation of the #
#song. You may only use this file for private study, scholarship, or research. #
#------------------------------------------------------------------------------#

DIMENSIONS OF FIRE (Bassline)
As recorded by Pagan's Mind
(From the 2002 Album CELESTIAL ENTRANCE)

Transcribed by Ryan A. Silke
	

Words and Music by Pagan's Mind

Gtr I (B E A D G) - 'Untitled'

                   Intro - 0:00
  Q=110
 4/4
  Gtr I
  H    Q    Q       E E E E E E E E   E E E E E E E E   +E  E E E E E E E
|---------------||------------------|-----------------|-------------------|
|---------------||o-----------------|-----------------|-------------------|
|---------------||------------------|-----------------|-------------------|
|---------/12\--||o-0-0-1-0-0-0-0-0-|-1-0-0-0-7-6-x-6-|-(6)-0-0-0-0-0-0-0-|
|---------------||------------------|-----------------|-------------------|


   S  S  S  +S   S  S  S  S  +S   S  S  +S   S  S  E
|-------------------------------------------------------||
|------------------------------------------------------o||
|-------------------------------------------------------||
|-10h12-12-(12)-12-12-10h12-(12)-12-12-(12)-12-12-12\--o||
|-------------------------------------------------------||


 Verse 1 - 0:19
 4/4
  E E e e e e e e   e e e e e e e E   E E e e e e e e   e e e e e e e E
|-----------------|-----------------|-----------------|-----------------|
|-----------------|-----------------|-----------------|-----------------|
|-----------------|-----------------|-----------------|-----------------|
|-0-0---0---0---0-|---0---0---0---0-|-0-0---0---0---0-|---0---0---0---0-|
|-----------------|-----------------|-----------------|-----------------|


  E E e e e e e e   e e e e e e e E   E E e e e e e e   e e e e e S S E E
|-----------------|-----------------|-----------------|-------------------|
|-----------------|-----------------|-----------------|-------------------|
|-----------------|-----------------|-----------------|---------------0---|
|-0-0---0---0---0-|---0---0---0---0-|-0-0---0---0---0-|---0---0---2h3---3-|
|-----------------|-----------------|-----------------|-------------------|


  E E e e e e e e   e e e e e e e E   E E e e e e e e   e e e e e e e E
|-----------------|-----------------|-----------------|-----------------|
|-----------------|-----------------|-----------------|-----------------|
|-----------------|-----------------|-----------------|-----------------|
|-0-0---0---0---0-|---0---0---0---0-|-0-0---0---0---0-|---0---0---0---0-|
|-----------------|-----------------|-----------------|-----------------|


  E E e e e e e e   e e e e e e e E   E E e e e Q.     H    H
|-----------------|-----------------|----------------|-----------|
|-----------------|-----------------|----------------|-----------|
|-----------------|-----------------|----------------|-----------|
|-0-0---0---0---0-|---0---0---0---0-|-0-0---0---0----|-----------|
|-----------------|-----------------|----------------|-3----2----|


 Bridge - 0:54
  E. S E E E. S E E   E. S E E E. S E E
|-------------------|-------------------|
|-------------------|-------------------|
|-------------------|-------------------|
|-3--3-3-3-3--3-3-3-|-3--3-3-3-3--3-3-5-|
|-------------------|-------------------|


                                |-3-|
  E. S E E E. S E E   E. S E E  Q Q Q
|-------------------|-------------------|
|-------------------|-------------------|
|-------------------|----------/5-3-----|
|-6--6-6-6-6--6-6-6-|-6--6-6-6------6\--|
|-------------------|-------------------|


  E. S E E E. S E E   E. S E E E. S E E   E E E E E E E E   E E E E E E E E
|-------------------|-------------------|-----------------|-----------------|
|-------------------|-------------------|-----------------|-----------------|
|-------------------|-------------------|-----------------|-----------------|
|-------------------|-------------------|-----------------|-----------------|
|-4--4-4-4-4--4-4-4-|-4--4-4-4-4--4-4-4-|-0-0-0-0-0-0-0-0-|-0-0-0-0-0-0-0-0-|


 Verse 2 - 1:11
  E E e e e e e e   e e e e e e e E   E E e e e e e e   e e e e e e e E
|-----------------|-----------------|-----------------|-----------------|
|-----------------|-----------------|-----------------|-----------------|
|-----------------|-----------------|-----------------|-----------------|
|-0-0---0---0---0-|---0---0---0---0-|-0-0---0---0---0-|---0---0---0---0-|
|-----------------|-----------------|-----------------|-----------------|


  E E e e e e e e   e e e e e e e E   E E e e e e e e   e e e e e S S E E
|-----------------|-----------------|-----------------|-------------------|
|-----------------|-----------------|-----------------|-------------------|
|-----------------|-----------------|-----------------|---------------0---|
|-0-0---0---0---0-|---0---0---0---0-|-0-0---0---0---0-|---0---0---2h3---3-|
|-----------------|-----------------|-----------------|-------------------|


  E E e e e e e e   e e e e e e e E   E E e e e e e e   e e e e e e e E
|-----------------|-----------------|-----------------|-----------------|
|-----------------|-----------------|-----------------|-----------------|
|-----------------|-----------------|-----------------|-----------------|
|-0-0---0---0---0-|---0---0---0---0-|-0-0---0---0---0-|---0---0---0---0-|
|-----------------|-----------------|-----------------|-----------------|


  E E e e e e e e   e e e e e e e E   E E e e e Q.     H    H
|-----------------|-----------------|----------------|-----------|
|-----------------|-----------------|----------------|-----------|
|-----------------|-----------------|----------------|-----------|
|-0-0---0---0---0-|---0---0---0---0-|-0-0---0---0----|-----------|
|-----------------|-----------------|----------------|-3----2----|


 Bridge - 1:46
  E. S E E E. S E E   E. S E E E. S E E
|-------------------|-------------------|
|-------------------|-------------------|
|-------------------|-------------------|
|-3--3-3-3-3--3-3-3-|-3--3-3-3-3--3-3-5-|
|-------------------|-------------------|


                                |-3-|
  E. S E E E. S E E   E. S E E  Q Q Q
|-------------------|-------------------|
|-------------------|-------------------|
|-------------------|----------/5-3-----|
|-6--6-6-6-6--6-6-6-|-6--6-6-6------6\--|
|-------------------|-------------------|


  E. S E E E. S E E   E. S E E E. S E E   E E E E E E E E   E E E E E E E E
|-------------------|-------------------|-----------------|-----------------|
|-------------------|-------------------|-----------------|-----------------|
|-------------------|-------------------|-----------------|-----------------|
|-------------------|-------------------|-----------------|-----------------|
|-4--4-4-4-4--4-4-4-|-4--4-4-4-4--6-4-2-|-0-0-0-0-0-0-0-0-|-0-0-0-0-0-0-0-0-|


   Pre-Chorus - 2:03
    E E e e e e e e   E E e e e e e e   E E e e e e e e   E E e q  S S E E
||------------------|-----------------|-----------------|-------------------||
||o-----------------|-----------------|-----------------|------------------o||
||------------------|-----------------|-----------------|--------------1----||
||o-----------------|-----------------|-----------------|----------1h3---3-o||
||--1-1---1---1---1-|-1-1---1---1---1-|-1-1---1---1---1-|-1-1---1-----------||


 Chorus - 2:21
 3/4
  E E E E E E   E E E E E E   E E E E E E   E E E E E E
|-------------|-------------|-------------|-------------|
|-------------|-------------|-------------|-------------|
|-------------|-------------|-------------|-------------|
|-6-6-6-6-6-6-|-6-6-6-6-6-6-|-6-6-6-6-6-6-|-6-6-6-6-6-6-|
|-------------|-------------|-------------|-------------|


                                           2/4
  E E E E E E   E E E E E E   E E E E E E   Q  Q
|-------------|-------------|-------------|-------|
|-------------|-------------|-------------|-------|
|-------------|-------------|-------------|-------|
|-6-6-6-6-6-6-|-5-5-5-5-5-5-|-4-4-4-4-4-4-|-------|
|-------------|-------------|-------------|-1--3--|


 4/4
  E E E E E E E E   E E E E E E E E   +E  E E E E E E E   E E E E E E E E
|-----------------|-----------------|-------------------|-----------------|
|-----------------|-----------------|-------------------|-----------------|
|-----------------|-----------------|-------------------|-----------------|
|-0-0-1-0-0-0-0-0-|-1-0-0-0-7-6-x-6-|-(6)-0-0-0-0-0-0-0-|-0-0-0-0-0-0-0-0-|
|-----------------|-----------------|-------------------|-----------------|


  E E E E E E E E   E E E E E E E E   +E  E E E E E E E
|-----------------|-----------------|-------------------|
|-----------------|-----------------|-------------------|
|-----------------|-----------------|-------------------|
|---0---0---0---0-|---0---0-7-6-x-6-|-(6)-0-0-0-0-0-0-0-|
|-----------------|-----------------|-------------------|


   S  S  S  +S   S  S  S  S  +S   S  S  +S   S  S  E
|-------------------------------------------------------|
|-------------------------------------------------------|
|-------------------------------------------------------|
|-10h12-12-(12)-12-12-10h12-(12)-12-12-(12)-12-12-12\---|
|-------------------------------------------------------|


 Verse 3 - 2:52
  E E e e e e e e   e e e e e e e E   E E e e e e e e   e e e e e e e E
|-----------------|-----------------|-----------------|-----------------|
|-----------------|-----------------|-----------------|-----------------|
|-----------------|-----------------|-----------------|-----------------|
|-0-0---0---0---0-|---0---0---0---0-|-0-0---0---0---0-|---0---0---0---0-|
|-----------------|-----------------|-----------------|-----------------|


  E E e e e e e e   e e e e e e e E   E E e e e e e e   e e e e e S S E E
|-----------------|-----------------|-----------------|-------------------|
|-----------------|-----------------|-----------------|-------------------|
|-----------------|-----------------|-----------------|---------------0---|
|-0-0---0---0---0-|---0---0---0---0-|-0-0---0---0---0-|---0---0---2h3---3-|
|-----------------|-----------------|-----------------|-------------------|


  E E e e e e e e   e e e e e e e E   E E e e e e e e   e e e e e e e E
|-----------------|-----------------|-----------------|-----------------|
|-----------------|-----------------|-----------------|-----------------|
|-----------------|-----------------|-----------------|-----------------|
|-0-0---0---0---0-|---0---0---0---0-|-0-0---0---0---0-|---0---0---0---0-|
|-----------------|-----------------|-----------------|-----------------|


  E E e e e e e e   e e e e e e e E   E E e e e Q.     H    H
|-----------------|-----------------|----------------|-----------|
|-----------------|-----------------|----------------|-----------|
|-----------------|-----------------|----------------|-----------|
|-0-0---0---0---0-|---0---0---0---0-|-0-0---0---0----|-----------|
|-----------------|-----------------|----------------|-3----2----|


 Bridge - 3:27
  E. S E E E. S E E   E. S E E E. S E E
|-------------------|-------------------|
|-------------------|-------------------|
|-------------------|-------------------|
|-3--3-3-3-3--3-3-3-|-3--3-3-3-3--3-3-5-|
|-------------------|-------------------|


                                |-3-|
  E. S E E E. S E E   E. S E E  Q Q Q
|-------------------|-------------------|
|-------------------|-------------------|
|-------------------|----------/5-3-----|
|-6--6-6-6-6--6-6-6-|-6--6-6-6------6\--|
|-------------------|-------------------|


  E. S E E E. S E E   E. S E E E. S E E   E E E E E E E E   E E E E E E E E
|-------------------|-------------------|-----------------|-----------------|
|-------------------|-------------------|-----------------|-----------------|
|-------------------|-------------------|-----------------|-----------------|
|-------------------|-------------------|-----------------|-----------------|
|-4--4-4-4-4--4-4-4-|-4--4-4-4-4--6-4-2-|-0-0-0-0-0-0-0-0-|-0-0-0-0-0-0-0-0-|


   Pre-Chorus - 3:45
    E E e e e e e e   E E e e e e e e   E E e e e e e e   E E e q  S S E E
||------------------|-----------------|-----------------|-------------------||
||o-----------------|-----------------|-----------------|------------------o||
||------------------|-----------------|-----------------|--------------1----||
||o-----------------|-----------------|-----------------|----------1h3---3-o||
||--1-1---1---1---1-|-1-1---1---1---1-|-1-1---1---1---1-|-1-1---1-----------||


 Chorus - 4:02
 3/4
  E E E E E E   E E E E E E   E E E E E E   E E E E E E
|-------------|-------------|-------------|-------------|
|-------------|-------------|-------------|-------------|
|-------------|-------------|-------------|-------------|
|-6-6-6-6-6-6-|-6-6-6-6-6-6-|-6-6-6-6-6-6-|-6-6-6-6-6-6-|
|-------------|-------------|-------------|-------------|


                                           2/4
  E E E E E E   E E E E E E   E E E E E E   Q  Q
|-------------|-------------|-------------|-------|
|-------------|-------------|-------------|-------|
|-------------|-------------|-------------|-------|
|-6-6-6-6-6-6-|-5-5-5-5-5-5-|-4-4-4-4-4-4-|-3--5--|
|-------------|-------------|-------------|-------|


 Demonic Interlude - 4:15
 4/4
  H    +Q.   E   H    H      H    +Q.   E   H    H
|--------------|-----------|--------------|-----------|
|--------------|-----------|--------------|-----------|
|--------------|-----------|--------------|-----------|
|--------------|-----------|--------------|-----------|
|-0----(0)---0-|-0----3----|-4----(4)---4-|-4----1----|


  H    +Q.   E   H    H      H    +Q.   E   H    E E Q
|--------------|-----------|--------------|-------------|
|--------------|-----------|--------------|-------------|
|--------------|-----------|--------------|-------------|
|--------------|-----------|--------------|-------------|
|-0----(0)---0-|-0----3----|-4----(4)---4-|-4----1-1----|


  W          +H     H      W          +H     H
|----------|-------------|----------|-------------|
|----------|-------------|----------|-------------|
|----------|-------------|----------|-------------|
|----------|-------------|----------|-------------|
|-0--------|-(0)----3----|-4--------|-(4)----1----|


  W          +H     H      W          +H     H
|----------|-------------|----------|-------------|
|----------|-------------|----------|-------------|
|----------|-------------|----------|-------------|
|----------|-------------|----------|-------------|
|-0--------|-(0)----3----|-4--------|-(4)----2----|


 Guitar Solo - 4:51
  E E E E E E E E   E E E E E E E E   E E E E E E E E   E E E E E E E E
|-----------------|-----------------|-----------------|-----------------|
|-----------------|-----------------|-----------------|-----------------|
|-----------------|-----------------|-----------------|-----------------|
|-----------------|---------3-------|-----------------|---------3---2---|
|-1-1-1-1-1-1-1-3-|-1-1-1-3---3-1-3-|-5-5-5-5-5-0-3-0-|-5-5-5-5---5---3-|


  E E E E E E E E   E E E E E E E E   E E E E E E E E   E E E E E E E E
|-----------------|-----------------|-----------------|-----------------|
|-----------------|-----------------|-----------------|-----------------|
|-----------------|-----------------|-----------------|-----------------|
|-----------------|---------3---1---|-----------------|---3-3-3-3-3-5-7-|
|-1-1-1-1-1-0-1-3-|-1-1-1-1---3---1-|-5-5-5-5-5-5-5-5-|-5---------------|


  E S S E E E S S E E   E S S E E E E E E
|---------------------|-------------------|
|---------------------|-------------------|
|---------------------|---------5---------|
|-8-8-8-8-8-8-8-8-8-7-|-8-8-8-8---8-7-5-3-|
|---------------------|-------------------|


  E S S E E E S S E E   E S S E E E E E E
|---------------------|-------------------|
|---------------------|-------------------|
|---------------------|-----------------2-|
|-0-0-0-0-0-0-0-0-0-0-|-0-0-0-0-0-0-2-3---|
|---------------------|-------------------|


  E S S E E E S S E E   E S S E E E E E E
|---------------------|-------------------|
|---------------------|-------------------|
|---------------------|-------------------|
|---------------------|---------------0-3-|
|-1-1-1-1-1-1-1-1-1-0-|-1-1-1-1-1-1-3-----|


  E S S E E E S S E E   E E E E E E E E
|---------------------|------------------|
|---------------------|------------------|
|---------------------|------------------|
|-0-0-0-0-0-0-0-0-0-0-|-0-0-2-2-3-3-5-7--|
|---------------------|------------------|


  H    +Q.   E   H    H
|--------------|------------|
|--------------|------------|
|--------------|------------|
|--------------|------3\----|
|-1----(1)---0-|-1----------|


 Keyboard Solo - 5:30
  H    +Q.   E   H    +Q.   S S   H    +Q.   E   H    Q  Q
|--------------|----------------|--------------|------------|
|--------------|----------------|--------------|---------5--|
|--------------|-7----(7)-------|-3----(3)---2-|-3----3-----|
|-0----(0)---7-|------------2h5-|--------------|------------|
|--------------|----------------|--------------|------------|


                        |-3-|
  H    +Q.   E   Q.   E Q Q Q   H    +Q.   E   H    +H
|--------------|--------------|--------------|--------------|
|--------------|--------------|--------------|--------------|
|-7----(7)-----|----------0-2-|-3----(3)---2-|-3----(3)\----|
|------------7-|-0----2-3-----|--------------|--------------|
|--------------|--------------|--------------|--------------|


                        |-3-|                   |----6----|
  H    +Q.   E   Q.   E Q Q Q   H    +Q.   E    Q Q Q Q Q Q
|--------------|--------------|--------------|-/7-5-4--------|
|--------------|------5-4-2-0-|------------5-|--------7-5-4--|
|--------------|-7------------|-3----(3)-----|---------------|
|-0----(0)---7-|--------------|--------------|---------------|
|--------------|--------------|--------------|---------------|


  Q=115
  E E E E E E E E   E E E E E E E E
|-----------------|-----------------|
|-----------------|-----------------|
|-7-7-7-7-7-7-7-7-|-7-7-7-7-7-7-7-7-|
|-----------0-0-0-|-0-0-0-0-0-0-0-0-|
|-----------------|-----------------|


  E S S S E S E S S S E S   E S S S E S E S S S E S
|-------------------------|-------------------------|
|-------------------------|-------------------------|
|-------------------------|-------------------------|
|-3-3-3-3-3-3-3-3-3-3-3-3-|-3-3-3-3-3-3-3-3-3-3-3-3-|
|-------------------------|-------------------------|


  E S S S E S E S S S E S   E S S S E S E S S S E S
|-------------------------|-------------------------|
|-------------------------|-------------------------|
|-------------------------|-------------------------|
|-6-6-6-6-6-6-6-6-6-6-6-6-|-6-6-6-6-6-6-6-6-6-6-6-6-|
|-------------------------|-------------------------|


  E S S S E S E S S S E S   E S S S E S E S S S E S
|-------------------------|-------------------------|
|-------------------------|-------------------------|
|-------------------------|-------------------------|
|-------------------------|-------------------------|
|-4-4-4-4-4-4-4-4-4-4-4-4-|-4-4-4-4-4-4-4-4-4-4-4-4-|


  E E E E E E E E   E E E E E E E E
|-----------------|-----------------|
|-----------------|-----------------|
|-----------------|-----------------|
|-----------------|-----------------|
|-0-0-0-0-0-0-0-0-|-0-0-0-0-0-0-0-0-|


   Pre-Chorus - 6:17
    E E e e e e e e   E E e e e e e e   E E e e e e e e   E E e q  S S E E
||------------------|-----------------|-----------------|-------------------||
||o-----------------|-----------------|-----------------|------------------o||
||------------------|-----------------|-----------------|--------------1----||
||o-----------------|-----------------|-----------------|----------1h3---3-o||
||--1-1---1---1---1-|-1-1---1---1---1-|-1-1---1---1---1-|-1-1---1-----------||


 Chorus - 6:35
 3/4
  E E E E E E   E E E E E E   E E E E E E   E E E E E E
|-------------|-------------|-------------|-------------|
|-------------|-------------|-------------|-------------|
|-------------|-------------|-------------|-------------|
|-6-6-6-6-6-6-|-6-6-6-6-6-6-|-6-6-6-6-6-6-|-6-6-6-6-6-6-|
|-------------|-------------|-------------|-------------|


                                                   2/4
  S S E E S S E E   S S E E E E E   E E E S S E E   Q  Q
|-----------------|---------------|---------------|-------|
|-----------------|---------------|---------------|-------|
|-----------------|---------------|---------------|-------|
|-6-6-6-6-6-6-6-6-|-5-5-5-5-5-5-5-|-4-4-4-4-4-4-4-|-------|
|-----------------|---------------|---------------|-1--3--|


 Ending - 6:48
 4/4
  W          H    E E E E   +E  E E E E E E E   E E E E E E E E
|----------|--------------|-------------------|-----------------|
|----------|--------------|-------------------|-----------------|
|----------|--------------|-------------------|-----------------|
|----------|--------7-x-6-|-(6)-0-0-0-0-0-0-0-|-0-0-0-0-0-7-x-6-|
|----------|--------------|-------------------|-----------------|


  +E  E E E E E E E   E E E E E E E E   E E E E E E E E   E E E E E E E E
|-------------------|-----------------|-----------------|-----------------|
|-------------------|-----------------|-----------------|-----------------|
|-------------------|-----------------|-----------------|-----------------|
|-(6)-0-0-0-0-0-0-0-|-0-0-0-0-0-7-x-6-|---0---0---0---0-|---0---0-0-7-x-6-|
|-------------------|-----------------|-----------------|-----------------|


  +E  E E E E E E E   E E E E E E E E   +E  E E E E E E E   E E E E E E E E
|-------------------|-----------------|-------------------|-----------------|
|-------------------|-----------------|-------------------|-----------------|
|-------------------|-----------------|-------------------|-----------------|
|-(6)-0-0-0-0-0-0-0-|-0-0-0-0-0-7-x-6-|-(6)-0-0-0-0-0-0-0-|-0-0-0-0-0-7-x-6-|
|-------------------|-----------------|-------------------|-----------------|


  +E  E E E E E E E   E E E E E E E E
|-------------------|-----------------|
|-------------------|-----------------|
|-------------------|-----------------|
|-(6)-0-0-0-0-0-0-0-|-0-0-0-0-0-7-x-6-|
|-------------------|-----------------|


  +E  E E E E E E E   E E E E E E E E   +Q   Q  Q  Q
|-------------------|-----------------|---------------*|
|-------------------|-----------------|---------------*|
|-------------------|-----------------|---------------*|
|-(6)-0-0-0-0-0-0-0-|-0-0-0-0-0-7-x-6-|-(6)-----------*|
|-------------------|-----------------|---------------*|



Duration Legend
---------------
W - whole; H - half; Q - quarter; E - 8th; S - 16th; T - 32nd; X - 64th; a - acciaccatura
+ - note tied to previous; . - note dotted; .. - note double dotted
Uncapitalized letters represent notes that are staccato (1/2 duration)
Irregular groupings are notated above the duration line
Duration letters will always appear directly above the note/fret number it represents the
duration for.  Duration letters with no fret number below them represent rests.  Multi-
bar rests are notated in the form Wxn, where n is the number of bars to rest for.  Low
melody durations appear below the staff

Tablature Legend
----------------
 h   - hammer-on
 p   - pull-off
 b   - bend
 pb  - pre-bend
 r   - bend release (if no number after the r, then release immediately)
 /\  - slide into or out of (from/to "nowhere")
 s   - legato slide
 S   - shift slide
<n> - natural harmonic
[n]  - artificial harmonic
n(n) - tapped harmonic
 ~   - vibrato
 tr  - trill
 T   - tap
 TP  - trem. picking
 PM  - palm muting
\n/  - tremolo bar dip; n = amount to dip
 \n  - tremolo bar down
 n/  - tremolo bar up
/n\  - tremolo bar inverted dip
 =   - hold bend; also acts as connecting device for hammers/pulls
 <> - volume swell (louder/softer)
 x   - on rhythm slash represents muted slash
 o   - on rhythm slash represents single note slash

Misc Legend
-----------
 |  - bar
||  - double bar
||o - repeat start
o|| - repeat end
*|  - double bar (ending)
 :  - bar (freetime)
 $  - Segno
 &  - Coda
Tempo markers - <E/E./Q/Q./H/H.> = BPM(8/16=s8/s16), where s8 = swing 8ths, s16 = swing 16ths

comments
We did not receive enough feedback on this tab! Please rate:
print report bad tab
1 2 3 4 5
I want to post or [tab]
guest
You may want to rate the tab now too:
select rating
Please do not post tabs as comments. Select "correction" instead!