Oops, an error
Loading. Please wait.

Resurrection Back In Time Tab

ver1
ver1

Whole song

Interactive

More versions @911Tabs.com
808 views 6 this week
1 commentread comment
1 2 3 4 5
accurate
x 2
Autoscroll
+/-
esc
set tempo
stop
Contributor
Hey! There's an official Ultimate Guitar app which is ideal
for learning songs when you're away from computer. Get the app
WARNING: You are trying to view
                                    content from Ultimate-Guitar.com
                                    in an unauthorized application,
                                    which is prohibited.

                                    Please use an official Ultimate
                                    Guitar Tabs application for iPhone,
                                    iPad or Android to access legitimate
                                    chords, guitar, bass, and drum tabs
                                    from Ultimate-Guitar.com database.

                                    Type "ultimate guitar tabs" in Apple
                                    App Store's or Android Market's
                                    search to find the application.
 Tabbed by: Harry
Email: dead_guy2000@hotmail.com
Tuning:

Intro

E|---------------------------------------------------------------------|
B|---------------------------------------------------------------------|
G|---------------------------------------------------------------------|
D|---------------------------------------------------------------------|
A|-------------------------------------------------------333-----------|
E|2-2-22-22-2-22-22-2-22-2-333000-2-22-22-2-22-22-2-22-2----111--------|

E|---------------------------------------------------------------------|
B|---------------------------------------------------------------------|
G|---------------------------------------------------------------------|
D|--------------------------------------------------------420----------|
A|-----------------------------------------------------------32--------|
E|2-2-22-22-2-22-22-2-22-2-333000-2-2-22-22-2-22-22-2-22-2-----0-------|

Verse

E|---------------------------------------------------------------------|
B|---------------------------------------------------------------------|
G|---------------------------------------------------------------------|
D|---------------------------------------------------------------------|
A|4-------4-------4---------------4-----4-------4--------333-----------|
E|2-2-22-22-2-22-22-2-22-2-333000-2-22-22-2-22-22-2-22-2----111--------|

E|---------------------------------------------------------------------|
B|---------------------------------------------------------------------|
G|---------------------------------------------------------------------|
D|----------------------------------------------------------555--------|
A|4-------4-------4---------------4-----4-------4--------333-----------|
E|2-2-22-22-2-22-22-2-22-2-333000-2-22-22-2-22-22-2-22-2---------------|

Pre-chorus

E|----------------------------------------------------------------------|
B|----------------------------------------------------------------------|
G|------------------------------------8~--------------------------------|
D|------------------------------------7~--------------------------------|
A|--------------3333333333300000000000----------------------------------|
E|22222222222222--------------------------------------------------------|


  B5               B5
E|---------------------6-----------------------------------------------|
B|----7-6-4-----4h6------7-6-----6h7-----------------------------------|
G|4464-4-4-44644---4464-4-4-44644------------x2------------------------|
D|--------------------------------------------------------------Riff-4-|
A|---------------------------------------------------------------------|
E|---------------------------------------------------------------------|


  G5               G5       (A5)
E|---------------------------------------------------------------------|
B|---------------------7-----------------------------------------------|
G|----7-6-4-----4h6------7-6--4—6h7---------x2-------------------------|
D|5575-5-5-55755---5575-5-5-55-55--------------------------------------|
A|---------------------------------------------------------------------|
E|---------------------------------------------------------------------|


E|----------------------------------------------------------------------|
B|----------------------------------------------------------------------|
G|---------------------------------------------------------------riff-5-|
D|----------------------------------------------------------------------|
A|2222---2222---2222-2222---2222---2222-2222---2222---2222--020320-0--4-|
E|----------------------------------------------------------------3-302-|

   G5                  Em9              Bm7                A/F#
E|---------------------------------------------------------------------|
B|--------------------------------------3------------------------------|
G|--------------------------------------2------------------2-----------|
D|-5-------------------4----------------4------------------2-----------|
A|-5-------------------2----------------2------------------0-----------|
E|-3-------------------0-----------------------------------2-----------|


E|----------------------------------------------------------------------|
B|----------------------------------------------------------------------|
G|-------------------------------------4--4---4--4--3--2----------------|
D|-5-------------------4---------------4--4---4--4--3--2----------------|
A|-5-------------------2---------------2--2—0h2--2--1--0----------------|
E|-3-------------------0------------------------------------------------|


E|---------------------------------------------------------------------|
B|---------------------------------------------------------------------|
G|---------------------------------------------------------------------|
D|-----------------------420-------------------------------------------|
A|--------------------------32-----------------------------------------|
E|-2-22-22-2-22-22-2-22-2-----0----------------------------------------|

Verse


E|---------------------------------------------------------------------|
B|---------------------------------------------------------------------|
G|---------------------------------------------------------------------|
D|---------------------------------------------------------------------|
A|--------------3333333333300000000000---------------------------------|
E|22222222222222-----------------------2222---2222---2222--------------|

Riff 4

Riff 5


 G5                  Em9              Bm7                A/F#
E|---------------------------------------------------------------------|
B|--------------------------------------3------------------------------|
G|--------------------------------------2------------------2-----------|
D|-5-------------------4----------------4------------------2-----------|
A|-5-------------------2----------------2------------------0-----------|
E|-3-------------------0-----------------------------------2-----------|


E|---------------------------------------------------------------------|
B|---------------------------------------------------------------------|
G|--------------------------------------4------------------5-----------|
D|-5-------------------4----------------4------------------5-----------|
A|-5-------------------2----------------2------------------3-----------|
E|-3-------------------0-----------------------------------------------|


   G5                  Em9              Bm7                A/F#
E|---------------------------------------------------------------------|
B|--------------------------------------3------------------------------|
G|--------------------------------------2------------------2-----------|
D|-5-------------------4----------------4------------------2-----------|
A|-5-------------------2----------------2------------------0-----------|
E|-3-------------------0-----------------------------------2-----------|


E|----------------------------------------------------------------------|
B|----------------------------------------------------------------------|
G|-------------------------------------4--4---4--4--3--2----------------|
D|-5-------------------4---------------4--4---4--4--3--2----------------|
A|-5-------------------2---------------2--2—0h2--2--1--0----------------|
E|-3-------------------0------------------------------------------------|


E|---------------------------------------------------------------------|
B|-7----------7----7----6--------5-------------------------------------|
G|-9b11~------9b11-9b11-8b10-----7b9-----------------------------------|
D|---------------------------------------------------------------------|
A|---------------------------------------------------------------------|
E|---------------------------------------------------------------------|

Bridge (Repeat for Keyboard solo rhythm)


E|---------------------------------------------------------------------|
B|---------------------------------------------------------------------|
G|-----T------T------T------T------T------T------T------T------T-------|
D|-4h6-11-4h6-11-4h6-11-4h6-11-4h6-11-4h6-11-4h6-11-4h6-12-4h6-12------|
A|---------------------------------------------------------------------|
E|---------------------------------------------------------------------|


E|---------------------------------------------------------------------|
B|---------------------------------------------------------------------|
G|-----T------T------T------T------T------T------T------T------T-------|
D|-4h6-11-4h6-11-4h6-11-4h6-11-4h6-11-4h6-11-4h6-11-4h6-10-4h6-10------|
A|---------------------------------------------------------------------|
E|---------------------------------------------------------------------|


Guitar Solo

E|-------19b20-19-------------------------------------------------------|
B|------------------17—18~-----------------------17b20r17~--------------|
G|---------------------------------------16--17-------------------------|
D|--/\------------------------------------------------------------------|
A|-/--\-----------------------------------------------------------------|
E|/----\----------------------------------------------------------------|


E|---------------------------------------------------------------------|
B|---------5h8p5------------------------------------------151718-------|
G|---7b9~--------7h8p7p5-7b9-5—5~-------------------141617-------------|
D|--x-------------------------7---7-5-7~------121415-------------------|
A|-x------------------------------------121415-------------------------|
E|---------------------------------------------------------------------|

   T        T        T        T        T
E|-17p15p12-15p12p10-17p15p12-15p12p10-17------------------------------|
B|------------------------------------------10-12-13~------------------|
G|---------------------------------------------------------------------|
D|---------------------------------------------------------------------|
A|---------------------------------------------------------------------|
E|---------------------------------------------------------------------|


E|---------------------------------------------------------------------|
B|-------------13-15-16---15-13---------15----17b19-----16-18-18b20~---|
G|----------12------------------13~--14----14--------15----------------|
D|----12-14------------------------------------------------------------|
A|-15------------------------------------------------------------------|
E|---------------------------------------------------------------------|

   T        T        T        T       T       T
E|-12p10p8—-14p10p8—-12p10p8—14p10p8--12p10p8—14p10p8------------------|
B|---------------------------------------------------------------------|
G|---------------------------------------------------------------------|
D|---------------------------------------------------------------------|
A|---------------------------------------------------------------------|
E|---------------------------------------------------------------------|

   T        T        T        T       T        T
E|16p11p8—-18p11p8—-20p11p8—18p11p8--16p11p8—-16p11p8------------------|
B|---------------------------------------------------------------------|
G|---------------------------------------------------------------------|
D|---------------------------------------------------------------------|
A|---------------------------------------------------------------------|
E|---------------------------------------------------------------------|

  T         T         T        T         T         T
E|17p14p10—-15p14p10—-17p14p10—20p14p10--22p14p10—-20p14p10-------------|
B|----------------------------------------------------------------------|
G|----------------------------------------------------------------------|
D|----------------------------------------------------------------------|
A|----------------------------------------------------------------------|
E|----------------------------------------------------------------------|

E|-20h22p20-18-20-18-17------------------------------------------------|
B|----------------------20-19------------------------------------------|
G|----------------------------20-19-17-19-17---------------------------|
D|-------------------------------------------20-18-20------------------|
A|---------------------------------------------------------------------|
E|---------------------------------------------------------------------|

E|----------------------------------------------------------------------|
B|----------------------------------------------------------------------|
G|--------------------------------9-------------------------------------|
D|------8-9-8----8-9-11-12-11-9-8---12-11-9-12-11-9-8-9-8-11-9-8----8---|
A|-9-10-------10-------------------------------------------------10-----|
E|----------------------------------------------------------------------|

E|----------------------------------------------------------------------|
B|----------------------------------------------------------------------|
G|---------------------------------------9--9---------------------------|
D|------------------------------------------------6--6------------------|
A|-7-9-10-9~----------------------------/7--7----/7--7------------------|
E|---------------------------------------------0-------0----------------|

E|----------------------------------------------------------------------|
B|----------------------------------------------------------------------|
G|--------------------------------9-------------------------------------|
D|------8-9-8----8-9-11-12-11-9-8---12-11-9-12-11-9-8-9-8-11-9-8----8---|
A|-9-10-------10-------------------------------------------------10-----|
E|----------------------------------------------------------------------|

E|---------------------------------------------------------------------|
B|---------------------------------------------------------------------|
G|-------------------------------------------Keyboard Fill-------------|
D|---------------------------------------------------------------------|
A|-7-9-10-9~------------------------------2--2----2--2-----------------|
E|----------------------------------------0--0----0--0-----------------|


E|----------------------------------------12----------------------------|
B|-------11-12-11----11-12-14-15-14-12-11----15-14-13-15-14-12-11-12-11-|
G|-11-12----------12----------------------------------------------------|
D|----------------------------------------------------------------------|
A|----------------------------------------------------------------------|
E|----------------------------------------------------------------------|

E|-----------------------------16p13h16p13-----------------13h16p13-----|
B|14-12-11----11--------------x-----------15p12h15p12----12--------12---|
G|---------12----9-11-12-11~-x-------------------------13------------13-|
D|----------------------------------------------------15----------------|
A|----------------------------------------------------------------------|
E|----------------------------------------------------------------------|

E|----------------------------------------12----------------------------|
B|-------11-12-11----11-12-14-15-14-12-11----15-14-13-15-14-12-11-12-11-|
G|-11-12----------12----------------------------------------------------|
D|----------------------------------------------------------------------|
A|----------------------------------------------------------------------|
E|----------------------------------------------------------------------|

E|----------------------------------------19---------------------------B|14-12-11----11--|
G|---------12-------11-12-11~-----------------/\-----------------------------------------|
D|---------------14--------------------------/--\----------------------------------------|
A|------------------------------------------/----\---------------------------------------|
E|-----------------------------------------/------\--------------------------------------|


E|----------------------------------------------------------------------|
B|----------------------------------------------------------------------|
G|10--9--10—10b12~---10--12--14—14b15~--15r14-12-12~--10-12-12b14-12-10-|
D|----------------------------------------------------------------------|
A|----------------------------------------------------------------------|
E|----------------------------------------------------------------------|

E|---------------10-12-13-12-10----------------------------------------|
B|/13-13~-----13-----------------13\10~---10-11-11b13—-11p10-----10----|
G|-----------------------------------------------------------12-----12-|
D|---------10----------------------------------------------------------|
A|---------------------------------------------------------------------|
E|---------------------------------------------------------------------|


E|----------------------------------------12b14-------------r12--------|
B|------------------------12--10--9------------------------------------|
G|/11~-------12—12b14~---------------9-9-------------------------------|
D|---------------------------------------------------------------------|
A|---------------------------------------------------------------------|
E|---------------------------------------------------------------------|


E|---------------------------------------------------------------------|
B|-----------------------------------15-15b17~-------------------------|
G|------14-15-15b17--14----14--16-17-----------------------------------|
D|10/15-----------------17---------------------------------------------|
A|---------------------------------------------------------------------|
E|---------------------------------------------------------------------|

                                                     T    T
E|----------------------------------------------------------------------|
B|--------------14b15r14--12---------------------------b----r-----------|
G|14b16---14-12---------------14-\9---7-9-9b11-9b11~-14p9-14p9-11-11----|
D|-------------------------------------------------------------------12-|
A|----------------------------------------------------------------------|
E|----------------------------------------------------------------------|


E|-12------------------------------------------------------------------|
B|x---12---------------------------------------------------14-15-17-14-|
G|---------------------------11-------11-12----11-12-14-16-------------|
D|---------11-12-14-11-12-14----12-14-------14-------------------------|
A|------14-------------------------------------------------------------|
E|---------------------------------------------------------------------|

           T     T     T     T     T     T     T     T     T
E|------14-19p14h19p14h19p14h17p14h17p14h17p14h19p14h19p14h19p14h-|
B|15-17-----------------------------------------------------------|
G|----------------------------------------------------------------|
D|----------------------------------------------------------------|
A|----------------------------------------------------------------|
E|----------------------------------------------------------------|

  T     T     T     T     T     T     T     T     T     T     T     T
E|17p14h17p14h17p14h21p14h21p14h21p14h19p14h19p14h19p14h21p14h21p14h21p
B|---------------------------------------------------------------------|
G|---------------------------------------------------------------------|
D|---------------------------------------------------------------------|
A|---------------------------------------------------------------------|
E|---------------------------------------------------------------------|

     T     T     T
E|14h22p14h22p14h22p14h—----22b24~~~-----------------------------------|
B|---------------------------------------------------------------------|
G|---------------------------------------------------------------------|
D|---------------------------------------------------------------------|
A|---------------------------------------------------------------------|
E|---------------------------------------------------------------------|

Chorus

G5                  Em9              Bm7                A/F#
E|---------------------------------------------------------------------|
B|--------------------------------------3------------------------------|
G|--------------------------------------2------------------2-----------|
D|-5-------------------4----------------4------------------2-----------|
A|-5-------------------2----------------2------------------0-----------|
E|-3-------------------0-----------------------------------2-----------|


E|---------------------------------------------------------------------|
B|---------------------------------------------------------------------|
G|--------------------------------------4------------------6-----------|
D|-5-------------------4----------------4------------------6-----------|
A|-5-------------------2----------------2------------------4-----------|
E|-3-------------------0-----------------------------------------------|


E|----------------------------------------------------------------------|
B|-----------------------------------3-----3-----3----------------------|
G|-----------------------------------2-----2-----2------2-----2-----2---|
D|-5-----5-----5----4-----4-----4----4-4-4-4-4-4-4-4----2-----2-----2---|
A|-5-5-5-5-5-5-5-5--2-2-2-2-2-2-2-2--2-2-2-2-2-2-2-2----0-----0-----0---|
E|-3-3-3-3-3-3-3-3--0-0-0-0-0-0-0-0---------------------2-2-2-2-2-2-2-2-|


E|---------------------------------------------------------------------|
B|---------------------------------------------------------------------|
G|----------------------------------------4-----4-----3-------2--------|
D|-5-----5-----5----4-----4-----4---------4-----4-----3-------2--------|
A|-5-5-5-5-5-5-5-5--2-2-2-2-2-2-2-2-------2-----2-----1-------0--------|
E|-3-3-3-3-3-3-3-3--0-0-0-0-0-0-0-0------------------------------------|


E|----------------------------------------------------------------------|
B|-----------------------------------3-----3-----3----------------------|
G|-----------------------------------2-----2-----2------2-----2-----2---|
D|-5-----5-----5----4-----4-----4----4-4-4-4-4-4-4-4----2-----2-----2---|
A|-5-5-5-5-5-5-5-5--2-2-2-2-2-2-2-2--2-2-2-2-2-2-2-2----0-----0-----0---|
E|-3-3-3-3-3-3-3-3--0-0-0-0-0-0-0-0---------------------2-2-2-2-2-2-2-2-|


E|-------------------------------------------0------------------0------|
B|-------------------------------------------3------------------3------|
G|------------------2-----2-----2--------------------------------------|
D|-5-----5-----5----2-2-2-2-2-2-2----2----------------4----------------|
A|-5-5-5-5-5-5-5-5--0-0-0-0-0-0-0-0--2----------------4----------------|
E|-3-3-3-3-3-3-3-3-------------------0----------------2----------------|


E|----------0----------------------------------------------------------|
B|----------0---------3------------------------------------------------|
G|--------------------2------------------------------------------------|
D|-5------------------2------------------------------------------------|
A|-5------------------0------------------------------------------------|
E|-3-------------------------------------------------------------------|


E|---------------------------------------------------------------------|
B|---------------------------------------------------------------------|
G|-4-------------------------------------------------------------------|
D|-4-------------------------------------------------------------------|
A|-2-------------------------------------------------------------------|
E|---------------------------------------------------------------------|


| /  slide up
| \  slide down
| h  hammer-on
| p  pull-off
| ~  vibrato
| +  harmonic
| x  Mute note
===============================================================================
comments
We did not receive enough feedback on this tab! Please rate:
print report bad tab
1 2 3 4 5
1 comment total.
0 reply
The Buttmonkey wrote on February 25 2011, 02:36 pm

Close in most places, but if you listen and go by the tab you can easily tell what's actually played in most places.

Also, the part labeled riff 4 is actually played like this:


e ---------------------------------
B -0-2-4-0-7-0-6-0-4-0-0-2-0-2-4---

B -0-6-7-0-11-0-7-0-6-0-0-4-0-4-6--


Then the same on the G string.

Based on a video of Jorn playing this live.

I want to post or [tab]
guest
You may want to rate the tab now too:
select rating
Please do not post tabs as comments. Select "correction" instead!