Oops, an error
Loading. Please wait.

Through Osiris Eyes Bass Tab

ver1
ver1

Whole song

Interactive

More versions @911Tabs.com
401 views 3 this week
no commentswrite comment
1 2 3 4 5
please rate
Autoscroll
+/-
esc
set tempo
stop
Contributor
Hey! There's an official Ultimate Guitar app which is ideal
for learning songs when you're away from computer. Get the app
WARNING: You are trying to view
                                    content from Ultimate-Guitar.com
                                    in an unauthorized application,
                                    which is prohibited.

                                    Please use an official Ultimate
                                    Guitar Tabs application for iPhone,
                                    iPad or Android to access legitimate
                                    chords, guitar, bass, and drum tabs
                                    from Ultimate-Guitar.com database.

                                    Type "ultimate guitar tabs" in Apple
                                    App Store's or Android Market's
                                    search to find the application.
#----------------------------------PLEASE NOTE---------------------------------#
#This file is the author's own work and represents their interpretation of the #
#song. You may only use this file for private study, scholarship, or research. #
#------------------------------------------------------------------------------#

THROUGH OSIRIS' EYES (Bassline)
As recorded by Pagan's Mind
(From the 2002 Album CELESTIAL ENTRANCE)

Transcribed by Cody Simons
	

Words and Music by Pagan's Mind
Arranged by Pagan's Mind

Gtr I (B E A D G) - 'Bass Guitar'

 Intro - 0:00
  Q=175
 9/4
  Gtr I
  H     Q  Q  Q  Q  Q  Q  Q    Q  Q  Q  Q  Q  Q  Q  E E E E
|----------------------------|------------------------------|
|----------------------------|------------------------------|
|-3\-------------------------|------------------------------|
|----------------------------|------------------------4-4-4-|
|----------------------------|------------------------------|


   Keyboard Solo - 0:06
    E E E q  E E E q  E E E q  E E E   E E E q  E E E q  E E E q  E E E
||-----------------------------------|------------------------------------||
||o----------------------------------|-----------------------------------o||
||--3-3-3-3--3-3-3-3--3-3-3-3--3-3-3-|-3-3-3-3--3-3-3-3--3-3-3-3--3-3-3---||
||o----------------------------------|-----------------------------------o||
||-----------------------------------|------------------------------------||


  E E E q  E E E q  E E E q  E E E   E E E q  E E E q  E E E q  E E E
|----------------------------------|------------------------------------|
|----------------------------------|------------------------------------|
|----------------------------------|------------------------------------|
|----------------------------------|------------------------------------|
|-3-3-3-3--3-3-3-3--3-3-3-3--3-3-3-|-3-3-3-3--3-3-3-3--3-3-3-3--3-3-3---|


                                    8/4
  E E E q  E E E q  E E E q  E E E   E E E q  E E E q  E E E Q  +E
|----------------------------------|--------------------------------|
|----------------------------------|--------------------------------|
|-3-3-3-3--3-3-3-3--3-3-3-3--3-3-3-|-3-3-3-3--3-3-3-3--3-3-3-3--(3)-|
|----------------------------------|--------------------------------|
|----------------------------------|--------------------------------|


 Verse 1 - 0:30
 8/4
  E E E q  E E E q  E E E q.     E E E q  E E E q  E E E Q.
|------------------------------|-------------------------------|
|------------------------------|-------------------------------|
|-5-5-5-5--5-5-5-5--5-5-5-5----|-5-5-5-5--5-5-5-5--5-5-5-5\----|
|------------------------------|-------------------------------|
|------------------------------|-------------------------------|


  E E E q  E E E q  E E E q.     E E E q  E E E q  E E Q  Q
|------------------------------|-----------------------------|
|------------------------------|-----------------------------|
|------------------------------|-----------------------------|
|-0-0-0-0--0-0-0-0--0-0-0-0----|-0-0-0-0--0-0-0-0--0-0-0--0--|
|------------------------------|-----------------------------|


  E E E q  E E E q  E E E q.     E E E q  E E E q  E E E Q.
|------------------------------|------------------------------|
|------------------------------|------------------------------|
|-5-5-5-5--5-5-5-5--5-5-5-5----|-5-5-5-5--5-5-5-5--5-5-5-5\---|
|------------------------------|------------------------------|
|------------------------------|------------------------------|


  E E E q  E E E q  E E E q.     E E E q  E E E q  E E E Q  +E
|------------------------------|--------------------------------|
|------------------------------|--------------------------------|
|------------------------------|-------------------------8--(8)-|
|-0-0-0-0--0-0-0-0--0-0-0-0----|-0-0-0-0--0-0-0-0--0-0-0--------|
|------------------------------|--------------------------------|


 Bridge 1 - 0:52
 9/4
  E E E q  E E E q  E E E q  E E E   E E E q  E E E q  E E E q  E E E
|----------------------------------|----------------------------------|
|----------------------------------|----------------------------------|
|-5-5-5-5--4-4-4-4--3-3-3-3--2-2-2-|-5-5-5-5--4-4-4-4--3-3-3-3--2-2-2-|
|----------------------------------|----------------------------------|
|----------------------------------|----------------------------------|


 8/4                               10/4
  E E E E E E E E E E E E E E E E   E E E E E E E E E E E E E E E E E E Q
|---------------------------------|-----------------------------------------|
|---------------------------------|-----------------------------------------|
|---------------------------------|-----------------------------------------|
|---------------------------------|---------------------------------2-2-2---|
|-3-3-3-3-2-2-2-2-1-1-1-1-0-0-0-0-|-3-3-3-3-2-2-2-2-1-1-1-1-0-0-0-0---------|


                                    1.
   8/4
    E E E Q  E E E E Q  E E E E E   +E  E E E E E E E E E E E E E E E
||--------------------------------|------------------------------------||
||o-------------------------------|-----------------------------------o||
||--------------------------------|-------------------0-0-2-2S4-4------||
||o-2-2-0-2--0-2-2-0-2--0-2-2-0-2-|-(2)-0-2-2-0-2-2-0-------------0-0-o||
||--------------------------------|------------------------------------||


  2.
  E E E E E E E E E E E E E E E E
|----------------------------------|
|----------------------------------|
|----------------------------------|
|-3-3-3-3-3-3-3-3-5-5-5-5-5-5-5-5--|
|----------------------------------|


 Chorus - 1:15
 7/4                  8/4
  W        Q.   Q.     W        +Q   Q.   Q.
|--------------------|-------------------------|
|--------------------|-------------------------|
|-2--------0----0----|-------------------------|
|--------------------|-3--------(3)--2----2----|
|--------------------|-------------------------|


                          9/4
  W        E E Q.   Q.     W        E E  H    H
|------------------------|-------------------------|
|------------------------|-------------------------|
|------------------------|--------------/1---------|
|-0--------0-2-3----3----|-2--------0-2-------2----|
|------------------------|-------------------------|


 7/4                     8/4                       9/4
  H.      E E Q.   Q.     W        +Q   Q.   Q.     W        E E H    H
|-----------------------|-------------------------|-------------------------|
|-----------------------|-------------------------|-------------------------|
|-2---------2-0----0----|-------------------------|-------------------------|
|---------2-------------|-3--------(3)--2----2----|-0--------0-2-3----3\----|
|-----------------------|-------------------------|-------------------------|


 Approaching Riff - 1:33
 8/4
  E E E E E E E E E E E E E E E E   E E E E E E E E E E E E E E E E
|---------------------------------|----------------------------------|
|---------------------------------|----------------------------------|
|---------------------------------|----------------------------------|
|-2-2-2-2-2-2-2-2-2-2-2-2-2-2-2-2-|-2-2-2-2-2-2-2-3-3-3-3-3-3-3-5-5--|
|---------------------------------|----------------------------------|


                                   10/4
  E E E E E E E E E E E E E E E E   E E E E E E E E E E E E E E E E H
|---------------------------------|--------------------------------------|
|---------------------------------|-----------------------------2-5------|
|-2-2-2-2-2-2-2-2-2-2-2-2-2-2-2-2-|-3-3-3-3-3-3-3-3-3-3-3-3-3-5----------|
|---------------------------------|--------------------------------------|
|---------------------------------|--------------------------------------|


 Verse 2 - 1:45
 8/4
  E E E q  E E E q  E E E q.     E E E q  E E E q  E E E Q.
|------------------------------|-------------------------------|
|------------------------------|-------------------------------|
|-5-5-5-5--5-5-5-5--5-5-5-5----|-5-5-5-5--5-5-5-5--5-5-5-5\----|
|------------------------------|-------------------------------|
|------------------------------|-------------------------------|


  E E E q  E E E q  E E E q.     E E E q  E E E q  E E Q  Q
|------------------------------|-----------------------------|
|------------------------------|-----------------------------|
|------------------------------|-----------------------------|
|-0-0-0-0--0-0-0-0--0-0-0-0----|-0-0-0-0--0-0-0-0--0-0-0--0--|
|------------------------------|-----------------------------|


  E E E q  E E E q  E E E q.     E E E q  E E E q  E E E Q.
|------------------------------|------------------------------|
|------------------------------|------------------------------|
|-5-5-5-5--5-5-5-5--5-5-5-5----|-5-5-5-5--5-5-5-5--5-5-5-5\---|
|------------------------------|------------------------------|
|------------------------------|------------------------------|


  E E E q  E E E q  E E E q.     E E E q  E E E q  E E E Q  +E
|------------------------------|--------------------------------|
|------------------------------|--------------------------------|
|------------------------------|-------------------------8--(8)-|
|-0-0-0-0--0-0-0-0--0-0-0-0----|-0-0-0-0--0-0-0-0--0-0-0--------|
|------------------------------|--------------------------------|


 Bridge 2 - 2:06
 9/4
  E E E q  E E E q  E E E q  E E E   E E E q  E E E q  E E E q  E E E
|----------------------------------|----------------------------------|
|----------------------------------|----------------------------------|
|-5-5-5-5--4-4-4-4--3-3-3-3--2-2-2-|-5-5-5-5--4-4-4-4--3-3-3-3--2-2-2-|
|----------------------------------|----------------------------------|
|----------------------------------|----------------------------------|


 9/4
  E. E. E. E. E. E. E. E. E. E. E. E.   E. E. E. E. E. E. E. E. E. E. E. E.
|-------------------------------------|-------------------------------------|
|-------------------------------------|-------------------------------------|
|-------------------------------------|-------------------------------------|
|-------------------------------------|-------------------------------------|
|-3--3--3--2--2--2--1--1--1--0--0--0--|-3--3--3--2--2--2--1--1--1--0--0--0--|


 Chorus - 2:18
 7/4                  8/4
  W        Q.   Q.     W        +Q   Q.   Q.
|--------------------|-------------------------|
|--------------------|-------------------------|
|-2--------0----0----|-------------------------|
|--------------------|-3--------(3)--2----2----|
|--------------------|-------------------------|


                          9/4
  W        E E Q.   Q.     W        E E  H    H
|------------------------|-------------------------|
|------------------------|-------------------------|
|------------------------|--------------/1---------|
|-0--------0-2-3----3----|-2--------0-2-------2----|
|------------------------|-------------------------|


 7/4                     8/4                        9/4
  H    Q  E E Q.   Q.     H.      Q  E E Q.   Q.     W        E E Q  Q  H
|-----------------------|--------------------------|--------------------------|
|-----------------------|--------------------------|--------------------------|
|-2-------2---0----0----|---------5----------------|--------------------5\----|
|------2----2-----------|-3------------3-2----2----|-0--------0-2-3--3--------|
|-----------------------|------------3-------------|--------------------------|


 Approaching Riff - 2:36
 8/4
  E E E E E E E E E E E E E E E E   E E E E E E E E E E E E E E E E
|---------------------------------|----------------------------------|
|---------------------------------|----------------------------------|
|---------------------------------|----------------------------------|
|-2-2-2-2-2-2-2-2-2-2-2-2-2-2-2-2-|-0-0-0-0-0-0-0-0-0-0-0-0-0-0-0-0--|
|---------------------------------|----------------------------------|


  E E E E E E E E E E E E E E E E   E E E E E E E E E E E E E E E E
|---------------------------------|---------------------------------|
|---------------------------------|---------------------------------|
|---------------------------------|---------------------------------|
|---------------------------------|-----------------------------3-3-|
|-3-3-3-3-3-3-3-3-3-3-3-3-3-3-3-3-|-1-1-1-1-1-1-1-1-1-1-1-1-3-3-----|


  S S E E E E E E E E E E E E E E E   S S E E E E E E E E E E E E E E E
|-----------------------------------|-----------------------------------|
|-----------------------------------|-----------------------------------|
|-----------------------------------|-----------------------------------|
|-2-2-2-2-2-2-2-2-2-2-2-2-2-2-2-2-2-|-0-0-0-0-0-0-0-0-0-0-0-0-0-0-0-0-0-|
|-----------------------------------|-----------------------------------|


  S S E E E E E E E E E E E E E E E
|-----------------------------------|
|-----------------------------------|
|-----------------------------------|
|-----------------------------------|
|-3-3-3-3-3-3-3-3-3-3-3-3-3-3-3-3-3-|


 Guitar Solo - 2:55
  Q  Q  Q  Q  Q  Q  Q  Q    Q  Q  Q  Q  Q  Q  Q  Q
|-------------------------|-------------------------|
|-------------------------|-------------------------|
|-3--3--------------------|-3--3--------------------|
|-------------------------|-------------------------|
|-------------------------|-------------------------|


  Q  Q  Q  Q  Q  Q  Q  Q    Q  Q   Q  Q  Q  Q  E Q.
|-------------------------|---------------------------|
|-------------------------|---------------------------|
|-7--7--------------------|-7--7\----------------5----|
|-------------------------|---------------------------|
|-------------------------|---------------------------|


  Q  Q  Q  Q  Q  Q  Q  Q    Q  Q  Q  Q  Q  Q  Q  Q
|-------------------------|-------------------------|
|-------------------------|-------------------------|
|-3--3--------------------|-3--3--------------------|
|-------------------------|-------------------------|
|-------------------------|-------------------------|


  Q  Q  Q  Q  Q  Q  Q  Q    Q  Q  Q  Q  Q  Q  E Q.
|-------------------------|--------------------------|
|-------------------------|--------------------------|
|-------------------------|--------------------------|
|-0--0--------------------|-0--0---------------------|
|-------------------------|---------------------3----|


  Q  Q  Q  Q  Q  Q  Q  Q    Q  Q  Q  Q  Q  Q  Q  Q
|-------------------------|-------------------------|
|-------------------------|-------------------------|
|-------------------------|-------------------------|
|-------------------------|-------------------------|
|-1--1--------1--1--------|-1--1--------1--1--------|


  Q  Q  Q  Q  Q  Q  Q  Q    Q  Q  Q  Q  Q  Q  Q  E E
|-------------------------|--------------------------|
|-------------------------|--------------------------|
|-------------------------|------------------------2-|
|-------------------------|----------------0--2--3---|
|-2--2--------2--2--------|-2--2--------2------------|


  Q  Q  Q  Q  Q  Q  Q  Q    Q  Q  Q  Q  Q  Q  Q  Q
|-------------------------|-------------------------|
|-------------------------|-------------------------|
|-3--3--------3--3--------|-3--3--------3--3--------|
|-------------------------|-------------------------|
|-------------------------|-------------------------|


  Q  Q  Q  Q  Q  Q  Q  Q    Q  Q  Q  E E q  Q  E Q.
|-------------------------|---------------------------|
|-------------------------|---------------------------|
|-4--4--------4--4--------|-4--4-------2-4--4--x-2----|
|-------------------------|---------------------------|
|-------------------------|---------------------------|


 Approaching Riff - 3:37
  E E E E E E E E E E E E E E E E   E E E E E E E E E E E E E E E E
|---------------------------------|---------------------------------|
|---------------------------------|-----------------------------5h7-|
|-0-0-0-0-0-0-0-0-0-0-0-0-0-0-0-0-|-0-0-0-0-0-0-0-0-0-0-0-0-0-0-----|
|---------------------------------|---------------------------------|
|---------------------------------|---------------------------------|


  E E E E E E E E E E E E H      E E E E S S E E S S E E E E E E E E
|------------------------------|-----6-7-6h7p6---6h7p6---6-7-9-7-6---|
|-----7---5---7---8---7---5----|-7-8-----------8-------8-----------8-|
|-0-0---0---0---0---0---0------|-------------------------------------|
|------------------------------|-------------------------------------|
|------------------------------|-------------------------------------|


                              Q=150
                              |-3-|
  E S S E E E E E E E S S E E q q q
|------------------------------------|
|-7-6h7p6---6------------------------|
|---------8---8-7-5-4-4h5p4---4------|
|---------------------------6---6-5--|
|------------------------------------|


 7/8         8/4
  H    Q.     W        +W
|-----------|-----------------|
|-----------|-----------------|
|-----------|-----------------|
|-3---------|-----------------|
|-----------|-4--------(4)----|


 Bass Groove - 3:55
  Q=165
 8/4
  q  q  q  q  q  q  q  q    q  q  q  q  q  q  q  q
|-------------------------|---------------------------|
|-------------------------|---------------------------|
|-------------------------|---------------------------|
|-------------------------|---------------------------|
|-3--3--3--3--3--3--3--3--|-3--3--3--3--3--3--3--3S===|


  q  q  q  q  q  q  q  q    q  q  q  q  q  q  Q  E E
|-------------------------|--------------------------|
|-------------------------|--------------------------|
|-------------------------|--------------------------|
|-------------------------|--------------------------|
|-5--5--5--5--5--5--5--5--|-5--5--5--5--5--5--7--5S2-|


  q  q  q  q  q  q  q  q    q  q  q  q  q  q  e E e E
|-------------------------|---------------------------|
|-------------------------|---------------------------|
|-------------------------|---------------------------|
|-------------------------|-----------------------2S5-|
|-3--3--3--3--3--3--3--3--|-3--3--3--3--3--3--3S5-----|


  E E q  q  q  q  q  q  q    q  q  q  q  q  q  q  q
|--------------------------|--------------------------|
|--------------------------|--------------------------|
|--------------------------|--------------------------|
|-4p0----------------------|--------------------------|
|-----5--5--5--5--5--5--5--|-5--5--5--5--5--5--5--5\--|


 Verse 3 - 4:16
  Q  E E Q  E E Q  E E Q  E E   Q  E E Q  E E Q  E E Q  E E
|-----------------------------|-----------------------------|
|-----------------------------|-----------------------------|
|-----------------------------|-----------------------------|
|-----------------------------|-----------------------------|
|----3-3----3-3----3-3----3-3-|----3-3----3-3----3-3----3-3-|


  Q  E E Q  E E Q  E E Q  E E   Q  E E Q  E E Q  E E E E E E
|-----------------------------|------------------------------|
|-----------------------------|------------------------------|
|-----------------------------|------------------------8-8-8-|
|-----------------------------|------------------------------|
|----5-5----5-5----5-5----5-5-|----5-5----5-5----5-5---------|


 8/4
  E E E q  E E E q  E E E q.     E E E q  E E E q  E E E Q.
|------------------------------|-------------------------------|
|------------------------------|-------------------------------|
|-5-5-5-5--5-5-5-5--5-5-5-5----|-5-5-5-5--5-5-5-5--5-5-5-5\----|
|------------------------------|-------------------------------|
|------------------------------|-------------------------------|


  E E E q  E E E q  E E E q.     E E E q  E E E q  E E E Q  +E
|------------------------------|--------------------------------|
|------------------------------|--------------------------------|
|------------------------------|-------------------------8--(8)-|
|-0-0-0-0--0-0-0-0--0-0-0-0----|-0-0-0-0--0-0-0-0--0-0-0--------|
|------------------------------|--------------------------------|


 Bridge 1 - 4:36
 9/4
  E E E q  E E E q  E E E q  E E E   E E E q  E E E q  E E E q  E E E
|----------------------------------|----------------------------------|
|----------------------------------|----------------------------------|
|-5-5-5-5--4-4-4-4--3-3-3-3--2-2-2-|-5-5-5-5--4-4-4-4--3-3-3-3--2-2-2-|
|----------------------------------|----------------------------------|
|----------------------------------|----------------------------------|


 8/4                               10/4
  E E E E E E E E E E E E E E E E   E E E E E E E E E E E E E E E E E E Q
|---------------------------------|-----------------------------------------|
|---------------------------------|-----------------------------------------|
|---------------------------------|-----------------------------------------|
|---------------------------------|---------------------------------2-2-2---|
|-3-3-3-3-2-2-2-2-1-1-1-1-0-0-0-0-|-3-3-3-3-2-2-2-2-1-1-1-1-0-0-0-0---------|


                                    1.
   8/4
    E E E Q  E E E E Q  E E E E E   +E  E E E E E E E E E E E E E E E
||--------------------------------|------------------------------------||
||o-------------------------------|-----------------------------------o||
||--------------------------------|-------------------0-0-2-2S4-4------||
||o-2-2-0-2--0-2-2-0-2--0-2-2-0-2-|-(2)-0-2-2-0-2-2-0-------------0-0-o||
||--------------------------------|------------------------------------||


  2.
  E E E E E E E E E E E E E E E E
|----------------------------------|
|----------------------------------|
|----------------------------------|
|-3-3-3-3-3-3-3-3-5-5-5-5-5-5-3-5--|
|----------------------------------|


   Chorus - 4:59
   7/4                     8/4
    H    Q  E E Q.   Q.     W        +Q   Q.   Q.
||------------------------|-------------------------|
||o-----------------------|-------------------------|
||--2-------2---0----0----|-------------------------|
||o------2----2-----------|-3--------(3)--2----2----|
||------------------------|-------------------------|


                          9/4
  W        E E Q.   Q.     W        E E H    H     3x
|------------------------|-------------------------||
|------------------------|------------------------o||
|------------------------|--------------1----------||
|-0--------0-2-3----3----|-2--------0-2------2----o||
|------------------------|-------------------------||


 7/4                     8/4
  H    Q  E E q.   q.     W        E E Q  E Q  E
|-----------------------|------------------------|
|-----------------------|------------5-4--5-4--0-|
|-2---------2-0----0----|----------5-------------|
|---------2-------------|-3----------------------|
|------0----------------|------------------------|


 9/4
  H.      E E E E Q  Q  E E E E
|----------------------------------|
|-2-------2-0----------------------|
|-------------2-0-------5----------|
|-----------------3--3----3-3S5----|
|----------------------------------|


 Approaching Riff - 5:39
 8/4
  E E E E E E E E E E E E E E E E   E E E E E E E E E E E E E E E E
|---------------------------------|----------------------------------|
|---------------------------------|----------------------------------|
|---------------------------------|----------------------------------|
|-2-2-2-2-2-2-2-2-2-2-2-2-2-2-2-2-|-0-0-0-0-0-0-0-0-0-0-0-0-0-0-0-0--|
|---------------------------------|----------------------------------|


  E E E E E E E E E E E E E E E E   E E E E E E E E E E E E E E E E
|---------------------------------|---------------------------------|
|---------------------------------|---------------------------------|
|---------------------------------|---------------------------------|
|---------------------------------|-----------------------------3-3-|
|-3-3-3-3-3-3-3-3-3-3-3-3-3-3-3-3-|-1-1-1-1-1-1-1-1-1-1-1-1-3-3-----|


  S S E E E E E E E E E E E E E E E   S S E E E E E E E E E E E E E E E
|-----------------------------------|-----------------------------------|
|-----------------------------------|-----------------------------------|
|-----------------------------------|-----------------------------------|
|-2-2-2-2-2-2-2-2-2-2-2-2-2-2-2-2-2-|-0-0-0-0-0-0-0-0-0-0-0-0-0-0-0-0-0-|
|-----------------------------------|-----------------------------------|


                                     10/4
  S S E E E E E E E E E E E E E E E   E  E E E E E E E E E E E E E E E Q  Q
|-----------------------------------|------------------------------------------|
|-----------------------------------|------------------------------------------|
|-----------------------------------|---10-----9-----8-----7-------------------|
|-----------------------------------|-8----8-7---7-6---6-5---5-4-3-2-1---------|
|-3-3-3-3-3-3-3-3-3-3-3-3-3-3-3-3-3-|------------------------------------------|


 4/4
  W          +W           Q  Q   Q  Q
|----------|------------|---------------*|
|----------|------------|---------------*|
|----------|------------|---------------*|
|-3--------|-(3)--------|-2--2\---------*|
|----------|------------|---------------*|



Duration Legend
---------------
W - whole; H - half; Q - quarter; E - 8th; S - 16th; T - 32nd; X - 64th; a - acciaccatura
+ - note tied to previous; . - note dotted; .. - note double dotted
Uncapitalized letters represent notes that are staccato (1/2 duration)
Irregular groupings are notated above the duration line
Duration letters will always appear directly above the note/fret number it represents the
duration for.  Duration letters with no fret number below them represent rests.  Multi-
bar rests are notated in the form Wxn, where n is the number of bars to rest for.  Low
melody durations appear below the staff

Tablature Legend
----------------
 h   - hammer-on
 p   - pull-off
 b   - bend
 pb  - pre-bend
 r   - bend release (if no number after the r, then release immediately)
 /\  - slide into or out of (from/to "nowhere")
 s   - legato slide
 S   - shift slide
 - natural harmonic
[n]  - artificial harmonic
n(n) - tapped harmonic
 ~   - vibrato
 tr  - trill
 T   - tap
 TP  - trem. picking
 PM  - palm muting
\n/  - tremolo bar dip; n = amount to dip
 \n  - tremolo bar down
 n/  - tremolo bar up
/n\  - tremolo bar inverted dip
 =   - hold bend; also acts as connecting device for hammers/pulls
 <> - volume swell (louder/softer)
 x   - on rhythm slash represents muted slash
 o   - on rhythm slash represents single note slash

Misc Legend
-----------
 |  - bar
||  - double bar
||o - repeat start
o|| - repeat end
*|  - double bar (ending)
 :  - bar (freetime)
 $  - Segno
 &  - Coda
Tempo markers -  = BPM(8/16=s8/s16), where s8 = swing 8ths, s16 = swing 16ths

comments
We did not receive enough feedback on this tab! Please rate:
print report bad tab
1 2 3 4 5
I want to post or [tab]
guest
You may want to rate the tab now too:
select rating
Please do not post tabs as comments. Select "correction" instead!