Oops, an error
Loading. Please wait.

Shining In The Light Tab

1,934 views 1 this week
1 commentread comment
1 2 3 4 5
worth learning
x 2
Autoscroll
+/-
esc
set tempo
stop
Contributor
WARNING: You are trying to view
                                    content from Ultimate-Guitar.com
                                    in an unauthorized application,
                                    which is prohibited.

                                    Please use an official Ultimate
                                    Guitar Tabs application for iPhone,
                                    iPad or Android to access legitimate
                                    chords, guitar, bass, and drum tabs
                                    from Ultimate-Guitar.com database.

                                    Type "ultimate guitar tabs" in Apple
                                    App Store's or Android Market's
                                    search to find the application.
Gtr I (E A D G B E) - 'Jimmy Page - Steel String Acoustic'
Gtr II (E A D G B E) - 'Jimmy Page - Clean electric'
Gtr III (E A D G B E) - 'Jimmy Page - Rhythm Gtr II w/dist'
Gtr IV (E A D G B E) - 'Paul Thompson - Rhythm w/dist'
Gtr V (E A D G B E) - 'Jimmy Page - Clean electric'

Intro
  Q=104
 4/4
  Gtr I
  a E. a S +E  a E +S  E. E E   H    +E  S S S S E
|-----------------------------|--------------------||
|-----------------------------|-2----(2)---------2-||
|--------7-(7)---7-(7)-7----7-|-2----(2)-2-2-----2-||
|---7----7-(7)-7h9-(9)-7--7-7-|-2----(2)-2-2-4-2-2-||
|-7h9--7h9-(9)---7-(7)-7--9-7-|-0----(0)-0-0-0-0-0-||
|---0---------------------0-0-|----------0-0-----0-||


    Gtr II
    S S S S S E   S +E.     S  S  S e   S S S S  S  E   S +S  S S S +S  S e
||------------------------------------|-------0-------------------0-(0)--------|
||o-----------7---7-(7)-----7--7--7---|-------------0---0-(0)-0---0-(0)--------|
||----7-7-7-7-7---7-(7)-----7--7--7-7-|---6------6------------6---------6------|
||----7-7-7-7-7---7-(7)-------------7-|-7---7-------------------7---------7----|
||o---9-9-9-9-------------------------|-7---7-----------------------------7----|
||------------------------------------|----------------------------------------|
|-Rhy Fig 1A
|
|   Gtr I
|   S S S S S S S S +S  S S S +S  S e   S S S S +S  S S S +S  S S S +S  S S S
||----------------0-(0)-----0-(0)-----|-------0-(0)-----0-(0)-----0-(0)--------|
||o-------0-0-----0-(0)-----------0-3-|---0---------0---0-(0)-0---------0------|
||----2-------2---------2-----------2-|-2---2---------2---------2---------2-0--|
||------4-------4---------4-----------|-2--------------------------------------|
||o-----------------------------------|----------------------------------------|
||------------------------------------|----------------------------------------|
|-Rhy Fig 1


  S S S S S S S S S S S S E S S   S S S S S S S S S S S S S S E
|-------------------------------|-----------------------------------||
|-------------------------------|-----2-2-2-2-2-2---2---2---2-2/---o||
|---2-2-2-2-2-2-2---2---2-2-x-x-|---2-2-2-2-2-2-2---2---2---2-2/----||
|---2-2-2-2-2-2-2---2---2-2-x-x-|---2-2-2-2-2-2-2---2---2---2-2/----||
|---4-4-4-4-4-4-4---0---0-0-x-x-|---0-0-0-0-0-0-0---0---0---0------o||
|-------------------------------|-----------------------------------||
|                                                    end Rhy Fig 1A-|
|
| S S S S S S S S S S S S E S S   S S S S S S S S S S S S S S S  S
|-------------------------------|-------------0-------------0-------||
|-------------------------------|-----2-2-2-2-2-2---2---2-2---x--x-o||
|---2-2-2-2-2-2-2---2---2-2-x-x-|---2-2-2-2-2-2-2---2---2-2---x--x--||
|---2-2-2-2-2-2-2---2---2-2-x-x-|---2-2-2-2-2-2-2---2---2-2---x--x--||
|---4-4-4-4-4-4-4---0---0-0-x-x-|---0-0-0-0-0-0-0---0---0-0---x--x-o||
|-------------------------------|-----------------------------------||
                                                      end Rhy Fig 1-|

   Verses 1 + 2
||--
||o-
||-- Rhy Fig 1 x2
||--
||o-
||--


 Interlude
  E   S S +S  E   S +E.     S +S  E.
|-2-----0-(0)---------------0-(0)------|
|-----0-------0---0-(0)-----------0----|
|--------------------------------------|
|-4------------------------------------|
|--------------------------------------|
|--------------------------------------|
|-Rhy Fig 2A
|
| S S S S +S  S S S +S  S S S +S  S  E
|-------0-(0)---------------0-(0)------|
|-------0-(0)-0---0-(0)-----0-(0)------|
|---2-----------2-------2---------x----|
|-----4-------------------4-------x----|
|--------------------------------------|
|------------------------------------0-|
|-Rhy Fig 2


  E.     S +S  E   S +E.     S +S   S   E
|--------0-(0)---------------0-(0)---------|
|--------------0---0-(0)-------------------|
|----------------------------------13--13S=|
|------------------------------------------|
|----------------------------------11--11S=|
|-0----------------------------------------|
|
| S  S S S +S  S S S +S  S S S +S   E.
|--------0-(0)---------------0-(0)---------|
|----0---------0---0-(0)------------0------|
|------1---------1-------1-----------------|
|--------------------------0---------------|
|------------------------------------------|
|-0----------------------------------------|


  E. S +S  E   S +E.     S +E     E   E.     S +S  E   S +E.     S +S   S   E
|----0-(0)---------------0-(0)------|--------0-(0)---------------0-(0)--------|
|----------0---0-(0)----------------|--------------0---0-(0)------------------|
|-9-------------------------------9-|-11-------------------------------11--11-|
|-----------------------------------|-----------------------------------------|
|-7-------------------------------7-|-9---------------------------------9---9-|
|-----------------------------------|-----------------------------------------|
|
| E. S +S  S S S +S  S S S +S  E.     S  S S S +S  S S S +S  S S S +S   E.
|----0-(0)---------------0-(0)------|--------0-(0)---------------0-(0)--------|
|-3--------0---0-(0)-----------0----|--------------0---0-(0)------------0-----|
|-2----------2-------2--------------|----2-----------2-------2----------2-----|
|-2--------------------2------------|------4-------------------4--------------|
|-----------------------------------|-----------------------------------------|
|-----------------------------------|-----------------------------------------|


  E.     S +S  E   S +E.     S +S  S S  S
|--------0-(0)---------------0-(0)--------|
|--------------0---0-(0)------------------|
|-9--------------------------------9-9s13-|
|-----------------------------------------|
|-7--------------------------------7-7s11-|
|-----------------------------------------|
|
| S  S S S +S  S S S +S  S S S +S  S E
|--------0-(0)---------------0-(0)--------|
|--------0-(0)-0---0-(0)-----0-(0)--------|
|----2-----------2-------2---------x------|
|------2-------------------2-------x------|
|-----------------------------------------|
|------------------------------------0----|


  E.     S +S  E   S +E.     S  S   S   E   E. S +S  E   S +E.     S +E. E.
|--------0-(0)---------------0------------|----0-(0)---------------0--0------|
|--------------0---0-(0)------------------|----------0---0-(0)-----------0---|
|------------------------------13--13--13S|=9--------------------------------|
|-----------------------------------------|----------------------------------|
|------------------------------11--11--11S|=7--------------------------------|
|-0---------------------------------------|----------------------------------|
|
| S  S S S +S  S S S +S  S S S +S   E.      E. S +S  S S S +S  S S S +S  E.
|--------0-(0)---------------0-(0)--------|----0-(0)---------------0-(0)-----|
|----0---------0---0-(0)------------0-----|----------0---0-(0)-----------0---|
|------1---------1-------1----------------|-2----------2-------2-------------|
|--------------------------0--------------|-2--------------------2-----------|
|-----------------------------------------|----------------------------------|
|-0---------------------------------------|----------------------------------|


                                        1.
                                         D  A5/E  A5
                                       Gtr IV
   W                                     E. S +E  E H
                                         |  |  |  |
                                         /  /  /  /
   E.     S +S  E   S +S  E   S  S  E.   H          E S S S S E
|---------0-(0)---------------0--0-----|-------------------------||
|---------------0---0-(0)-0---------0--|------------------------o||
|-11-----------------------------------|--------------2-2-----2--||
|--------------------------------------|--------------2-2-----2--||
|--9-----------------------------------|--------------0-0-4-2-0-o||
|--------------------------------------|--------------0-0-0-0-0--||
|                       end Rhy Fig 2A-|
|
|
|  S  S S S +S  S S S +S  S S S +S  E.   E. S +E  E E S S S S E
|---------0-(0)---------------0-(0)----|-2-----------------------||
|---------------0---0-(0)-----------0--|-3----------------------o||
|-----2-----------2-------2---------2--|-2--2-(2)-2---2-2-----2--||
|-------4-------------------4----------|-0--2-(2)-2---2-2-----2--||
|--------------------------------------|----0-(0)-0---0-0-4-2-0-o||
|--------------------------------------|----0-(0)-----0-0-0-0-0--||
                         end Rhy Fig 2-|

  2.
  Q        E    S S +S  S Q         S S
|-----------------0-(0)-----------------|
|-3--------3------------3-3---------x-x-|
|-2--------2----2---------2---------x-x-|
|-0--------0--------------4---------x-x-|
|---------------------------------------|
|---------------------------------------|
|-Rhy Fig 3A
|
|
| S S S S +S  S S S +S  S S S +S  S E
|-------0-(0)---------------0-(0)-------|
|-------------0---0-(0)-----------3-----|
|---2-----------2-------2---------2-----|
|-----4-------------------4-------4-----|
|---------------------------------------|
|---------------------------------------|
|-Rhy Fig 3


  S S S S +S  S S S +S  S S S +E.     S
|-------0-(0)-----0-(0)-----0-(0)--------|
|---0---0-(0)-0---0-(0)-0---0-(0)-----0--|
|-----2---------2---------2--------------|
|----------------------------------------|
|----------------------------------------|
|----------------------------------------|
|                         end Rhy Fig 3A-|
|
|
| S S S S +S  S S S +S  S S S +S  S S S
|-------0-(0)-----0-(0)-----0-(0)--------|
|-------0-(0)-----0-(0)-----0-(0)--------|
|---2---------2---------2---------x-x-x--|
|-----2---------2---------2-------x-x-x--|
|----------------------------------------|
|----------------------------------------|
                           end Rhy Fig 3-|

	  Gtr I
      E
      E.     S  +E      E +S  E S S S S S
      |      |   |      |  |  | | | | | |
      /      /   /      /  /  / / / / / /
  Gtr III
   a  E.  a  S  +E   a  E  H
|-----------------------------------------|
|-11s12--11s12-(12)-11s12-----------------|
|-12s13--12s13-(13)-12s13-----------------|
|-13s14--13s14-(14)-13s14-----------------|
|-----------------------------------------|
|-----------------------------------------|
|
| Gtr IV
|  a  E.  a  S  +E   a  E +H
|-----------------------------------------|
|--8s=9---8s=9--(9)--8s=9-(9)-------------|
|--8s=9---8s=9--(9)--8s=9-(9)-------------|
|--8s=9---8s=9--(9)--8s=9-(9)-------------|
|--6s=7---6s=7--(7)--6s=7-(7)-------------|
|-----0------0--(0)-----0-(0)-------------|


    S  S S   S +S  S   E +S  E S S S S S
    |  | |   |  |  |   |  |  | | | | | |
    /  / /   /  /  /   /  /  / / / / / /
    W
|----------------------------------------||
|
| a E.     a S +E    a E +H
|----------------------------------------||
|-8s9------8s9-(9)---8s9-(9)-------------||
|-8s9------8s9-(9)---8s9-(9)-------------||
|-8s9------8s9-(9)---8s9-(9)-------------||
|-6s7------6s7-(7)---6s7-(7)-------------||
|---0--------0-(0)-----0-(0)-------------||


   Chorus
      E                             D  A     A/C#  A
                                   3/4
      E.   S +E    E +S  E S S E.   E. S +E  E +S  E.
      |    |  |    |  |  | | | |    |  |  |  |  |  |
      /    /  /    /  /  / / / /    /  /  /  /  /  /
    a E. a S +E  a E +H             E. S +E  E +S  E.
||--------------------------------|-2-----------------|
||o-8s9--8s9-(9)-8s9-(9)----------|-3--2-(2)-------2--|
||--8s9--8s9-(9)-8s9-(9)----------|-2--2-(2)-------2--|
||--8s9--8s9-(9)-8s9-(9)----------|-0--2-(2)-------2--|
||o-6s7--6s7-(7)-6s7-(7)----------|----0-(0)-4-(4)-0--|
||----0----0-(0)---0-(0)----------|-------------------|
 |-Rhy Fig 4 (includes Rhythm slashes)
 
 
  1,2.
    E
 4/4
    E.   S +E    E +S  E S S S S S     S  S S   S +S  S   E +S  E S S S S S
    |    |  |    |  |  | | | | | |     |  | |   |  |  |   |  |  | | | | | |
    /    /  /    /  /  / / / / / /     /  / /   /  /  /   /  /  / / / / / /
  a E. a S +E  a E +H                a E.     a S +E    a E +H
|----------------------------------|------------------------------------------||
|-8s9--8s9-(9)-8s9-(9)-------------|-8s9------8s9-(9)---8s9-(9)--------------o||
|-8s9--8s9-(9)-8s9-(9)-------------|-8s9------8s9-(9)---8s9-(9)---------------||
|-8s9--8s9-(9)-8s9-(9)-------------|-8s9------8s9-(9)---8s9-(9)---------------||
|-6s7--6s7-(7)-6s7-(7)-------------|-6s7------6s7-(7)---6s7-(7)--------------o||
|---0----0-(0)---0-(0)-------------|---0--------0-(0)-----0-(0)---------------||
                                                                end Rhy Fig 4-|

 Interlude
  3.
 4/4
 w/Rhy Fig 2 + 2A
  Gtr V
   H..                                   E    H.                            Q
|------------------------------------------|------------------------------------------|
|------------------------------------------|------------------------------------------|
|-11------------------------------------11-|-13----------------------------13S========|
|------------------------------------------|------------------------------------------|
|--9-------------------------------------9-|-11----------------------------11S========|
|------------------------------------------|------------------------------------------|


  H.                        Q          H.                            Q
|-----------------------------------|------------------------------------------|
|-----------------------------------|------------------------------------------|
|-7-------------------------7S======|=11----------------------------11S========|
|-----------------------------------|------------------------------------------|
|-5-------------------------5S======|==9-----------------------------9S========|
|-----------------------------------|------------------------------------------|



  H.                            Q            H.                            Q
|-----------------------------------------|------------------------------------------|
|-----------------------------------------|------------------------------------------|
|-7-----------------------------7S========|=13----------------------------13S========|
|-----------------------------------------|------------------------------------------|
|-5-----------------------------5S========|=11----------------------------11S========|
|-----------------------------------------|------------------------------------------|



  H.                        Q        W
|---------------------------------|-----------------------------------------|
|---------------------------------|-----------------------------------------|
|-7-------------------------7S====|=11--------------------------------------|
|---------------------------------|-----------------------------------------|
|-5-------------------------5S====|==9--------------------------------------|
|---------------------------------|-----------------------------------------|


w/Rhy Fig 3 + 3A
  Q        Q         H
|---------10----------------------------|
|---------10----------------------------|
|---------11----------------------------|
|---------12----------------------------|
|---------------------------------------|
|---------------------------------------|



  E.      S  +E    S  S  +E    Q.
|--------12-(12)---9-12-(12)---9---------------|
|----------------------------------------------|
|----------------------------------------------|
|----------------------------------------------|
|----------------------------------------------|
|----------------------------------------------|


                    $
 3/4                 4/4
  Gtr I
  D  A     A/C#  A      E
  E. S +E  E +S  E.     E.   S +E    E +S  E S S S S S
  |  |  |  |  |  |      |    |  |    |  |  | | | | | |
  /  /  /  /  /  /      /    /  /    /  /  / / / / / /
  Gtr IV
  E. S +E  E +S  E.   a E. a S +E  a E +H
|-2-----------------|----------------------------------|
|-3--2-(2)-------2--|-8s9--8s9-(9)-8s9-(9)-------------|
|-2--2-(2)-------2--|-8s9--8s9-(9)-8s9-(9)-------------|
|-0--2-(2)-------2--|-8s9--8s9-(9)-8s9-(9)-------------|
|----0-(0)-4-(4)-0--|-6s7--6s7-(7)-6s7-(7)-------------|
|-------------------|---0----0-(0)---0-(0)-------------|


    S  S S   S +S  S   E +S  E S S S S S
    |  | |   |  |  |   |  |  | | | | | |
    /  / /   /  /  /   /  /  / / / / / /
  a E.     a S +E    a E +H
|-----------------------------------------||
|-8s9------8s9-(9)---8s9-(9)--------------||
|-8s9------8s9-(9)---8s9-(9)--------------||
|-8s9------8s9-(9)---8s9-(9)--------------||
|-6s7------6s7-(7)---6s7-(7)--------------||
|---0--------0-(0)-----0-(0)--------------||


 Chorus
                                 3/4
    E                             D  A     A/C#  A
    E.   S +E    E +S  E S S E.   E. S +E  E +S  E.
    |    |  |    |  |  | | | |    |  |  |  |  |  |
    /    /  /    /  /  / / / /    /  /  /  /  /  /
  a E. a S +E  a E +H             E. S +E  E +S  E.
|-------------------------------|-2-----------------|
|-8s9--8s9-(9)-8s9-(9)----------|-3--2-(2)-------2--|
|-8s9--8s9-(9)-8s9-(9)----------|-2--2-(2)-------2--|
|-8s9--8s9-(9)-8s9-(9)----------|-0--2-(2)-------2--|
|-6s7--6s7-(7)-6s7-(7)----------|----0-(0)-4-(4)-0--|
|---0----0-(0)---0-(0)----------|-------------------|


 4/4
    E
    E.   S +E    E +S  E S S S S S     S  S S   S +S  S   E +S  E S S S S S
    |    |  |    |  |  | | | | | |     |  | |   |  |  |   |  |  | | | | | |
    /    /  /    /  /  / / / / / /     /  / /   /  /  /   /  /  / / / / / /
  a E. a S +E  a E +H                a E.     a S +E    a E +H
|----------------------------------|-----------------------------------------|
|-8s9--8s9-(9)-8s9-(9)-------------|-8s9------8s9-(9)---8s9-(9)--------------|
|-8s9--8s9-(9)-8s9-(9)-------------|-8s9------8s9-(9)---8s9-(9)--------------|
|-8s9--8s9-(9)-8s9-(9)-------------|-8s9------8s9-(9)---8s9-(9)--------------|
|-6s7--6s7-(7)-6s7-(7)-------------|-6s7------6s7-(7)---6s7-(7)--------------|
|---0----0-(0)---0-(0)-------------|---0--------0-(0)-----0-(0)--------------|


                                       3/4
    E                                   D  A     A/C#  A
    S  S S   S +S  S   E +S  E S S E.   E. S +E  E +S  E.
    |  | |   |  |  |   |  |  | | | |    |  |  |  |  |  |
    /  / /   /  /  /   /  /  / / / /    /  /  /  /  /  /
  a E.     a S +E    a E +H             E. S +E  E +S  E.
|-------------------------------------|-2-----------------|
|-8s9------8s9-(9)---8s9-(9)----------|-3--2-(2)-------2--|
|-8s9------8s9-(9)---8s9-(9)----------|-2--2-(2)-------2--|
|-8s9------8s9-(9)---8s9-(9)----------|-0--2-(2)-------2--|
|-6s7------6s7-(7)---6s7-(7)----------|----0-(0)-4-(4)-0--|
|---0--------0-(0)-----0-(0)----------|-------------------|


 4/4
    E
    E.   S +E    E +S  E S S S S S     S  S S   S +S  S   E +S  E S S S S S
    |    |  |    |  |  | | | | | |     |  | |   |  |  |   |  |  | | | | | |
    /    /  /    /  /  / / / / / /     /  / /   /  /  /   /  /  / / / / / /
  a E. a S +E  a E +H                a E.     a S +E    a E +H
|----------------------------------|-----------------------------------------|
|-8s9--8s9-(9)-8s9-(9)-------------|-8s9------8s9-(9)---8s9-(9)--------------|
|-8s9--8s9-(9)-8s9-(9)-------------|-8s9------8s9-(9)---8s9-(9)--------------|
|-8s9--8s9-(9)-8s9-(9)-------------|-8s9------8s9-(9)---8s9-(9)--------------|
|-6s7--6s7-(7)-6s7-(7)-------------|-6s7------6s7-(7)---6s7-(7)--------------|
|---0----0-(0)---0-(0)-------------|---0--------0-(0)-----0-(0)--------------|



Rhy Fig 4 -> To Coda



  Gtrs I, IV
	  A/C#                                                      D.S. al Coda
  S S S S S S S S S S S S E E   S S S S S S S S S S S S E E
    | | | | | | |   |   | |       | | | | | | |   |   | | |
    / / / / / / /   /   / /       / / / / / / /   /   / / /
|-----------------------------|-----------------------------||


  &
  Gtrs I, IV
  S S S S S S S S S S S S E E   S S S S S S S S S S S S S S E   W
|-----------------------------|-------------------------------|------*|
|---2-2-2-2-2-2-2---2---2-2---|---2-2-2-2---2-2---------------|-0----*|
|---2-2-2-2-2-2-2---2---2-2---|---2-2-2-2-2-2-2---2-2-2-----2-|-1----*|
|---2-2-2-2-2-2-2---2---2-2---|---2-2-2-2-2-2-2---2-2-2-----2-|-2----*|
|---0-0-0-0-0-0-0---0---0-0---|---0-0-0-0-0-0-0---0-0-0-4-2-0-|-2----*|
|-----------------------------|-------------------0-0-0-0-0-0-|-0----*|
comments
We did not receive enough feedback on this tab! Please rate:
print report bad tab
1 2 3 4 5
1 comment total.
+1 reply
wudntulike2no44 wrote on January 8 2006, 08:29 am

are you deaf or something. completely wrong

I want to post or [tab]
guest
You may want to rate the tab now too:
select rating
Please do not post tabs as comments. Select "correction" instead!