Oops, an error
Loading. Please wait.

Wonderful One Tab

15,647 views 45 this week
2 commentsread comments
1 2 3 4 5
excellent!
x 9
Autoscroll
+/-
esc
set tempo
stop
Contributor
WARNING: You are trying to view
                                    content from Ultimate-Guitar.com
                                    in an unauthorized application,
                                    which is prohibited.

                                    Please use an official Ultimate
                                    Guitar Tabs application for iPhone,
                                    iPad or Android to access legitimate
                                    chords, guitar, bass, and drum tabs
                                    from Ultimate-Guitar.com database.

                                    Type "ultimate guitar tabs" in Apple
                                    App Store's or Android Market's
                                    search to find the application.
Gtr I (Gb Gb Db Gb Db Gb) - 'Jimmy Page - Steel String Acoustic'
Gtr II (E A D G B E) - 'Jimmy Page - Steel 12 String Acoustic w/capo at first fret'
Tab numbers relative to actual nut

Intro
  Q=76
 4/4
  Gtr I
  Wx4          Q.   E +E  E S S S S   Q.   E +E  E Q    Q.   E +E  E S S S S
|------------|----------------------|-----------------|-----------------------|
|------------|----------------------|-----------------|-----------------------|
|------------|------0-(0)---0-0-0-0-|------0-(0)---0--|------0-(0)---0-0-0-0--|
|------------|----------------------|-----------------|-----------------------|
|------------|-0----------0---------|-0----------0----|-0----------0----------|
|------------|----------------------|-----------------|-----------------------|


  Q   E  E  Q  E E   E E E E H      +Q.   S S a Q  a E E
|-----0--0--0--0-0-|-0-0-----0----|-(0)---0-0---0----0---|
|-----0--0-12--7-9-|-4-2-----2----|-(2)---5-5-5s7--2s4---|
|----11-12-11--0-0-|-0-0-0--------|-------0-0---0----0---|
|----12-12-12--7-9-|-4-2---2------|-------5-5-5s7--2s4---|
|-0---0--0--0--0-0-|-0-0----------|-------0-0---0----0-0-|
|-----0--0--0--0-0-|-0-0----------|-------0-0---0----0---|


  E E E E Q  E E   H     E  E E E   E E E E E E S S S S
|-0-0------------|-------0--0-0-0-|-0-0-----0-0-------0--|
|-2-0-----0----0-|-------0--0-9-7-|-4-2-----2---2-2-2-2--|
|-0-0-0---0------|------11-12-0-0-|-0-0-0----------------|
|-2-0-----0------|------12-12-9-7-|-4-2------------------|
|-0-0---0----0---|-0-----0--0-0-0-|-0-0---0--------------|
|-0-0------------|-------0--0-0-0-|-0-0------------------|


  Q.   S S a Q  a E E   E E E E Q  S S S S   Q   E  E  Q  E E
|------0-0---0----0---|-0-0----------------|-----0--0--0--0-0---||
|------5-5-5s7--2s4---|-2-0-----0--------0-|-----0--0-12--7-9---||
|------0-0---0----0---|-0-0-0---0----0-0---|----11-12-11--0-0---||
|------5-5-5s7--2s4---|-2-0-----0----------|----12-12-12--7-9---||
|-0----0-0---0----0-0-|-0-0---0----0-------|-0---0--0--0--0-0---||
|------0-0---0----0---|-0-0----------------|-----0--0--0--0-0---||


 Verse 1
  E E E E Q  S S S S   Q.   S S a E E a E E   E E E E Q  E E
|-0-0-----0--0-0-0-0-|------0-0---0-----0---|-0-0------------|
|-4-2-----2--2-2-2-2-|------5-5-5s7---2s4---|-2-0-----0----0-|
|-0-0-0--------------|------0-0---0-----0---|-0-0-0----------|
|-4-2----------------|------5-5-5s7---2s4---|-2-0------------|
|-0-0---0------------|-0----0-0---0-0---0-0-|-0-0---0----0---|
|-0-0----------------|------0-0---0-----0---|-0-0------------|


  E Q.    E  E E E   E E E E E E S S S S   Q.   S S a Q  a E E
|---------0--0-0-0-|-0-0-----0---------0-|------0-0---0----0---|
|---------0--0-9-7-|-4-2-------2-2-2-2---|------5-5-5s7--2s4---|
|--------11-12-0-0-|-0-0-0-----------0---|------0-0---0----0---|
|--------12-12-9-7-|-4-2-----------------|------5-5-5s7--2s4---|
|---0-----0--0-0-0-|-0-0---0-------------|-0----------0----0-0-|
|-0-------0--0-0-0-|-0-0-----------------|------------0----0---|


  E E E E E E E E   Q   E  E  Q  E E   E E E E Q  S S S S
|-0-0-----0-----0-|-----0--0--0--0-0-|-0-0-----0------0-0--|
|-2-0-----0-------|-----0--0-12--7-9-|-4-2-----2------2-2--|
|-0-0-0-----0-----|----11-12-11--0-0-|-0-0-0------0-0------|
|-2-0---------0---|----12-12-12--7-9-|-4-2-----------------|
|-0-0---0-----0---|-0---0--0--0--0-0-|-0-0---0-------------|
|-0-0-------------|-----0--0--0--0-0-|-0-0-----------------|


  Q  e S S a E E a E S S   E E E E Q  S S S S   H     E  E E E
|----0-0-0---0-----0---0-|-0-0--------------0-|-------0--0-0-0--||
|----2-5-5-5s7---2s4---2-|-2-0-0---0----0-0---|-------0--0-9-7--||
|----0-0-0---0-----0-----|-0-0-0--------------|------11-12-0-0--||
|------5-5-5s7---2s4-----|-2-0----------------|------12-12-9-7--||
|-0----------0-0---0-0---|-0-0---0----0-------|-0-----0--0-0-0--||
|------------0-----0-----|-0-0----------------|-------0--0-0-0--||


 Verse 2
  E E E E E E S S S S   E E S S E a E E a E E   E E E E E E S S S S
|-0-0-----0-0---------|-----0-0-0---0-----0---|-0-0-----0---------0-|
|-4-2---2-2---2-2-2-2-|-2---2-5-5-5s7---2s4---|-2-0-0---0-0-----0---|
|-0-0-0-0-------------|---0---0-0---0-----0---|-0-0-0---0-----0-----|
|-4-2---2-------------|-------5-5-5s7---2s4---|-2-0-----0-----------|
|-0-0---0-------------|-------0-0---0-0---0-0-|-0-0---0-----0-------|
|-0-0-----------------|-------0-0---0-----0---|-0-0-----------------|


  Q   E  E  Q  E E   E E E E E E S S S S   E Q  S S a E E a E E
|-----0--0--0--0-0-|-0-0-----0-0-------0-|--------0---0-----0---|
|-----0--0-12--7-9-|-4-2-----2---2-2-2---|---2----5-5s7---2s4---|
|----11-12-11--0-0-|-0-0-0---0-----------|--------0---0-----0---|
|----12-12-12--7-9-|-4-2-----------------|----------5s7---2s4---|
|-0---0--0--0--0-0-|-0-0---0-------------|-0----0-----0-0---0-0-|
|-----0--0--0--0-0-|-0-0-----------------|------------0-----0---|


  E E E E Q  S S S S   Q.   E  E  E E E   E E E E E E S S S S
|-0-0--------------0-|---------0--0-0-0-|-0-0-----0---------0-|
|-2-0-----0----------|---------0--0-9-7-|-4-2-----2-------2---|
|-0-0-0--------0-0---|--------11-12-0-0-|-0-0-0---0-0-2p0-----|
|-2-0----------------|------0-12-12-9-7-|-4-2-----------------|
|-0-0---0----0-------|-0----0--0--0-0-0-|-0-0---0-------------|
|-0-0----------------|---------0--0-0-0-|-0-0-----------------|


                                                          Gtr II
  E E E S S a E E a E E   E E E E Q  S S S S   E Q  E  H
|---0---------0-----0---|-0-0----------------|--------^0----------||
|---2-------5s7---2s4---|-2-0----------------|--------^0----------||
|-----0-0-0---0-----0---|-0-0-0---0------0-0-|---0----^0----------||
|-----------5s7---2s4---|-2-0----------0-----|--------^0----------||
|-0-----------0-0---0-0-|-0-0---0----0-------|-0----0-^0----------||
|-------------0-----0---|-0-0----------------|--------^0----1h3p1-||
                                               H       Q  E S S S
                                                            |-3-|


 Chorus
                 |-3-|                |-3-|                  |-3-|
  Q.   E +E  E E S S S   Q  E E +Q.   S S S   Q.   E +E  E E S S S
|------3-(3)-----------|----3-0-(0)---------|------3-(3)------------|
|------3-(3)-----------|----3-1-(1)---------|------3-(3)------------|
|------0-(0)-----------|----0-2-(2)---------|------0-(0)------------|
|----------------------|------3-(3)---------|-----------------------|
|------2-(2)-----------|----2-0-(0)---------|------2-(2)------------|
|-0--------------1h3p1-|-0----1-(1)---1h3p1-|-0--------------1h3p1--|


               |-3-|                  |-3-|                  |-3-|
  Q  E E +Q.   S S S   Q.   E +E  E E S S S   Q  E E +E  E E S S S
|----3-0-(0)---------|------3-(3)-----------|----3-0-(0)-3-0--------|
|----3-1-(1)---------|------3-(3)-----------|----3-1-(1)-1-1--------|
|----0-2-(2)---------|------0-(0)-----------|----0-0-(0)-0-0--------|
|------3-(3)---------|----------------------|------2-(2)-2-2--------|
|----2-0-(0)---------|------2-(2)-----------|----2-0-(0)-0-0--------|
|-0----1-(1)---1h3p1-|-0--------------1h3p1-|-0--------------1h3p1--|


                                                        Gtr I
              |-3-|
  Q E E +Q  E S S S   Q E E +E  E E E   Q E E E E E S S   Q  E  E  Q E E
|-----3-(3)-3-------|---3-0-(0)-0-0-0-|-0-0-0-0-0-0-0-0-|----0--0--0-0-0--||
|-----3-(3)-3-------|---3-1-(1)-1-1-1-|-2-2-2-2-2-2-2-2-|----0--0-12-7-9--||
|-----0-(0)-0-------|---0-2-(2)-2-2-2-|-2-2-2-2-2-2-2-2-|---11-12-11-0-0--||
|-------------------|-----3-(3)-3-3-3-|-3-3-3-3-3-3-3-3-|---12-12-12-7-9--||
|---2-2-(2)-2-------|---2-0-(0)-0-0-0-|-0-0-0-0-0-0-0-0-|-0--0--0--0-0-0--||
|-0-0-------0-1h3p1-|-0---1-(1)-1-1-1-|-1-1-1-1-1-1-1-1-|----0--0--0-0-0--||


 Verse 3
  E E E E E Q  E   E Q  S S a E S S a E S S   E E E E Q  S S S S   E Q.    E  E E E
|-0-0-----0-0----|---0----0---0---0---0---0-|-0-0--------------0-|---------0--0-0-0-|
|-4-2-----2------|---2----5-5s7---2-2s4---2-|-2-0-----0------0---|---------0--0-9-7-|
|-0-0-0--------0-|---0----0---0-------0-----|-0-0-0---0----------|--------11-12-0-0-|
|-4-2------------|----------5s7-----2s4-----|-2-0----------0-----|---0----12-12-9-7-|
|-0-0---0--------|-0----0-----0-0-----0-0---|-0-0---0----0-------|-0-------0--0-0-0-|
|-0-0------------|------------0-------0-----|-0-0----------------|---------0--0-0-0-|




  E E E E Q  S S S S   Q.   S S a E E a E E
|-0-0-----0--------0-|------0-0---0-----0---|
|-4-2-----2------2---|------5-5-5s7---2s4---|
|-0-0-0--------0-----|------0-0---0-----0---|
|-4-2----------------|------5-5-5s7---2s4---|
|-0-0---0----0-------|-0----0-0---0-0---0-0-|
|-0-0----------------|------0-0---0-----0---|


                                         Gtr II
  E E E E E E S S S S   E E E T T T T H
|-0-0-----------------|---------------0-----------||
|-2-0-----0---------0-|---------------0-----------||
|-0-0-0---0-0---0-0---|---0---------0-------------||
|-2-0-0-------0-------|-----0-----0---------------||
|-0-0---0-----0-------|-0-------0-----------------||
|-0-0-----------------|-------0------------1h3p1--||
                        H             Q  E S S S
                                           |-3-|


 Chorus
                |-3-|                |-3-|                  |-3-|                  |-3-|
  Q.   E +Q   E S S S   Q  E E +Q.   S S S   Q  E E +E  E E S S S   Q  E E +E  E E S S S
|------3-(3)----------|----3-0-(0)---------|------3-(3)-----------|----3-0-(0)-0-0---------|
|------3-(3)----------|----3-1-(1)---------|------3-(3)-----------|----3-1-(1)-1-1---------|
|------0-(0)----------|----0-2-(2)---------|------0-(0)-----------|----0-2-(2)-2-2---------|
|---------------------|------3-(3)---------|----------------------|------3-(3)-3-3---------|
|------2-(2)----------|----2-0-(0)---------|------2-(2)-----------|----2-0-(0)-0-0---------|
|-0-------------1h3p1-|-0----1-(1)---1h3p1-|-0--0-----------1h3p1-|-0----1-(1)-1-1-1h3p1---|



                 |-3-|                  |-3-|                |-3-|
  Q  E E +E  E E S S S   Q  E E +E  E E S S S   Q  E E +Q.   S S S   Q  E E +E  E E. S
|------3-(3)-----------|----3-0-(0)-0-0-------|------3-(3)---------|----3-0-(0)-0-0--0--|
|------3-(3)-----------|----3-1-(1)-1-1-------|------3-(3)---------|----3-1-(1)-1-1--1--|
|------0-(0)-----------|----0-0-(0)-0-0-------|------0-(0)---------|----0-0-(0)-0-0--2--|
|----------------------|------2-(2)-2-2-------|--------------------|------2-(2)-2-2-----|
|------2-(2)-----------|----2-0-(0)-0-0-------|------2-(2)---------|----2-0-(0)-0-0-----|
|-0--0-----------1h3p1-|-0--------------1h3p1-|-0--0---------1h3p1-|-0------------------|



  Q  E E +E  E E S S   Q  Q  S S S S E S S   E E E E +E  E E S S
|-0--0-0-(0)-0-0-3-3-|-3--3--3-3-3-3-3-3-3-|-3-3-3-3-(3)-3-3-3-3-|
|-1--1-1-(1)-1-1-0-0-|-1--1--1-1-1-1-1-0-0-|-1-1-1-1-(1)-1-1-0-0-|
|-2--2-2-(2)-2-2-0-0-|-0--0--0-0-0-0-0-0-0-|-0-0-0-0-(0)-0-0-0-0-|
|-3--3-3-(3)-3-3-0-0-|-0--0--0-0-0-0-0-0-0-|-0-0-0-0-(0)-0-0-0-0-|
|-0--0-0-(0)-0-0-----|---------------------|---------------------|
|-1--1-1-(1)-1-1-3-3-|-3--3--3-3-3-3-3-3-3-|-3-3-3-3-(3)-3-3-3-3-|


  Q.   E E E S S S S   Q.   E +E  E S S S     S
|-3----3-----3-3-3-3-|-3----3-(3)-3-3-3-3-----3---|
|-1----1-----1-1-0-0-|-1----1-(1)-0-1-1-0-----0---|
|-0----0-----0-0-0-0-|-0----0-(0)-0-0-0-0-----0---|
|-0----0-----0-0-0-0-|-0----0-(0)-0-0-0-0-----0---|
|--------------------|----------------------------|
|-3----3-3-3-3-3-3-3-|-3----3-(3)-3-3-3-3-----3---|
|
|                    Gtr I
|                                       |-3-|
| W                    H       Q    E   T T T T T
|--------------------|----------------------------|
|--------------------|--------------------------0-|
|--------------------|------------------------0---|
|--------------------|----------------------0-----|
|--------------------|--------------------0-------|
|--------------------|------------------0---------|



  Q.   E E E S S S S   Q   E  E  Q  E E
|-0------------------|-----0--0--0--0-0--||
|--------------------|-----0--0-12--7-9--||
|------0-----0-0-0-0-|----11-12-11--0-0--||
|--------0-----------|----12-12-12--7-9--||
|----------0---------|-0---0--0--0--0-0--||
|--------------------|-----0--0--0--0-0--||


 Verse 4
  Gtr I
  E E E E Q  S S S S   Q  S S S S a E E a E S S   E E E E Q  S S S S
|-0-0-----0--------0-|----0---0-0---0-----0---0-|-0-0--------------0-|
|-4-2-----2----2-2---|----2s5-5-5-5s7---2s4---2-|-0-0-----0------0---|
|-0-0-0------0-------|----0---0-0---0-----0-----|-2-0-0---0----0-----|
|-4-2---2------------|--------5-5-5s7---2s4-----|-0-0-----0----------|
|-0-0----------------|-0------------0-0---0-0---|-2-0---0----0-------|
|-0-0----------------|--------------0-----0-----|-0-0----------------|


  Q  Q   E  E E E   E E E E E E E E   E E E S S a E E a E E
|--------0--0-0-0-|-0-0-----0-0---0-|---0---------0-----0---|
|--------0--0-9-7-|-4-2-----2-----2-|---2-2---5-5s7---2s4---|
|-------11-12-0-0-|-0-0-0-----------|---------0---0-----0-0-|
|----0--12-12-9-7-|-4-2---2-----2---|---------5-5s7---2s4-4-|
|-0--0---0--0-0-0-|-0-0---0-----0---|-0-----0-----0-0---0-0-|
|----0---0--0-0-0-|-0-0-------------|-------------0-----0---|


  E E E E Q  S S S S   Q   E  E  Q  E E   E E E E E E E E
|-0-0----------------|-----0--0--0--0-0-|-0-0-----0-----0--|
|-2-0--------------0-|-----0--0-12--7-9-|-4-2-----2-----2--|
|-0-0-----0----0-0---|----11-12-11--0-0-|-0-0-0-----0------|
|-2-0-0--------------|----12-12-12--7-9-|-4-2---2-----2----|
|-0-0---0----0-------|-0---0--0--0--0-0-|-0-0--------------|
|-0-0----------------|-----0--0--0--0-0-|-0-0--------------|


  Q  E S S a E E a E S S   E E E E E E S S S S   Q  Q   E  E E E
|------0-0---0-----0---0-|-0-0-----------------|--------0--0-0-0--|
|----2-5-5-5s7---2s4---2-|-2-0-----0-0---------|--------0--0-9-7--|
|----0-0-0---0-----0-----|-0-0-0---0-----0-0-0-|----0--11-12-0-0--|
|----2-5-5-5s7---2s4-----|-2-0---------------0-|-------12-12-9-7--|
|-0--0-------0-0---0-0---|-0-0---0-----0-------|-0------0--0-0-0--|
|------------0-----0-----|-0-0-----------------|--------0--0-0-0--|


  E E E E E E S S S S   E E S S S S a E S S a E S S   E E E E Q  E S S
|-0-0-----0-0-------0-|-----0---0-0---0---0---0---0-|-0-0--------------|
|-4-2-----2-----2-2---|-----2s5-5-5-5s7-----5s7---2-|-2-0-----0--------|
|-0-0-0---------------|-----0---0-0---0-------0-----|-0-0-0---0----0-0-|
|-4-2-----------------|---0-2s5-5-5-5s7-----5s7-----|-2-0-----0--------|
|-0-0---0-----0-------|-0-0-0---------0-0-----0-0---|-0-0---0----0-----|
|-0-0-----------------|-----0---------0-0-----0-0---|-0-0--------------|


  Q.   E Q  E S S   E Q  E Q  S S E      W             +W            W
|-----------------|-----------------|-^<12>--------|-(<12>)--------|------*|
|-----------------|-----------------|-^<12>--------|-(<12>)--------|------*|
|--------0----0-0-|---0----0----0---|-^<12>--------|-(<12>)--------|------*|
|-----------------|---------------0-|-^<12>--------|-(<12>)--------|------*|
|-0----0----0-----|-0----0----0-----|-^<12>--------|-(<12>)--------|------*|
|-----------------|-----------------|-^<12>--------|-(<12>)--------|------*|
2 comments total.
0 reply
CrossF1re wrote on January 15 2008, 10:18 pm

perfect tab, ive been waiting ages for someone to tab this, nice work

0 reply
manipedro wrote on May 23 2011, 04:01 pm

The best thing that happened to me this year was founding this tab xD Really good

I want to post or [tab]
guest
You may want to rate the tab now too:
select rating
Please do not post tabs as comments. Select "correction" instead!