Oops, an error
Loading. Please wait.

A Trace Of Blood Bass Tab

582 views 1 this week
no commentswrite comment
1 2 3 4 5
please rate
Autoscroll
+/-
esc
set tempo
stop
WARNING: You are trying to view
                                    content from Ultimate-Guitar.com
                                    in an unauthorized application,
                                    which is prohibited.

                                    Please use an official Ultimate
                                    Guitar Tabs application for iPhone,
                                    iPad or Android to access legitimate
                                    chords, guitar, bass, and drum tabs
                                    from Ultimate-Guitar.com database.

                                    Type "ultimate guitar tabs" in Apple
                                    App Store's or Android Market's
                                    search to find the application.
#----------------------------------PLEASE NOTE---------------------------------#
#This file is the author's own work and represents their interpretation of the #
#song. You may only use this file for private study, scholarship, or research. #
#------------------------------------------------------------------------------##

                           A TRACE OF BLOOD (Bassline)
                        As recorded by Pain Of Salvation
                        (From the 2002 Album REMEDY LANE)

Words and Music by D.Gildenlow
Transcribed by Luca Abete (drimdodo@libero.it)

Gtr I (B E A D G) - 'Untitled'

 Intro
  Q=153
 7/4
  Gtr I
  W        +H.        W        +H.        W        +H.        W        +H.
|-------------------|-------------------|-------------------|-----------------|
|-------------------|-------------------|-------------------|-----------------|
|-------------------|-------------------|-------------------|-----------------|
|-5--------(5)------|-------------------|-2--------(2)------|-3--------(3)----|
|-------------------|-3--------(3)------|-------------------|-----------------|


  Q.   W        +Q.     Q.   W        +Q.
|---------------------|---------------------|
|---------------------|---------------------|
|---------------------|------4--------(4)---|
|-5----5--------(5)---|---------------------|
|---------------------|-2-------------------|


  Q.   W        +Q.     Q.   W        +Q.
|---------------------|---------------------|
|---------------------|---------------------|
|-5-------------------|-2-------------------|
|---------------------|---------------------|
|------3--------(3)---|------0--------(0)---|


  E. S S S E. S S S Q  E E E E E E   E. S S S E. S S S Q  E E E E E E
|----------------------------------|----------------------------------|
|----------------------------------|----------------------------------|
|----------------------------------|-------------------5--5-5-4-------|
|-5--5-5-5-5--5-5-5-5--5-0-0-2-5-0-|----------------------------5-4-0-|
|----------------------------------|-3--3-3-3-3--3-3-3----------------|


  E. S S S E. S S S Q  E E E E E E   E. S S S E. S S S E E E  E E E E E
|----------------------------------|------------------------------------|
|----------------------------------|-----------------------5-/7-5-------|
|----------------------------------|---------------------5--------5-----|
|-2--2-2-2-2--2-2-2-2--2-2-2-2-2-2-|-3--3-3-3-3--3-3-3-3------------3-3-|
|----------------------------------|------------------------------------|


  E. S S S E. S S S Q   E E E E E E   E. S S S E. S S S E E  E E E E E E
|----------------------/6-6-6-6-6-6-|------------------------------------|
|-----------------------------------|------------------------------------|
|-----------------------------------|-----------------------/4-4-4-4-4-4-|
|-5--5-5-5-5--5-5-5-5---------------|-5----------------------------------|
|-----------------------------------|----2-2-2-2--2-2-2-2-2--------------|


  E. S S S E. S S S E E  E E E E E E   E. S S S E. S S S E E  E E E E E E
|------------------------------------|------------------------------------|
|------------------------------------|------------------------------------|
|-----------------------/5-5-5-5-5-5-|-----------------------/2-2-2-2-2-2-|
|-5----------------------------------|------------------------------------|
|----3-3-3-3--3-3-3-3-3--------------|-0--0-0-0-0--0-0-0-0-0--------------|


  Q.   Q.   W          Q.   Q.   W
|--------------------|--------------------|
|--------------------|--------------------|
|--------------------|--------------------|
|-5----5----5--------|--------------------|
|--------------------|-3----3----3--------|


  Q.   Q.   W          Q.   Q.   W
|--------------------|----------------|
|--------------------|----------------|
|--------------------|----------------|
|-2----2----2--------|-3----3----3----|
|--------------------|----------------|


  Q.   H    e e s s E e e e   E. S S S E. S S S E E  E E E E E E
|---------------------------|------------------------------------|
|---------------------------|------------------------------------|
|---------------------------|-----------------------/4-4-4-4-4-4-|
|-5----5----0-5-5-5---5-5-5-|-5----------------------------------|
|---------------------------|----2-2-2-2--2-2-2-2-2--------------|


  E. S S S E. S S S E E  E E E E E E   E. S S S E. S S S E E  E E E E E E
|------------------------------------|------------------------------------|
|------------------------------------|------------------------------------|
|-----------------------/5-5-5-5-5-5-|-----------------------/2-2-2-2-2-2-|
|-5----------------------------------|------------------------------------|
|----3-3-3-3--3-3-3-3-3--------------|-0--0-0-0-0--0-0-0-0-0--------------|


   Guitar Solo 1  1:05
    E E E E Q  E E H.        E E E E Q  E E H.
||-------------------------|------------------------|
||o------------------------|------------------------|
||-------------------------|------------------------|
||o------------------------|------------------------|
||--2-2-0-2----0-2---------|-2-2-0-2----0-2---------|


  E E E E Q  E E H.        E E E E Q  E E H.
|------------------------|-----------------------||
|------------------------|----------------------o||
|------------------------|-----------------------||
|------------------------|----------------------o||
|-2-2-0-2----0-2---------|-2-2-0-2----0-2--------||


    E E E E Q  E E H.        E E E E Q  E E H.
||-------------------------|------------------------|
||o------------------------|------------------------|
||-------------------------|------------------------|
||o------------------------|------------------------|
||--2-2-0-2----0-2---------|-2-2-0-2----0-2---------|


  E E E E Q  E E H.        E E E E Q  E E H.
|------------------------|-----------------------||
|------------------------|----------------------o||
|------------------------|-----------------------||
|------------------------|----------------------o||
|-2-2-0-2----0-2---------|-2-2-0-2----0-2--------||


   Verse 1  1:50
    E E E E Q  E E H.        E E E E Q  E E H.
||-------------------------|------------------------|
||o------------------------|------------------------|
||-------------------------|------------------------|
||o------------------------|------------------------|
||--2-2-0-2----0-2---------|-2-2-0-2----0-2---------|


  E E E E Q  E E H.        E E E E Q  E E H.     4x
|------------------------|-----------------------||
|------------------------|----------------------o||
|------------------------|-----------------------||
|------------------------|----------------------o||
|-2-2-0-2----0-2---------|-2-2-0-2----0-2--------||


 Bridge (two bars)  2:33
                         3/4
  S S S S W.              Q.   Q.
|-----------------------|-----------|
|-----------------------|-----------|
|-----------------------|-----------|
|-1-1-1-1-1-------------|-----------|
|-----------------------|-3----3----|


 7/4
  E E E E Q  E E H.        E E E E Q  E E H.
|------------------------|------------------------|
|------------------------|------------------------|
|------------------------|------------------------|
|------------------------|------------------------|
|-2-2-0-2----0-2---------|-2-2-0-2----0-2---------|


  E E E E Q  E E H.        E E E E Q  E E H.
|------------------------|----------------------|
|------------------------|----------------------|
|------------------------|----------------------|
|------------------------|----------------------|
|-2-2-0-2----0-2---------|-2-2-0-2----0-2-------|


   Verse 2  2:48
    E E E E Q  E E H.        E E E E Q  E E H.
||-------------------------|------------------------|
||o------------------------|------------------------|
||-------------------------|------------------------|
||o------------------------|------------------------|
||--2-2-0-2----0-2---------|-2-2-0-2----0-2---------|


  E E E E Q  E E H.        E E E E Q  E E H.
|------------------------|-----------------------||
|------------------------|----------------------o||
|------------------------|-----------------------||
|------------------------|----------------------o||
|-2-2-0-2----0-2---------|-2-2-0-2----0-2--------||


    E E E Q.   E E +H.        E E E Q.   E E +H.
||--------------------------|-------------------------|
||o-------------------------|-------------------------|
||--------------------------|-------------------------|
||o-------------------------|-------------------------|
||--2-2-0-2----0-2-(2)------|-2-2-0-2----0-2-(2)------|


  E E E Q.   E E +H.        E E E Q.   E E +H.
|-------------------------|------------------------||
|-------------------------|-----------------------o||
|-------------------------|------------------------||
|-------------------------|-----------------------o||
|-2-2-0-2----0-2-(2)------|-2-2-0-2----0-2-(2)-----||


   Bridge  3:32
   7/4
    S S S S S S Q  S S Q  S S Q  S S Q
||--------------------------------------|
||o-------------------------------------|
||--------------------------------------|
||o-1-1-1-1-1------1-1----1-1----1-1----|
||--------------------------------------|


 1.                                      2.
                                         6/4
  S S S S S S Q  S S Q  S S Q  S S Q      Q.   Q.   H.
|--------------------------------------||-----------------|
|-------------------------------------o||-----------------|
|--------------------------------------||-----------------|
|-2-2-2-2-2------2-2----2-2----2-2----o||-0----0----0-----|
|--------------------------------------||-----------------|


   7/4
    S S S S S S Q  S S Q  S S Q  S S Q
||--------------------------------------|
||o-------------------------------------|
||--------------------------------------|
||o-1-1-1-1-1------1-1----1-1----1-1----|
||--------------------------------------|


 1.                                      2.
                                         5/4              3/4
  S S S S S S Q  S S Q  S S Q  S S Q      Q.   Q.   H      Q.   Q.
|--------------------------------------||----------------|------------|
|-------------------------------------o||----------------|------------|
|--------------------------------------||----------------|------------|
|-2-2-2-2-2------2-2----2-2----2-2----o||----------------|------------|
|--------------------------------------||-3----3----3----|-3----3-----|


 7/4
  E. S S S E. S S S Q  E E E E E E   E. S S S E. S S S Q  E E E E E E
|----------------------------------|-----------------------------------|
|----------------------------------|-----------------------------------|
|----------------------------------|-----------------------------------|
|-5--5-5-5-5--5-5-5-5--5-5-5-5-5-0-|--------------------------------0--|
|----------------------------------|-3--3-3-3-3--3-3-3-3--3-3-3-3-3----|


  E. S S S E. S S S Q  E E E E E E   E. S S S E. S S S E E E E E E E E
|----------------------------------|-----------------------------------|
|----------------------------------|-----------------------5-5-5-5-5-5-|
|----------------------------------|---------------------5-------------|
|-2--2-2-2-2--2-2-2-2--2-2-2-2-2-2-|-3--3-3-3-3--3-3-3-3---------------|
|----------------------------------|-----------------------------------|


  E. S S S E. S S S E E E E E E E E   E. S S S E. S S S E E E E E E E E
|-----------------------6-6-6-6-6-6-|-----------------------------------|
|---------------------7-------------|-----------------------------------|
|-----------------------------------|-----------------------------------|
|-5--5-5-5-5--5-5-5-5---------------|-5--5-5-5--------------------------|
|-----------------------------------|----------2--2-2-2-2-2-2-2-2-2-2-2-|


  E. S S S E. S S S E E E E E E E E   E. S S S E. S S S E E E E E E E E
|-----------------------------------|-----------------------------------|
|-----------------------------------|-----------------------------------|
|-------------------5-5-5-5-5-5-5-5-|-2--2-2-2-2--2-2-2-2-2-2-2-2-2-2-2-|
|-----------------------------------|-----------------------------------|
|-3--3-3-3-3--3-3-3-----------------|-----------------------------------|


 Breakdown 4:16
 7/8
  S S S S S S S S S S S S S S
|-----------------------------|
|-----------------------------|
|-----------------------------|
|-x-x-x-x-x-x-x-x-x-x-x-x-x-x-|
|-x-x-x-x-x-x-x-x-x-x-x-x-x-x-|


   Chorus 4:18
   4/4
    Q  Q  E E E E   +E  E Q  E E E E   +Q   Q  E E E E   +E  E Q  E E E E
||----------------|------------------|-----------------|------------------|
||o---------------|------------------|-----------------|------------------|
||----------------|------------------|-----------------|----------------4-|
||o-2--2--2-2-2-2-|-(2)-2-2--2-2-2---|-----------------|------------------|
||----------------|----------------3-|-(3)--3--3-3-3-3-|-(3)-3-3--3-3-3---|


  +Q   Q  E E E E   +E  E Q  E E E E   +Q   Q  E E E E   +E  E Q  E E E E
|-----------------|------------------|-----------------|-------------------||
|-----------------|------------------|-----------------|------------------o||
|-(4)--4--4-4-4-4-|-(4)-4-4--4-4-4-0-|-(0)--0--0-0-0-2-|-(2)-2-2--2-2-2-2--||
|-----------------|------------------|-----------------|------------------o||
|-----------------|------------------|-----------------|-------------------||


 Breakdown 4:43
 7/4
                 |-3-|           |-3-|
  S S S S S S Q  S S S Q  S S Q  S S S Q
|-----------------------------------------|
|-----------------------------------------|
|-----------------------------------------|
|-----------------------------------------|
|-3-3-3-3-3------3-3-3----3-3----3-3-3----|


                               |-3-|
  S S S S S S Q  S S Q  S S Q  S S S Q
|-----------------------------------------|
|-----------------------------------------|
|-----------------------------------------|
|-----------------------------------------|
|-3-3-3-3-3------3-3----3-3----3-3-3------|


    E E E Q  E E Q.   Q  Q    E E E Q  E E Q.   Q  Q
||--------------------------|-------------------------|
||o-------------------------|-------------------------|
||--------------------------|-------------------------|
||o-------------------------|-------------------------|
||--2-2-2-2--2-2-2----2--2--|-2-2-2-2--2-2-2----2--2--|


  E E E Q  E E Q.   Q  Q    E E E Q  E E Q.   Q  Q
|-------------------------|----------------------------||
|-------------------------|---------------------------o||
|-------------------------|----------------------------||
|-------------------------|---------------------------o||
|-5-5-5-5--5-5-5----5--5--|-4-4-4-4--4-4-4----4--4-----||


   Verse 3  5:10
    E E E Q  E E Q.   Q  Q    E E E Q  E E Q.   Q  Q
||--------------------------|-------------------------|
||o-------------------------|-------------------------|
||--------------------------|-------------------------|
||o-------------------------|-------------------------|
||--2-2-2-2--2-2-2----2--2--|-2-2-2-2--2-2-2----2--2--|


  E E E Q  E E Q.   Q  Q    E E E Q  E E Q.   Q  Q
|-------------------------|----------------------------||
|-------------------------|---------------------------o||
|-------------------------|----------------------------||
|-------------------------|---------------------------o||
|-5-5-5-5--5-5-5----5--5--|-4-4-4-4--4-4-4----4--4-----||


    E Q   Q.   E E +H.        E Q   Q.   E E +H.
||--------------------------|-------------------------|
||o-------------------------|-------------------------|
||-------/4-----------------|------/4-----------------|
||o-------------------------|-------------------------|
||--2-2--------2-2-(2)------|-2-2--------2-2-(2)------|


  E Q   Q.   E E +H.        E Q   Q.   E E +H.
|-------------------------|------------------------||
|-------------------------|-----------------------o||
|------/4-----------------|------/4----------------||
|-------------------------|-----------------------o||
|-2-2--------2-2-(2)------|-2-2--------2-2-(2)-----||


  E E E E Q  E E H.        E E E E Q  E E H.
|------------------------|------------------------|
|------------------------|------------------------|
|------------------------|------------------------|
|------------------------|------------------------|
|-2-2-0-2----0-2---------|-2-2-0-2----0-2---------|


  E E E E Q  E E H.        E E E E Q  E E H.
|------------------------|----------------------|
|------------------------|----------------------|
|------------------------|----------------------|
|------------------------|----------------------|
|-2-2-0-2----0-2---------|-2-2-0-2----0-2-------|


 Guitar Solo 2  6:05
  E E E E Q  E E H.        E E E E Q  E E H.
|------------------------|------------------------|
|------------------------|------------------------|
|------------------------|------------------------|
|------------------------|------------------------|
|-2-2-0-2----0-2---------|-2-2-0-2----0-2---------|


  E E E E Q  E E H.        E E E E Q  E E H.
|------------------------|----------------------|
|------------------------|----------------------|
|------------------------|----------------------|
|------------------------|----------------------|
|-2-2-0-2----0-2---------|-2-2-0-2----0-2-------|


   Guitar Solo 3  6:16
    E E E Q.   E Q  E E E E E   E E E Q.   E Q  E E E E E
||----------------------------|---------------------------|
||o---------------------------|---------------------------|
||----------------------------|---------------------------|
||o---------------------------|---------------------------|
||--2-2-0-2----0-2--2-2-2-2-2-|-2-2-0-2----0-2--2-2-2-2-2-|


  E E E Q.   E Q  E E E E E   E E E Q.   E Q  E E E E E
|---------------------------|-------------------------------||
|---------------------------|------------------------------o||
|---------------------------|-------------------------------||
|---------------------------|------------------------------o||
|-2-2-0-2----0-2--2-2-2-2-2-|-2-2-0-2----0-2--2-2-2-2-2-----||


 Interlude 6:38
  S S S S S S S S S S S S S S S S S S S S S S S S S S S S
|---------------------------------------------------------|
|---------------------------------------------------------|
|---------------------------------------------------------|
|-x-x-x-x-x-x-x-x-x-x-x-x-x-x-x-x-x-x-x-x-x-x-x-x-x-x-x-x-|
|---------------------------------------------------------|


   5/4                         4/4
    E s s E s s E E E s s E E   E s s E s s E E E s s
||----------------------------|-----------------------|
||o---------------------------|-----------------------|
||--4-4-4-4-4-4-4-4-4-4-4-4-4-|-5-5-5-5-5-5-5-5-5-5-5-|
||o---------------------------|-----------------------|
||----------------------------|-----------------------|


                             1.                        2.
 5/4                         4/4                       3/4
  E s s E S S E E E S S E E   E s s E s s E E E s s     E s s E s s E E
|---------------------------|------------------------||-----------------|
|---------------------------|-----------------------o||-----------------|
|-2-2-2-2-2-2-2-2-2-2-2-2-2-|-3-3-3-3-3-3-3-3-3-3-3--||-3-3-3-3-3-3-3-3-|
|---------------------------|-----------------------o||-----------------|
|---------------------------|------------------------||-----------------|


 7/8
  S S S S S S S S S S S S S S
|-----------------------------|
|-----------------------------|
|-----------------------------|
|-x-x-x-x-x-x-x-x-x-x-x-x-x-x-|
|-x-x-x-x-x-x-x-x-x-x-x-x-x-x-|


   Chorus 6:56
   4/4
    Q  Q  E E E E   +E  E Q  E E E E   +Q   Q  E E E E   +E  E Q  E E E E
||----------------|------------------|-----------------|------------------|
||o---------------|------------------|-----------------|------------------|
||----------------|------------------|-----------------|----------------4-|
||o-2--2--2-2-2-2-|-(2)-2-2--2-2-2---|-----------------|------------------|
||----------------|----------------3-|-(3)--3--3-3-3-3-|-(3)-3-3--3-3-3---|


  +Q   Q  E E E E   +E  E Q  E E E E   +Q   Q  E E E E   +E  E Q  E E E E
|-----------------|------------------|-----------------|-------------------||
|-----------------|------------------|-----------------|------------------o||
|-(4)--4--4-4-4-4-|-(4)-4-4--4-4-4-0-|-(0)--0--0-0-0-2-|-(2)-2-2--2-2-2-2--||
|-----------------|------------------|-----------------|------------------o||
|-----------------|------------------|-----------------|-------------------||


   Guitar - Chorus Theme 7:21
    Q  Q  E E E E   +E  E Q  E E E E   +Q   Q  E E E E   +E  E Q  E E E E
||----------------|------------------|-----------------|-------------------|
||o---------------|------------------|-----------------|-------------------|
||----------------|------------------|-----------------|----------------4--|
||o-2--2--2-2-2-2-|-(2)-2-2--2-2-2---|-----------------|-------------------|
||----------------|----------------3-|-(3)--3--3-3-3-3-|-(3)-3-3--3-3-3----|


  +Q   Q  E E E E   +E  E Q  E E E E   +Q   Q  E E E E   +E  E Q  E E E E
|-----------------|------------------|-----------------|-------------------||
|-----------------|------------------|-----------------|------------------o||
|-(4)--4--4-4-4-4-|-(4)-4-4--4-4-4-0-|-(0)--0--0-0-0-2-|-(2)-2-2--2-2-2-2--||
|-----------------|------------------|-----------------|------------------o||
|-----------------|------------------|-----------------|-------------------||


Duration Legend
---------------
W - whole; H - half; Q - quarter; E - 8th; S - 16th; T - 32nd; X - 64th; a - acciaccatura
+ - note tied to previous; . - note dotted; .. - note double dotted
Uncapitalized letters represent notes that are staccato (1/2 duration)
Irregular groupings are notated above the duration line
Duration letters will always appear directly above the note/fret number it represents the
duration for.  Duration letters with no fret number below them represent rests.  Multi-
bar rests are notated in the form Wxn, where n is the number of bars to rest for.  Low
melody durations appear below the staff

Tablature Legend
----------------
 h   - hammer-on
 p   - pull-off
 b   - bend
 pb  - pre-bend
 r   - bend release (if no number after the r, then release immediately)
 /\  - slide into or out of (from/to "nowhere")
 s   - legato slide
 S   - shift slide
  - natural harmonic
[n]  - artificial harmonic
n(n) - tapped harmonic
 ~   - vibrato
 tr  - trill
 T   - tap
 TP  - trem. picking
 PM  - palm muting
\n/  - tremolo bar dip; n = amount to dip
 \n  - tremolo bar down
 n/  - tremolo bar up
/n\  - tremolo bar inverted dip
 =   - hold bend; also acts as connecting device for hammers/pulls
 <>  - volume swell (louder/softer)
 x   - on rhythm slash represents muted slash
 o   - on rhythm slash represents single note slash

Misc Legend
-----------
 |  - bar
||  - double bar
||o - repeat start
o|| - repeat end
*|  - double bar (ending)
 :  - bar (freetime)
 $  - Segno
 &  - Coda
Tempo markers -  = BPM(8/16=s8/s16), where s8 = swing 8ths, s16 = swing 16ths


***************************************************************************************
* Generated using Power Tab Editor by Brad Larsen - http://powertab.guitarnetwork.org *
***************************************************************************************
comments
We did not receive enough feedback on this tab! Please rate:
1 2 3 4 5
I want to post or [tab]
guest
You may want to rate the tab now too:
select rating
Please do not post tabs as comments. Select "correction" instead!