Oops, an error
Loading. Please wait.

Black Hills Bass Tab

292 views 1 this week
no commentswrite comment
1 2 3 4 5
excellent!
x 1
Autoscroll
+/-
esc
set tempo
stop
WARNING: You are trying to view
                                    content from Ultimate-Guitar.com
                                    in an unauthorized application,
                                    which is prohibited.

                                    Please use an official Ultimate
                                    Guitar Tabs application for iPhone,
                                    iPad or Android to access legitimate
                                    chords, guitar, bass, and drum tabs
                                    from Ultimate-Guitar.com database.

                                    Type "ultimate guitar tabs" in Apple
                                    App Store's or Android Market's
                                    search to find the application.
#----------------------------------PLEASE NOTE---------------------------------#
#This file is the author's own work and represents their interpretation of the #
#song. You may only use this file for private study, scholarship, or research. #
#------------------------------------------------------------------------------##

                             BLACK HILLS (Bassline)
                        As recorded by Pain of Salvation
               (From the 1998 Album ONE HOUR BY THE CONCRETE LAKE)

Words and Music by Daniel Gildenlöw
Transcribed by Anton Lidström (discoloredcactus@hotmail.com)

Gtr I (B E A D G C) - 'Elec. Bass'
Gtr II (E A D G B E) - 'Keyboard'

 Intro
  Slowly/Moderately Q=77
 4/4
  Gtr I
  Wx2            E Q  E Q  E E   E Q  E Q  E E  4x
|------------||----------------|----------------||
|------------||o---------------|---------------o||
|------------||----------------|----------------||
|------------||----5----5----6-|---5----5----4--||
|------------||o---------------|---------------o||
|------------||--3----3----4---|-3----3----2----||


 Interlude
  Slightly Faster Q.=55
 12/8
  W.              +W.              +W.              +H.      E e E e E e
|---------------|----------------|----------------|-----------------------|
|---------------|----------------|----------------|-----------------------|
|---------------|----------------|----------------|-----------------------|
|---------------|----------------|----------------|-----------------------|
|---------------|----------------|----------------|-----------------------|
|-3-------------|-(3)------------|-(3)------------|-(3)--------4---4---4--|


   1st Verse
                                                      1.
    W.              +W.              +W.              +H.      E e E e E e
||----------------|----------------|----------------|-------------------------||
||o---------------|----------------|----------------|------------------------o||
||----------------|----------------|----------------|-------------------------||
||----------------|----------------|----------------|-------------------------||
||o---------------|----------------|----------------|------------------------o||
||--3-------------|-(3)------------|-(3)------------|-(3)--------4---4---4----||


  2.
 6/8               12/8
  Q.      Q.        H.           E Q   +Q    E   H.           E Q   +Q    E
|----------------||----------------------------|----------------------------|
|----------------||----------------------------|----------------------------|
|----------------||----------------------------|----------------------------|
|----------------||----------------------------|----------------------------|
|-0-------1------||-2------------2-2---(2)---2-|-2------------1-1---(1)---1-|
|----------------||----------------------------|----------------------------|
|
| Gtr II
| E  E E  E  E E    E  E E E E E E E E  E  E E   E  E E E E E E E E  E  E E
|----------------||---------------------5------|--------------4-6-----------|
|-8--7-------9-8-||------7-8-7-----------------|------7-8-7-------8--4------|
|----------------||----6-------6---6-7-----7-6-|----6-------6-----------5---|
|------9-10------||-4------------4-------------|-4------------------------5-|
|----------------||----------------------------|----------------------------|
|----------------||----------------------------|----------------------------|


  H.           E Q   +Q    E
|----------------------------|
|----------------------------|
|----------------------------|
|----------------------------|
|-2------------2-2---(2)---2-|
|----------------------------|
|
| E  E E E E E E E E  E  E E
|---------------------5------|
|------7-8-7-----------------|
|----6-------6---6-7-----7-6-|
|-4------------4-------------|
|----------------------------|
|----------------------------|


                           11/8
  E E E E E E E E E E E E   W
|-------------------------|------------------------||
|-------------------------|------------------------||
|-------------------------|------------------------||
|-------------------------|------------------------||
|-------------------------|------------------------||
|-3-3-3-3-3-3-3-3-3-3-3-3-|------------------------||
|
| E E E E E E E E E E E E   E E E E E E E E E E E
|-------7-----------9-----|-------4-----------5----||
|-----7---7-------7---7---|-----3---3-------3---3--||
|---6-------6---6-------6-|---2-------2---2--------||
|-0-----------0-----------|-0-----------0----------||
|-------------------------|------------------------||
|-------------------------|------------------------||


 1st & 2nd Chorus
  $
 9/8                         2/4       9/8                          2/4
   E  E  E  E  E  E  E  E E    Q   Q     E  E  E  E  E  E  E  E  E    Q   Q
|---------------------------|---------|----------------------------|---------|
|---------------------------|---------|----------------------------|---------|
|---------------------------|---------|----------------------------|---------|
|---------------------------|---------|----------------------------|---------|
|---------------------------|---------|----------------------------|---------|
|--3--3--3--3--3--3--3--3-3-|--4---4--|--3--3--3--3--3--3--3--3--3-|--1---1--|
|
|  E  E  E  E  E  E  E  E E    Q   Q     E  E  E  E  E  E  E  E  E    Q   Q
|-12-------10---------------|---------|-12-------10----------------|---------|
|-------10----------10------|---------|-------10----------10-------|-11--10--|
|----------------10-------9-|-12--10--|----------------11-------11-|---------|
|----12-------12-------12---|---------|----12-------12-------12----|---------|
|---------------------------|---------|----------------------------|---------|
|---------------------------|---------|----------------------------|---------|


 9/8                         2/4
   E  E  E  E  E  E  E  E E    Q   Q
|---------------------------|---------|
|---------------------------|---------|
|---------------------------|---------|
|---------------------------|---------|
|---------------------------|---------|
|--3--3--3--3--3--3--3--3-3-|--4---4--|
|
|  E  E  E  E  E  E  E  E E    Q   Q
|-12-------10---------------|---------|
|-------10----------10------|---------|
|----------------10-------9-|-12--10--|
|----12-------12-------12---|---------|
|---------------------------|---------|
|---------------------------|---------|


                To Coda
 4/4
   E  E  E  E  E  E  E  E    S  S  Q.    +H
|-------------------------|---------------------||
|-------------------------|---------------------||
|-------------------------|---------------------||
|-------------------------|---------------------||
|-------------------------|---------------------||
|--3--3--3--3--3--3--3--3-|--4--4--4-----(4)----||
|
|  E  E  E  E  E  E  E  E    S  S  Q.    +H
|-12-------10-------------|---------------------||
|-------10----------10----|----10-11----(11)----||
|----------------11-------|-12------------------||
|----12-------12-------12-|---------------------||
|-------------------------|---------------------||
|-------------------------|---------------------||


   Interlude                                          2nd Verse
   12/8
    H.      +Q.   +Q   e   H.      E e E e E e         H.      +Q.   +Q   e
||-----------------------|----------------------||-||-------------------------|
||o----------------------|---------------------o||-||o------------------------|
||-----------------------|----------------------||-||-------------------------|
||-----------------------|----------------------||-||-------------------------|
||o----------------------|---------------------o||-||o------------------------|
||--3-------(3)---(3)--3-|-3---------4---4---4--||-||--3-------(3)---(3)--3---|


  1.,2.,3.                4.
                         6/8               12/8
  H.      E e E e E e     Q.      Q.        Q.     +Q    E Q.     +Q    E
|----------------------||----------------||-------------------------------|
|---------------------o||----------------||-------------------------------|
|----------------------||----------------||-------------------------------|
|----------------------||----------------||-------------------------------|
|---------------------o||-0-------1------||-2------(2)---2-2------(2)---2-|
|-3---------4---4---4--||----------------||-------------------------------|
|
| Gtr II
| W                       E  E E  E  E E    E  E E  E  E E E  E E  E  E E
|----------------------||----------------||------------------------5------|
|---------------------o||-8--7-------9-8-||------7--8--7------------------|
|----------------------||----------------||----6---------6----6-7-----7-6-|
|----------------------||------9-10------||-4--------------4--------------|
|---------------------o||----------------||-------------------------------|
|----------------------||----------------||-------------------------------|


  Q.     +Q    E Q.     +Q    E   Q.     +Q    E Q.     +Q    E
|-------------------------------|-------------------------------|
|-------------------------------|-------------------------------|
|-------------------------------|-------------------------------|
|-------------------------------|-------------------------------|
|-2------(2)---2-1------(1)---1-|-2------(2)---2-2------(2)---2-|
|-------------------------------|-------------------------------|
|
| E  E E  E  E E E  E E  E  E E   E  E E  E  E E E  E E  E  E E
|----------------4--6-----------|------------------------5------|
|------7--8--7--------8--4------|------7--8--7------------------|
|----6---------6------------5---|----6---------6----6-7-----7-6-|
|-4---------------------------5-|-4--------------4--------------|
|-------------------------------|-------------------------------|
|-------------------------------|-------------------------------|


                        D.S. al Coda
                           5/8
  E E E E E E E E E E E E   W
|-------------------------|-----------||
|-------------------------|-----------||
|-------------------------|-----------||
|-------------------------|-----------||
|-------------------------|-----------||
|-3-3-3-3-3-3-3-3-3-3-3-3-|-----------||
|
| E E E E E E E E E E E E   E E E E E
|-------7-----------9-----|-------4---||
|-----7---7-------7---7---|-----3---3-||
|---6-------6---6-------6-|---2-------||
|-0-----------0-----------|-0---------||
|-------------------------|-----------||
|-------------------------|-----------||


                          Instrumental Break
                           Moderately Q=93
  &
 4/4                      17/16
   S  S  Q   S  S  H       Q..   +Q   +Q.     +Q..   +Q   +Q.     Wx6
|-----------------------||------------------|-------------------|--------|
|-----------------------||------------------|-------------------|--------|
|-----------------------||------------------|-------------------|--------|
|-----------------------||------------------|-------------------|--------|
|------------2--2--2----||------------------|-------------------|--------|
|--4--4--4--------------||-3-----(3)--(3)---|-(3)----(3)--(3)---|--------|
|
|  S  S  Q   S  S  H       W                   W                  W
|-----------------------||------------------|-------------------|--------|
|----10-11--11-13-14----||------------------|-------------------|--------|
|-12--------------------||------------------|-------------------|--------|
|-----------------------||------------------|-------------------|--------|
|-----------------------||------------------|-------------------|--------|
|-----------------------||------------------|-------------------|--------|


  S S S S S S S S S S S S S S S S S   S S S S S S S S S S S S S S S S S
|-----------------------------------|-----------------------------------|
|-----------------------------------|-----------------------------------|
|-----------------------------------|-----------------------------------|
|-----------------------------------|-----------------------------------|
|-----------------------------------|-----------------------------------|
|-3-3-3-3-3-3-3-3-3-3-3-3-3-3-3-3-3-|-3-3-3-3-3-3-3-3-3-3-3-3-3-3-3-3-3-|


  S S S S S S S S S S S S S S S S S   S S S S S S S S S S S S S S S S S
|-----------------------------------|-----------------------------------||
|-----------------------------------|-----------------------------------||
|-----------------------------------|-----------------------------------||
|-----------------------------------|-----------------------------------||
|-----------------------------------|-----------------------------------||
|-3-3-3-3-3-3-3-3-3-3-3-3-3-3-3-3-3-|-3-3-3-3-3-3-3-3-3-3-3-3-3-3-3-3-3-||


     Q..                    Q           Q.                 3x
||---------------------------------------------------------||
||o-------------------------------------------------------o||
||---------------------------------------------------------||
||---------------------------------------------------------||
||o-------------------------------------------------------o||
||---0----------------------1-----------3------------------||
|
|   Gtr II
|    S    S  S  S  S  S  S  S  S  S  S  S   S  S  S  S  S  3x
||----------17----21-------------19-----------21-----------||
||o------19----19----19-------19----19-----22----22-------o||
||--19------------------19-21----------24-----------24-18--||
||---------------------------------------------------------||
||o-------------------------------------------------------o||
||---------------------------------------------------------||


 16/16
   Q..                    Q           E.       +E
|-----------------------------------------------------|
|-----------------------------------------------------|
|-----------------------------------------------------|
|-----------------------------------------------------|
|-----------------------------------------------------|
|--0----------------------1-----------3--------(3)----|
|
|  S    S  S  S  S  S  S  S  S  S  S  S   S  S  S   S
|---------17----21-------------19-----------21--------|
|------19----19----19-------19----19-----22----22-----|
|-19------------------19-21----------24------------24-|
|-----------------------------------------------------|
|-----------------------------------------------------|
|-----------------------------------------------------|


 2/4
  S E. +Q      S E. +Q      S E. +Q      S E. +Q
|-----------||-----------||-----------||-----------||
|-----------||-----------||-----------||-----------||
|-----------||-----------||-----------||-----------||
|-4-4--(4)--||-7-7--(7)--||-5-5--(5)--||-8-8--(8)--||
|-----------||-----------||-----------||-----------||
|-----------||-----------||-----------||-----------||


  S E. +Q      S E. +Q      S E. +Q     S E. Q
|-----------||-----------||-----------|----------||
|-----------||-----------||-----------|----------||
|-----------||-----------||-----------|------7\--||
|-3-3--(3)--||-6-6--(6)--||-5-5--(5)--|-5-5------||
|-----------||-----------||-----------|----------||
|-----------||-----------||-----------|----------||


  Q   Q     Q   Q      Q  Q     Q  Q
|---------|---------||--------|--------|
|---------|---------||--------|--------|
|----10\--|----10\--||----9\--|----9\--|
|---------|---------||--------|--------|
|-8-------|-8-------||-7------|-7------|
|---------|---------||--------|--------|


                             9/16
  Q  Q     Q  Q      Q  Q     Q  Q   S
|--------|--------||--------|----------||
|--------|--------||--------|----------||
|----8\--|----8\--||----7\--|----7\----||
|--------|--------||--------|----------||
|-6------|-6------||-5------|-5--------||
|--------|--------||--------|--------0-||


 17/16
  Q..   +Q   +Q.     +Q..   +Q   +Q.     +Q..   +Q   +Q.     +Q..   +Q   +Q.
|------------------|-------------------|-------------------|-------------------|
|------------------|-------------------|-------------------|-------------------|
|------------------|-------------------|-------------------|-------------------|
|------------------|-------------------|-------------------|-------------------|
|------------------|-------------------|-------------------|-------------------|
|-3-----(3)--(3)---|-(3)----(3)--(3)---|-(3)----(3)--(3)---|-(3)----(3)--(3)---|


        ~                         ~
    E e E S e e S S S S S S   E e E S e e S S S S S S
||----5-4-------------------|---5-4--------------------||
||o-------5-7-------5-------|-------5-7-------5-------o||
||------------7-5-7---7-5---|-----------7-5-7---7-5----||
||--5---------------------8-|-5---------------------8--||
||o-------------------------|-------------------------o||
||--------------------------|--------------------------||


     E.        T T  S  S  S  S  S  S  S  S  S  S  S  S  S  3x
||---------------------------------------------------------||
||o------------4-4--4-------------------------------------o||
||---------------------4-----5-----------------------------||
||---2--------------------2-----3-----3-----5-----5--0--3--||
||o-------------------------------------------------------o||
||---------------------------------------------------------||
|
|   Gtr II
|    S   S  S  S    S  S  S  S  S  S  S  S  S  S  S  S  S  3x
||---------17------21-------------19----------21-----------||
||o-----19----19------19-------19----19----22----22-------o||
||--19-------------------19-21----------24----------24-18--||
||---------------------------------------------------------||
||o-------------------------------------------------------o||
||---------------------------------------------------------||


 16/16
   E.        T T  S  S  S  S  S  S  S  S  S  S  E
|-----------------------------------------------------||
|------------4-4--4-----------------------------------||
|--------------------4-----5--------------------------||
|--2--------------------2-----3-----3-----5-----5\----||
|-----------------------------------------------------||
|-----------------------------------------------------||
|
|  S   S  S  S    S  S  S  S  S  S  S  S  S  S  S   S
|--------17------21-------------19----------21--------||
|-----19----19------19-------19----19----22----22-----||
|-19-------------------19-21----------24-----------24-||
|-----------------------------------------------------||
|-----------------------------------------------------||
|-----------------------------------------------------||


 2/4
  S E. +Q      S E. +Q      S E. +Q      S E. +Q
|-----------||-----------||-----------||-----------||
|-----------||-----------||-----------||-----------||
|-----------||-----------||-----------||-----------||
|-----------||-----------||-----------||-----------||
|-----------||-----------||-----------||-----------||
|-2-2--(2)--||-5-5--(5)--||-3-3--(3)--||-6-6--(6)--||


  S E. +Q      S E. +Q      S E. +Q     S E. Q
|-----------||-----------||-----------|----------||
|-----------||-----------||-----------|----------||
|-----------||-----------||-----------|----------||
|-----------||-----------||-----------|----------||
|-----------||-----------||-----------|------5\--||
|-1-1--(1)--||-4-4--(4)--||-3-3--(3)--|-3-3------||


   Q                 Q                    Q                 Q
|--------------------------------------|--------------------------------------||
|--------------------------------------|--------------------------------------||
|-------------------10\----------------|-------------------10\----------------||
|--------------------------------------|--------------------------------------||
|--8-----------------------------------|--8-----------------------------------||
|--------------------------------------|--------------------------------------||
|
| Gtr II
|  |------6-------|  |-------6-------|    |------6-------|  |-------6-------|
|  S  S  S  S  S  S  S   S  S  S  S  S    S  S  S  S  S  S  S   S  S  S  S  S
|-------------------20-----------------|-------------------20-----------------||
|----------------21-----21-------------|----------------20-----20-------------||
|-------------20-----------20----------|-------------20-----------20----------||
|----------22-----------------22-------|----------22-----------------22-------||
|-------23-----------------------23----|-------22-----------------------22----||
|-20h23-----------------------------23-|-20h23-----------------------------23-||


   Q                 Q                    Q                 Q
|--------------------------------------|--------------------------------------|
|--------------------------------------|--------------------------------------|
|--------------------9\----------------|--------------------9\----------------|
|--------------------------------------|--------------------------------------|
|--7-----------------------------------|--7-----------------------------------|
|--------------------------------------|--------------------------------------|
|
|  |------6-------|  |-------6-------|    |------6-------|  |-------6-------|
|  S  S  S  S  S  S  S   S  S  S  S  S    S  S  S  S  S  S  S   S  S  S  S  S
|-------------------19-----------------|-------------------19-----------------|
|----------------20-----20-------------|----------------19-----19-------------|
|-------------19-----------19----------|-------------19-----------19----------|
|----------21-----------------21-------|----------21-----------------21-------|
|-------22-----------------------22----|-------21-----------------------21----|
|-19h22-----------------------------22-|-19h22-----------------------------22-|


   Q                 Q                    Q                 Q
|--------------------------------------|--------------------------------------||
|--------------------------------------|--------------------------------------||
|--------------------8\----------------|--------------------8\----------------||
|--------------------------------------|--------------------------------------||
|--6-----------------------------------|--6-----------------------------------||
|--------------------------------------|--------------------------------------||
|
|  |------6-------|  |-------6-------|    |------6-------|  |-------6-------|
|  S  S  S  S  S  S  S   S  S  S  S  S    S  S  S  S  S  S  S   S  S  S  S  S
|-------------------18-----------------|-------------------18-----------------||
|----------------19-----19-------------|----------------18-----18-------------||
|-------------18-----------18----------|-------------18-----------18----------||
|----------20-----------------20-------|----------20-----------------20-------||
|-------21-----------------------21----|-------20-----------------------20----||
|-18h21-----------------------------21-|-18h21-----------------------------21-||


   Q                 Q
|--------------------------------------|
|--------------------------------------|
|--------------------7\----------------|
|--------------------------------------|
|--5-----------------------------------|
|--------------------------------------|
|
|  |------6-------|  |-------6-------|
|  S  S  S  S  S  S  S   S  S  S  S  S
|-------------------17-----------------|
|----------------18-----18-------------|
|-------------17-----------17----------|
|----------19-----------------19-------|
|-------20-----------------------20----|
|-17h20-----------------------------20-|


 3/4
   Q                 Q                  Q
|--------------------------------------------------------||
|--------------------------------------------------------||
|--------------------7\----------------------------------||
|--------------------------------------------------------||
|--5------------------------------------5\---------------||
|--------------------------------------------------------||
|
|  |------6-------|  |-------6-------|  |------6-------|
|  S  S  S  S  S  S  S   S  S  S  S  S  S  S  S  S  S  S
|-------------------17-----------------------------------||
|----------------17-----17----------------------------17-||
|-------------17-----------18----------------------18----||
|----------19-----------------19----------------19-------||
|-------19-----------------------19----------19----------||
|-17h20-----------------------------21-17h21-------------||


 Transition
  A Tempo Q=77
 4/4                     7/8          4/4
  W          +W           +H..         +W
|----------|------------|------------|--------|
|----------|------------|------------|--------|
|----------|------------|------------|--------|
|----------|------------|------------|--------|
|----------|------------|------------|--------|
|-3--------|-(3)--------|-(3)--------|-(3)----|


                           Interlude
 3/4                       4/4
  +H.        S S E H        E Q  E Q  E E   E Q  E Q  E E
|----------|------------||----------------|-----------------||
|----------|------------||o---------------|----------------o||
|----------|------------||----------------|-----------------||
|----------|------------||----5----5----6-|---5----5----4---||
|----------|------------||o---------------|----------------o||
|-(3)------|-3-3--------||--3----3----4---|-3----3----2-----||


   Guitar Solo / Outro
    E Q  E Q  E E   E Q  E Q  E E     W
||----------------|----------------||------*|
||o---------------|---------------o||------*|
||----------------|----------------||------*|
||----5----5----6-|---5----5----4--||------*|
||o---------------|---------------o||------*|
||--3----3----4---|-3----3----2----||-3----*|


Duration Legend
---------------
W - whole; H - half; Q - quarter; E - 8th; S - 16th; T - 32nd; X - 64th; a - acciaccatura
+ - note tied to previous; . - note dotted; .. - note double dotted
Uncapitalized letters represent notes that are staccato (1/2 duration)
Irregular groupings are notated above the duration line
Duration letters will always appear directly above the note/fret number it represents the
duration for.  Duration letters with no fret number below them represent rests.  Multi-
bar rests are notated in the form Wxn, where n is the number of bars to rest for.  Low
melody durations appear below the staff

Tablature Legend
----------------
 h   - hammer-on
 p   - pull-off
 b   - bend
 pb  - pre-bend
 r   - bend release (if no number after the r, then release immediately)
 /\  - slide into or out of (from/to "nowhere")
 s   - legato slide
 S   - shift slide
  - natural harmonic
[n]  - artificial harmonic
n(n) - tapped harmonic
 ~   - vibrato
 tr  - trill
 T   - tap
 TP  - trem. picking
 PM  - palm muting
\n/  - tremolo bar dip; n = amount to dip
 \n  - tremolo bar down
 n/  - tremolo bar up
/n\  - tremolo bar inverted dip
 =   - hold bend; also acts as connecting device for hammers/pulls
 <>  - volume swell (louder/softer)
 x   - on rhythm slash represents muted slash
 o   - on rhythm slash represents single note slash

Misc Legend
-----------
 |  - bar
||  - double bar
||o - repeat start
o|| - repeat end
*|  - double bar (ending)
 :  - bar (freetime)
 $  - Segno
 &  - Coda
Tempo markers -  = BPM(8/16=s8/s16), where s8 = swing 8ths, s16 = swing 16ths


***************************************************************************************
* Generated using Power Tab Editor by Brad Larsen - http://powertab.guitarnetwork.org *
***************************************************************************************
comments
We did not receive enough feedback on this tab! Please rate:
1 2 3 4 5
I want to post or [tab]
guest
You may want to rate the tab now too:
select rating
Please do not post tabs as comments. Select "correction" instead!