Oops, an error
Loading. Please wait.

Water Tab

ver1
ver1

Whole song

Interactive

More versions @911Tabs.com
614 views 1 this week
no commentswrite comment
1 2 3 4 5
please rate
Autoscroll
+/-
esc
set tempo
stop
NEW! There's an official Ultimate Guitar app which is ideal
for learning songs when you're away from computer. Get the app
WARNING: You are trying to view
                                    content from Ultimate-Guitar.com
                                    in an unauthorized application,
                                    which is prohibited.

                                    Please use an official Ultimate
                                    Guitar Tabs application for iPhone,
                                    iPad or Android to access legitimate
                                    chords, guitar, bass, and drum tabs
                                    from Ultimate-Guitar.com database.

                                    Type "ultimate guitar tabs" in Apple
                                    App Store's or Android Market's
                                    search to find the application.
Water
Pain of Salvation
One Hour By The Concrete Lake (1999)

Tabbed by: The Perfect Element

Gtr I (D A D G B E) - 'Distortion'
Gtr II (E A D G B E) - 'Crunch'
Gtr III (D A D G B E) - 'Clean'
Gtr IV (E A D G B E) - 'Clean'
Gtr V (D A D G B E) - 'Solo Guitar'

  Q=73
 11/8
  Gtr I
  S S S S S S S S S S S S S S S S S S S S S S
|---------------------------------------------|
|---------------------------------------------|
|-3---3-3---3---3-3---3---3-3---3---3-3---3---|
|-3---3-3---3---3-3---3---3-3---3---3-3---3---|
|---------------------------------------------|
|-2---2-2---2---2-2---2---2-2---2---2-2---2---|


 17/16
                                        ~~~~~~~
   Q           Q           S S  S  E    E    E
|--------------0----------------------------------|
|--------------3----------------------------------|
|-(2)----------2------------------------3----2----|
|--0----------(0)---------------------------------|
|--0-------------------------0--------------------|
|--0----------------------/3----3--1--------------|
|
| Gtr II
|  S   S S  S  S   S  S S  S S  S  S S  S S  S  S
|-----12---12-----12-12---12---12-12---12---12-12-|
|-----10---10-----10-10---10---10-10---10---10-10-|
|------7----7------7--7----7----7--7----7----7--7-|
|-------------------------------------------------|
|-------------------------------------------------|
|-------------------------------------------------|


                                       ~~~~~~~
   Q           Q          S  S S  E    E    E
|--------------0----------------------------------|
|--------------3----------------------------------|
|-(2)----------2-----------------------3----2-----|
|--0----------(0)---------------------------------|
|--0-------------------------0--------------------|
|--0---------------------/3----3--1---------------|
|
|  S   S S  S  S  S  S S  S  S S  S S  S  S S  S
|-----12---12-12----12---12-12---12---12-12---12--|
|-----10---10-10----10---10-10---10---10-10---10--|
|------7----7--7-----7----7--7----7----7--7----7--|
|-------------------------------------------------|
|-------------------------------------------------|
|-------------------------------------------------|


                                        ~~~~~~~
   Q           Q           S  S S  E    E    E
|--------------0----------------------------------|
|--------------3----------------------------------|
|-(2)----------2------------------------3----2----|
|--0----------(0)---------------------------------|
|--0--------------------------0-------------------|
|--0----------------------/3----3--1--------------|
|
|  S   S  S S  S  S  S  S  S  S S  S  S S  S S  S
|-----12-12---12----12-12----12---12-12---12---12-|
|-----10-10---10----10-10----10---10-10---10---10-|
|------7--7----7-----7--7-----7----7--7----7----7-|
|-------------------------------------------------|
|-------------------------------------------------|
|-------------------------------------------------|


                                        ~~~~~~~
   Q           Q           S S  S  E    E    E
|--------------0----------------------------------|
|--------------3----------------------------------|
|-(2)----------2------------------------3----2----|
|--0----------(0)---------------------------------|
|--0-------------------------0--------------------|
|--0----------------------/3----3--1--------------|
|
|  S   S S  S  S   S  S S  S S  S  S S  S S  S  S
|-----12---12-----12-12---12---12-12---12---12-12-|
|-----10---10-----10-10---10---10-10---10---10-10-|
|------7----7------7--7----7----7--7----7----7--7-|
|-------------------------------------------------|
|-------------------------------------------------|
|-------------------------------------------------|


 4/4
  W                           +W
|---------------------------|-------------------------------|
|---------------------------|-------------------------------|
|---------------------------|-------------------------------|
|-0-------------------------|-(0)---------------------------|
|-0-------------------------|-(0)---------------------------|
|-0-------------------------|-(0)---------------------------|
|
| W                           +W
|-0-------------------------|-(0)---------------------------|
|-3-------------------------|-(3)---------------------------|
|-2-------------------------|-(2)---------------------------|
|-0-------------------------|-(0)---------------------------|
|---------------------------|-------------------------------|
|---------------------------|-------------------------------|
|
| Gtr III
| E S S S S S E E S S S S S    E  S S S S S E E  S  S S S S
|---0-0-0-0-0-0-0-----------|-----0-0-0-0-0-0-0-------------|
|---0-0-0-0-0-0-0-----------|-----0-0-0-0-0-0-0-------------|
|---6-6-6-6-6-6-6-----------|-----6-6-6-6-6-6-6-----------2-|
|---7-7-7-7-7-7-7-----------|-----7-7-7-7-7-7-7---------2---|
|---5-5-5-5-5-5-5---2s4-2p0-|-----5-5-5-5-5-5-5-(0)-2s4-----|
|-0---------------0-2s4-2p0-|--0-----------------0----------|


  Gtr III
  E S S S S S E E S S S S S   E S S S S S E E  S  S S S S
|---0-0-0-0-0-0-0-----------|---0-0-0-0-0-0-0--------------|
|---0-0-0-0-0-0-0-----------|---0-0-0-0-0-0-0--------------|
|---6-6-6-6-6-6-6-----------|---6-6-6-6-6-6-6-----------2--|
|---7-7-7-7-7-7-7-----------|---7-7-7-7-7-7-7---------2----|
|---5-5-5-5-5-5-5---2s4-2p0-|---5-5-5-5-5-5-5-(0)-2s4------|
|-0---------------0-2s4-2p0-|-0----------------0-----------|


  E S S S S S E   E  S S S S S   E     S S S S S E  E    S  S S S S
|---0-0-0-0-0-0---0------------|-------0-0-0-0-0-0--0---------------|
|---0-0-0-0-0-0---0------------|-------0-0-0-0-0-0--0---------------|
|---6-6-6-6-6-6---6------------|-------6-6-6-6-6-6--6-------------2-|
|---7-7-7-7-7-7---7------------|-------7-7-7-7-7-7--7-----------2---|
|---5-5-5-5-5-5---5----2s4-2p0-|-------5-5-5-5-5-5--5---(0)-2s4-----|
|-0------------------0-2s4-2p0-|-0-----------------------0----------|
|
|   "I've always loved..."
|
| Gtr IV
|                      ~~            ~~~~~~~~~~~~~~~~~~~
| E S E   E   E a E.   Q         S a H             +Q..
|------------------------------|------------------------------------|
|------------------------------|------------------------------------|
|---------------4s6------------|-4-4s6-------------(6)--------------|
|---4-4---6---6--------7-------|------------------------------------|
|------------------------------|------------------------------------|
|------------------------------|------------------------------------|


  E S S S S  S  E   E S S S S  S     E   S S S S S E E  S  S  S  S S
|---0-0-0-0--0--0---0-------------|------0-0-0-0-0-0-0---------------|
|---0-0-0-0--0--0---0-------------|------0-0-0-0-0-0-0---------------|
|---6-6-6-6--6--6---6-------------|------6-6-6-6-6-6-6-------------2-|
|---7-7-7-7--7--7---7-------------|------7-7-7-7-7-7-7-----------2---|
|---5-5-5-5--5--5---5---2s4-2p=0--|------5-5-5-5-5-5-5-(0)-2s=4------|
|-0-------------------0-2s4-2p=0--|--0------------------0------------|
|
|                     ~~~~~~~~~~~~             ~~~~~~~~~~~~~~~~~~
| E S S S S  S  E a E Q       +S     S E   E   H             +E.
|---------------------------------|----------------------------------|
|---5-5-5-------------------------|----------------------------------|
|---------4-(4)-4-4s6-------------|----------------------------------|
|---------------------7-------(7)-|-/6-4---4s==2-------------(2)-----|
|---------------------------------|----------------------------------|
|---------------------------------|----------------------------------|


  E S S S S S E   E  S S S S S   E     S S S  S    S E  E  S  S S S S
|---0-0-0-0-0-0---0------------|-------0-0-0--0----0-0--0--------------|
|---0-0-0-0-0-0---0------------|-------0-0-0--0----0-0--0--------------|
|---6-6-6-6-6-6---6------------|-------6-6-6--6----6-6--6-----------2--|
|---7-7-7-7-7-7---7------------|-------7-7-7--7----7-7--7---------2----|
|---5-5-5-5-5-5---5----2s4-2p0-|-------5-5-5--5----5-5--5-(0)-2s4------|
|-0------------------0-2s4-2p0-|-0-------------------------0-----------|
|
|                      ~~            ~~~~~~~~~~~~    ~~
| E S E   E   E a E.   Q         S a Q       +S  a S Q.         S S S
|------------------------------|--------------------------------5------|
|------------------------------|-3-3s5-------(5)-5s7s5------------5----|
|---------------4s6------------|------------------------------------2--|
|---4-4---6---6--------7-------|---------------------------------------|
|------------------------------|---------------------------------------|
|------------------------------|---------------------------------------|


  E S S S S S E   E S S S S  S     E   S S S S S E E  S  S  S  S S
|---0-0-0-0-0-0---0-------------|------0-0-0-0-0-0-0---------------|
|---0-0-0-0-0-0---0-------------|------0-0-0-0-0-0-0---------------|
|---6-6-6-6-6-6---6-------------|------6-6-6-6-6-6-6-------------2-|
|---7-7-7-7-7-7---7-------------|------7-7-7-7-7-7-7-----------2---|
|---5-5-5-5-5-5---5---2s4-2p=0--|------5-5-5-5-5-5-5-(0)-2s=4------|
|-0-----------------0-2s4-2p=0--|--0------------------0------------|
|
|                   ~~~~~~~~~~~~             ~~~~~~~~~~~~~~~~~~
| E S E   E   E a E Q       +S     S E   E   H             +E.
|-------------------------------|----------------------------------|
|---5-5-------------------------|----------------------------------|
|---------4---4-4s6-------------|----------------------------------|
|-------------------7-------(7)-|-/6-4---4s==2-------------(2)-----|
|-------------------------------|----------------------------------|
|-------------------------------|----------------------------------|


 11/16                 7/8
   E   S S E.   E   E       E   S S E.  E   E  E      S
|------0-0-0--------0-|---------0-0-0-------0---------0-|
|------0-0-0--------0-|---------0-0-0-------0---------0-|
|------6-6-6--------9-|---------6-6-6-------9---------9-|
|------7-7-7-------11-|---------7-7-7-------9---------9-|
|------5-5-5---(9)----|---------5-5-5--(7)----(9)-------|
|--0------------------|-----0---------------------------|
|
| Gtr V
|  <            <        <              <   <  <   <
|  ~~~~~~~~~~~~~~~~         ~~~~
|  Q..          Q        a  Q..         E   E  S.  S.
|-12----------/17-----|-17s12---------------------------|
|---------------------|----------------14--17-----------|
|---------------------|-----------------------14--16----|
|---------------------|---------------------------------|
|---------------------|---------------------------------|
|---------------------|---------------------------------|


 11/16
   E   S S E.  E   E
|------0-0-0-------0----|
|------0-0-0-------0----|
|------6-6-6-------9----|
|------7-7-7------11----|
|------5-5-5--(9)-------|
|--0--------------------|
|
|  <
|  ~~~~
|  Q..         E.     S
|-----------------------|
|-----------------------|
|--------------------11-|
|-14--------------------|
|-----------------------|
|-----------------------|


 7/8
   E    S S E.         S S  S        S        E              S
|-------0-0-0------------------------------------------------------|
|-------0-0-0------------------------------------------------------|
|-------6-6-6------------------------2-----------------------------|
|-------7-7-7---------------2-------------------------------(4)----|
|-------5-5-5----------2s4--------------------0--------------------|
|--0---------------------------------------------------------------|
|
|     ~~                                                ~~~~
|                           |--3--|  |--3--|  |3-|
|  T  Q         T S E.      T  T  T  T  T  T  T  S     +S   +S
|------------------------------------------------------------------|
|------------------------------------------------------------------|
|-11s13--------11-9--------------------------11h13b15r(13)-(13)b15-|
|-----------------------------------11h12h14-----------------------|
|--------------------------11h12h14--------------------------------|
|------------------------------------------------------------------|


 11/16                     7/8
    E   S S E.     E    E       E  S  S E.       E     E  E      S
|-------0-0-0-----------0-|--------0--0-0--------------0---------0-|
|-------0-0-0-----------0-|--------0--0-0--------------0---------0-|
|-------6-6-6-----------9-|--------6--6-6--------------9---------9-|
|-------7-7-7----------11-|--------7--7-7--------------9---------9-|
|-------5-5-5-----(9)-----|--------5--5-5-------(7)------(9)-------|
|---0---------------------|-----0----------------------------------|
|
|   ~~~~~
|  +Q..         a  E    E    a  E.    S S  S  S  S  S  E  S   S  S
|-------------------------|----------------------------------------|
|-------------------------|----------------------------------------|
|-(13)r-------------------|----------------------------------------|
|--------------14s16--\11-|-11s14----\9----9s11-------/9-----------|
|-------------------------|---------------------12--------9--12----|
|-------------------------|-------------------------------------12-|


 11/16
   E S S E.  E     E
|----0-0-0---------0-------|
|----0-0-0---------0-------|
|----6-6-6---------9-------|
|----7-7-7--------11-------|
|----5-5-5--(9)------------|
|--0-----------------------|
|
|  H            E     S
|--------------------------|
|--------------------------|
|--------------------13b15r|
|--------------------------|
|-/9-----------------------|
|--------------------------|


 7/8                                                        4/4
    E    S              S   E.    S   S   S  S   E      S     W
|--------0--------------0---0------------------------------|-------|
|--------0--------------0---0------------------------------|-------|
|--------6--------------6---6----------------2-------------|-------|
|--------7--------------7---7-------------2------------(4)-|--0----|
|--------5--------------5---5-----2s==4----------0---------|--0----|
|---0------------------------------------------------------|--0----|
|
|   ~~~~                                                      ~~
|        |-----3-----|  |3|
|  +E   +T      +T   T  S E    E  S   S   S  S   S   S  S     W
|-------------------------------------------19-------------|-------|
|---------------------------------------/15-----17-----17--|-17----|
|-(13)-(13)b15r(13)p11-------------------------(18)-16-----|-18----|
|----------------------14-----------/14--------------------|-------|
|--------------------------------/9------------------------|-------|
|----------------------------------------------------------|-------|


  Gtr I
  PM|   PM|
  S S S T T  S   S   S   E   E. S S S S
|------------0---0---0---0---0----------|
|------------3---3---3---3---3----------|
|------------2---2---2---2---2----------|
|-----------(0)-(0)-(0)-(0)-(0)---------|
|-0-0---------------------------2s4-2p0-|
|-0-0---0-0-----------------------------|
|
|           "I always took it..."
|
| PM|   PM|
| S S S T T  S   S   S   E   E. S S S S
|------------0---0---0---0---0----------|
|------------0---0---0---0---0----------|
|------------6---6---6---6---6----------|
|------------7---7---7---7---7----------|
|-0-0--------5---5---5---5---5--2s4-2p0-|
|-0-0---0-0---------------------2s4-2p0-|


  PM|   PM|
  S S S T T  S   S   S   E   E   S  S S S S
|------------0---0---0---0---0---0----------|
|------------3---3---3---3---3---3--------2-|
|------------2---2---2---2---2---2------2---|
|-----------(0)-(0)-(0)-(0)-(0)-(0)-0h2-----|
|-0-0---------------------------------------|
|-0-0---0-0---------------------------------|
|
| PM|   PM|
| S S S T T  S   S   S   E   E.     S S S S
|------------0---0---0---0---0--------------|
|------------0---0---0---0---0--------------|
|------------6---6---6---6---6------------2-|
|------------7---7---7---7---7----------2---|
|-0-0--------5---5---5---5---5------2s4-----|
|-0-0---0-0---------------------------------|


  PM|   PM|                            ~~~
  S S S T T  S   S   S   E   E  S S S  E
|------------0---0---0---0---0-------------|
|------------3---3---3---3---3-------------|
|------------2---2---2---2---2--------[2]--|
|-----------(0)-(0)-(0)-(0)-(0)-0-2s4------|
|-0-0--------------------------------------|
|-0-0---0-0--------------------------------|
|
| PM|   PM|
| S S S T T  S   S   S   E   E.   S S  S S
|------------0---0---0---0---0-------------|
|------------0---0---0---0---0-------------|
|------------6---6---6---6---6-------------|
|------------7---7---7---7---7-------------|
|-0-0--------5---5---5---5---5----2s4--2p0-|
|-0-0---0-0-----------------------2s4--2p0-|


  PM|   PM|
  S S S T T  S   S   S   E   E   S  S S S S
|------------0---0---0---0---0---0-----------|
|------------3---3---3---3---3---3--------2--|
|------------2---2---2---2---2---2------2----|
|-----------(0)-(0)-(0)-(0)-(0)-(0)-2s4------|
|-0-0----------------------------------------|
|-0-0---0-0----------------------------------|
|
| PM|   PM|
| S S S T T  S   S   S   E   E.     S S S S
|------------0---0---0---0---0---------------|
|------------0---0---0---0---0---------------|
|------------6---6---6---6---6------------2--|
|------------7---7---7---7---7----------2----|
|-0-0--------5---5---5---5---5------2s4------|
|-0-0---0-0----------------------------------|


  PM|   PM|
  S S S T T  S   S   S   E   E. E     +S  S
|------------0---0---0---0---0--------------|
|------------3---3---3---3---3--------------|
|------------2---2---2---2---2--------------|
|-----------(0)-(0)-(0)-(0)-(0)-------------|
|-0-0---------------------------2b4r==(2)p0-|
|-0-0---0-0---------------------------------|
|
| PM|   PM|
| S S S T T  S   S   S   E   E. S   S  S  S
|------------0---0---0---0---0--------------|
|------------0---0---0---0---0--------------|
|------------6---6---6---6---6--------------|
|------------7---7---7---7---7--------------|
|-0-0--------5---5---5---5---5--2s==4--2p=0-|
|-0-0---0-0---------------------2s==4--2p=0-|


  PM|   PM|
  S S S T T  S   S   S   E   E   S  S S S S
|------------0---0---0---0---0---0----------|
|------------3---3---3---3---3---3--------2-|
|------------2---2---2---2---2---2------2---|
|-----------(0)-(0)-(0)-(0)-(0)-(0)-0h2-----|
|-0-0---------------------------------------|
|-0-0---0-0---------------------------------|
|
| PM|   PM|
| S S S T T  S   S   S   E   E.     S S S S
|------------0---0---0---0---0--------------|
|------------0---0---0---0---0--------------|
|------------6---6---6---6---6------------2-|
|------------7---7---7---7---7----------2---|
|-0-0--------5---5---5---5---5------2s4-----|
|-0-0---0-0---------------------------------|


  PM|   PM|
  S S S T T  S   S   S   E   E. S S S S
|------------0---0---0---0---0----------|
|------------3---3---3---3---3----------|
|------------2---2---2---2---2----------|
|-----------(0)-(0)-(0)-(0)-(0)---------|
|-0-0---------------------------2s4-2p0-|
|-0-0---0-0-----------------------------|
|
| PM|   PM|
| S S S T T  S   S   S   E   E. S S S S
|------------0---0---0---0---0----------|
|------------0---0---0---0---0----------|
|------------6---6---6---6---6----------|
|------------7---7---7---7---7----------|
|-0-0--------5---5---5---5---5--2s4-2p0-|
|-0-0---0-0---------------------2s4-2p0-|


  PM|   PM|
  S S S T T  S   S   S   E   E   S  S S S S
|------------0---0---0---0---0---0----------|
|------------3---3---3---3---3---3--------2-|
|------------2---2---2---2---2---2------2---|
|-----------(0)-(0)-(0)-(0)-(0)-(0)-2s4-----|
|-0-0---------------------------------------|
|-0-0---0-0---------------------------------|
|
| PM|   PM|
| S S S T T  S   S   S   E   E.     S S S S
|------------0---0---0---0---0--------------|
|------------0---0---0---0---0--------------|
|------------6---6---6---6---6--------------|
|------------7---7---7---7---7--------------|
|-0-0--------5---5---5---5---5------2s4-2p0-|
|-0-0---0-0-------------------------2s4-2p0-|


 11/16
   Q       E. a E       E
|---------(0)-------------|
|-(2)------2--------------|
|-(2)------2------------2-|
|--0-------0--2s4---------|
|--0----------------------|
|--0----------------------|
|
|  ~~~~~~~~~~~~~~~~~~~~~~~~
|  H               +E.
|-------------------------|
|-10--------------(10)----|
|-12b14===========(12)r---|
|-------------------------|
|-------------------------|
|-------------------------|


**************************************************************
** NOTE: The next measure has been divided into two parts   **
**       to avoid text wraparound in Notepad.               **
**************************************************************

 7/8
   Q      E.                   E                  
|--------(0)-------------------------------------|
|-(2)-----2-------------------(2)----------------|
|-(2)-----2-------------------(2)----------------|
|--0------0--------------------2-----------------|
|--0---------------------------------------------|
|--0---------------------------------------------|
|
|~~~~~~~~~~~~~~~
|                           |---3----|  |--3--|   
|  Q     +S    S     +T   T T     T  T  T  T   T  
|-12b14=(12)r-12b14r(12)-10-9----10-12-10-(9)----|
|---------------------------------------------12-|
|------------------------------------------------|
|------------------------------------------------|
|------------------------------------------------|
|------------------------------------------------|


      E                      E.
|----(0)--------------------(0)----------------|
|-----2----------------------2-----------------|
|-----2----------------------2-----------------|
|----------------------------4-----------------|
|----------------------------------------------|
|----------------------------------------------|
|
|
|  |---3----|  |--3--|     |-----5------|
|  T     T  T  T  T  a  T  T    T  T T  T T  T
|----------------------------------------------|
|-10-----9----------10-11-10----9--------------|
|----------11-(9)-x---------------11-9-11-9-11-|
|----------------------------------------------|
|----------------------------------------------|
|----------------------------------------------|


 11/16
   Q          E.      E          E
|------------(0)----------------(0)----------|
|-(2)---------2------------------2-----------|
|-(2)---------2------------------2-----------|
|--0----------0-------2----------------------|
|--0-----------------------------------------|
|--0-----------------------------------------|
|
|  ~~~~~      ~~~PM----------|
|  E.    T T  E  T  T T  T T  T  S     +T  T
|--------------------------------------------|
|--------------------------------------------|
|-11b13-11-9-11-------9----9-11-11b13r(11)-9-|
|----------------9-11---11-------------------|
|--------------------------------------------|
|--------------------------------------------|


 7/8
                                           ~~~~~
      Q       E.            S  S      S  S E.
|------------(0)-----------------------------------------------|
|----(2)------2--------------------------2---------------------|
|----(2)------2-----------------------2------------------------|
|-----0-------0------------------------------------------------|
|-----0---------------------2s=4-----------2-------------------|
|-----0--------------------------------------------------------|
|
|          ~
|  a  T  T Q      S     +S  S  S     +S  S T    +T  S  S
|--------------------------------------------------------------|
|-----------------------------------------------------14pb15===|
|----11--9-9---------------------------------------------------|
|-11-------------12b14r(12)---11b12r(11)---9b11r(9)------------|
|--------------------------------------------------------------|
|--------------------------------------------------------------|


 11/16                           7/8
    E       E  E        S E  E     Q      E  S  E     E      E.
|-------------(0)-----------(0)-|--------(0)---------(0)----(0)---------|
|--------------2-------------2--|-(2)-----2----(2)----2------2----------|
|--------------2-------------2--|-(2)-----2----(2)----2------2----------|
|--------------0--------0-4-----|--0------0--0--2------------4----------|
|---0-------0-------------------|--0------------------------------------|
|---0-------0-------------------|--0------------------------------------|
|
|   ~~~~~~~~~~~~~~~~~~~~~~~~~~~~~~~~~~~~~~~~~~~~~~~~~        ~~~~~
|  +S   +Q         +Q.             Q..          E.        S  E     T  T
|-------------------------------|-16-----------16-----------------------|
|-(14)r(14)-------(14)\---------|-19b21--------19b21-----19-19b22-19p17-|
|-------------------------------|---------------------------------------|
|-------------------------------|---------------------------------------|
|-------------------------------|---------------------------------------|
|-------------------------------|---------------------------------------|


 11/16
   Q     E.              E                 E
|-------(0)-------------------------------(0)---------------|
|-(2)----2---------------------------------2----------------|
|-(2)----2---------------------------------2----------------|
|--0-----0---------------2----------------------------------|
|--0--------------------------------------------------------|
|--0--------------------------------------------------------|
|
|  ~~~~~~~~~          ~~
|            |--3--|     |-------------11:8---------------|
|  Q    +S   T  T  T  S  T  T  T  T  T  T      T  T  T T  T
|--------------------------------14-16-17-----16-14---------|
|-19---(19)-17-19-17-15-14-15-17--------------------17-x-17-|
|-----------------------------------------------------------|
|-----------------------------------------------------------|
|-----------------------------------------------------------|
|-----------------------------------------------------------|


 7/8
                                                              ~~
   Q                                 E.            S   S  S S E.
|-----------------------------------(0)-------------------------------|
|-(2)--------------------------------2----------------------2---------|
|-(2)--------------------------------2--------------------2-----------|
|--0---------------------------------0------------------------2-------|
|--0-----------------------------------------------2s==4--------------|
|--0------------------------------------------------------------------|
|
|                                                  ~~~~
|  |--3---|  |--3---|
|  T   T  T  S     +T   T  T  S     +S   S  S     +S   E.     S.   S.
|-----------------------------------------------------17\-------------|
|-15--14----14b15r(14)------------------------------------------------|
|--------16------------16-14-16b18r(16)-14-14b16r(14)------------/18--|
|-------------------------------------------------------------7/------|
|---------------------------------------------------------------------|
|---------------------------------------------------------------------|


 4/4
  Gtr IV
   E S S S S S E S S E S S S   E   S S S S S E S S E S  S S
|----------------------------|------------------------------|
|--------1-----------1-------|---------1-----------0--------|
|------0---0-------0---0-----|-------0---0-------0---0------|
|----3-------3---3-------3---|-----3-------3---4--------4---|
|----------------------------|-0----------------------------|
|--1-----------3-----------3-|---------------0------------0-|
|
|  "Water's for the chosen..."
|
|                                                       <
|  ~~                                                   ~~
|  W                           H..                      E
|----------------------------|-------------------------17---|
|----------------------------|------------------------------|
|-14-------------------------|------------------------------|
|----------------------------|------------------------------|
|----------------------------|------------------------------|
|----------------------------|------------------------------|


 4/4
    E  S S S S S E S S E S S S   E S S S S S E S S E S S S
|------------------------------|---------------------------|
|----------1-----------1-------|-------1-----------0-------|
|--------0---0-------0---0-----|-----0---0-------0---0-----|
|------3-------3---3-------3---|---3-------3---4-------4---|
|------------------------------|-0-----------2-----------2-|
|---1------------3-----------3-|---------------------------|
|
|   <
|   ~~~~
|  +W                            W
|-(17)-------------------------|---------------------------|
|------------------------------|---------------------------|
|------------------------------|---------------------------|
|------------------------------|---------------------------|
|------------------------------|---------------------------|
|------------------------------|---------------------------|


 4/4                         7/8
                                            Gtr II
  E S S S S S E S S E S S S   E S S S S S S E. E.
|---------------------0-----|---------------------|
|-------1-----3-----3---3---|-1-----1-------------|
|-----0---0-----0---------0-|---0-----0-----------|
|---2-------2-----2---------|-----2-----2---------|
|-3-------------------------|-------------3-------|
|---------------------------|---------------2--3--|


 17/16
  Gtr I
                                        ~~~~~~~
   Q           Q           S S  S  E    E    E
|--------------0----------------------------------|
|--------------3----------------------------------|
|-(2)----------2------------------------3----2----|
|--0----------(0)---------------------------------|
|--0-------------------------0--------------------|
|--0----------------------/3----3--1--------------|
|
| Gtr II
|  S   S S  S  S   S  S S  S S  S  S S  S S  S  S
|-12--12---12-----12-12---12---12-12---12---12-12-|
|-10--10---10-----10-10---10---10-10---10---10-10-|
|--7---7----7------7--7----7----7--7----7----7--7-|
|-------------------------------------------------|
|-------------------------------------------------|
|-------------------------------------------------|


                                       ~~~~~~~
   Q           Q          S  S S  E    E    E
|--------------0----------------------------------|
|--------------3----------------------------------|
|-(2)----------2-----------------------3----2-----|
|--0----------(0)---------------------------------|
|--0-------------------------0--------------------|
|--0---------------------/3----3--1---------------|
|
|  S   S S  S  S  S  S S  S  S S  S S  S  S S  S
|-----12---12-12----12---12-12---12---12-12---12--|
|-----10---10-10----10---10-10---10---10-10---10--|
|------7----7--7-----7----7--7----7----7--7----7--|
|-------------------------------------------------|
|-------------------------------------------------|
|-------------------------------------------------|


                                        ~~~~~~~
   Q           Q           S  S S  E    E    E
|--------------0----------------------------------|
|--------------3----------------------------------|
|-(2)----------2------------------------3----2----|
|--0----------(0)---------------------------------|
|--0--------------------------0-------------------|
|--0----------------------/3----3--1--------------|
|
|  S   S  S S  S  S  S  S  S  S S  S  S S  S S  S
|-----12-12---12----12-12----12---12-12---12---12-|
|-----10-10---10----10-10----10---10-10---10---10-|
|------7--7----7-----7--7-----7----7--7----7----7-|
|-------------------------------------------------|
|-------------------------------------------------|
|-------------------------------------------------|


                                                  3/8
                                       ~~~~~~~~~~~~~~~       ~~
   Q          Q           S  S  S E    E     E      E  E     E
|-------------0----------------------------------|--------------|
|-------------3----------------------------------|-----7b9---7--|
|-(2)---------2------------------------3-----2---|-/5-----------|
|--0---------(0)---------------------------------|--------------|
|--0-------------------------0-------------------|--------------|
|--0---------------------/3-----3-1--------------|--------------|
|
|                                                  Gtr V
|                                                   ~~       ~~
|  S  S  S S  S   S S  S  S  S  S S  S S  S  S S    E  E     E
|-12----12---12--12---12----12-12---12---12-12---|--------------|
|-10----10---10--10---10----10-10---10---10-10---|----10b12-10--|
|--7-----7----7---7----7-----7--7----7----7--7---|-/8-----------|
|------------------------------------------------|--------------|
|------------------------------------------------|--------------|
|------------------------------------------------|--------------|


 4/4
        PM----|            PM----------|
  E.    T T S  S  Q    +S  T  T S  S S S
|----------------------------------------|
|----------------------------------------|
|----------------------------------------|
|-9---------------9----(9)---------------|
|-9-----9-9-9-10--9----(9)-9--9-9-10-9-7-|
|-9-----9-9-9-10--9----(9)-9--9-9-10-9-7-|
|
| E  E.        E.   E.     E.        E
|----------------------------------------|
|----------------------------------------|
|----6---------7----4------6---------7---|
|----6---------7----4------6---------7---|
|----------------------------------------|
|----------------------------------------|


          PM-----|           PM----------|
   E.     T T S   S Q    +S  T T S  S  S S
|------------------------------------------|
|------------------------------------------|
|------------------------------------------|
|--9----------------9----(9)---------------|
|--9------9-9-9--10-9----(9)-9-9-9-10--9-7-|
|--9------9-9-9--10-9----(9)-9-9-9-10--9-7-|
|
| +S   E.     E.      E.  E.        E.
|------------------------------------------|
|------------------------------------------|
|-(7)-10------9-------6---7---------4------|
|-(7)-10------9-------6---7---------4------|
|------------------------------------------|
|------------------------------------------|


 4/4
     PM-----|            PM----------|
  E. T  T S  S Q     +S  T T S   S S S
|--------------------------------------|
|--------------------------------------|
|--------------------------------------|
|-9------------9-----(9)---------------|
|-9--9--9-9-10-9-----(9)-9-9-9--10-9-7-|
|-9--9--9-9-10-9-----(9)-9-9-9--10-9-7-|
|
|    "In this hot..."
|
| E. E.        E. E.         E.      S
|--------------------------------------|
|--------------------------------------|
|-2--4---------6--7----------4-------6-|
|-2--4---------6--7----------4-------6-|
|--------------------------------------|
|--------------------------------------|


         PM----|            PM----------|
   E.    T T S  S  Q    +S  T  T S  S S S
|------------------------------------------|
|------------------------------------------|
|------------------------------------------|
|--9---------------9----(9)----------------|
|--9-----9-9-9-10--9----(9)-9--9-9-10-9-7--|
|--9-----9-9-9-10--9----(9)-9--9-9-10-9-7--|
|
| +E  E.        E.   E.     E.        E
|------------------------------------------|
|------------------------------------------|
|-(6)-7--------10----9------6---------7----|
|-(6)-7--------10----9------6---------7----|
|------------------------------------------|
|------------------------------------------|


 4/4
         PM-----|           PM----------|
   E.    T T S   S Q    +S  T T S  S  S S
|-----------------------------------------|
|-----------------------------------------|
|-----------------------------------------|
|--9---------------9----(9)---------------|
|--9-----9-9-9--10-9----(9)-9-9-9-10--9-7-|
|--9-----9-9-9--10-9----(9)-9-9-9-10--9-7-|
|
| +S  E.     E.      E.  E.        E.
|-----------------------------------------|
|-----------------------------------------|
|-(7)-4------2-------4---6---------7------|
|-(7)-4------2-------4---6---------7------|
|-----------------------------------------|
|-----------------------------------------|


 9/8
     PM-----|             PM----------------|
  E. T  T S  S Q      +S  T T S   S S S   S S
|----------------------------------------------|
|----------------------------------------------|
|----------------------------------------------|
|-9------------9------(9)----------------------|
|-9--9--9-9-10-9------(9)-9-9-9--10-9-7--10-9--|
|-9--9--9-9-10-9------(9)-9-9-9--10-9-7--10-9--|
|
| E. E.        E.  E.         E.      E.
|----------------------------------------------|
|----------------------------------------------|
|-4--6---------7--10----------9-------6\-------|
|-4--6---------7--10----------9-------6\-------|
|----------------------------------------------|
|----------------------------------------------|


 4/4
   ~~~~~~~~~~~~~~~~~~~~~~~~~~
   Q..   H    +S     Q..   H    T T
|-----------------|-----------------|
|-----------------|-------------x-x-|
|-----------------|-------------x-x-|
|-/4-----2----(2)-|-----------------|
|-----------------|-/4-----5--------|
|-----------------|-----------------|

   "10 feet of sand..."


  ~~~~~~~      ~~~~~~~      ~~~~~~~      ~~~~~~~~~~
  Q  +S  a E a Q  +E. S S   Q  +S  T T S Q  +S  E. T T
|-------------------------|----------------------------|
|-7--(7)-7s9-9s5--(5)-5s7-|----------------------------|
|-------------------------|---------------------7--x-x-|
|-------------------------|----------------------------|
|-------------------------|-4--(4)-x-x-4-5--(5)--------|
|-------------------------|----------------------------|


                  ~~~~~             ~~~~~~~      ~~~~~
  S S S S S T T S E E. S S S T T    Q  +S  S S a E E. S S E
|--------------------------------|--------------------------|
|-7-7-7-7-7-7s5-5-5-5--5-5-5-----|--------------------------|
|--------------------------------|-/6--(6)-6-6-6s7-7--7-7-7-|
|-4-4-4-4-4-4s2-2-2-2--2-2-2-----|--------------------------|
|----------------------------x-x-|-/4--(4)-4-4-4s5-5--5-5-5-|
|--------------------------------|--------------------------|


       ~~         ~~~        ~           ~~~~
  Q    E. Q  +S   Q     Q    E S Q  +S   E  E
|---------------------|------------------------|
|-4----4--------------|----------3--(3)--3--3--|
|-3----3--3--(3)--3---|-2----2-x-2--(2)--2--2--|
|-1----1--3--(3)--3---|-2----2-x-0--(0)--0--0--|
|-1-------1--(1)-(1)--|-0--------0--(0)-(0)----|
|-1-------3--(3)-(3)--|-2--------0--(0)-(0)----|
  Q..     Q  +S  +Q     Q..      Q  +S  +Q


        PM------------|     PM---------------|
    T S S T T S S S S T T S S T T S  S  S  S  T
||----------------------------------------------|
||o---------------------------------------------|
||----------------------------------------------|
||----------------------------------------------|
||o-7-9-9-9-7-9-9-9-9-9-7-9-9-9-7-9-10-10-10-10-|
||--7-9-9-9-7-9-9-9-9-9-7-9-9-9-7-9-10-10-10-10-|


      PM------------|     PM---------------|
  T S S T T S S S S T T S S T T S  S  S  S  T    3x
|------------------------------------------------||
|-----------------------------------------------o||
|------------------------------------------------||
|------------------------------------------------||
|-7-9-9-9-7-9-9-9-9-9-7-9-9-9-7-9-10-10-10-10---o||
|-7-9-9-9-7-9-9-9-9-9-7-9-9-9-7-9-10-10-10-10----||


  T T S T T T T S S S S T T S T T T T S S S S
|---------------------------------------------|
|---------------------------------------------|
|-4-4-4-4-4-4-4-4-4-4-4-4-4-4-4-4-4-4-4-4-4-4-|
|-4-4-4-4-4-4-4-4-4-4-4-4-4-4-4-4-4-4-4-4-4-4-|
|-2-0-2-2-3-2-2-2-2-2-2-2-0-2-2-3-2-2-2-2-2-2-|
|---------------------------------------------|


  T T S T T T T S S S S T T S T T T T S S S S
|-----------------------------------------------|
|-----------------------------------------------|
|-4-4-4-4-4-4-4-4-4-4-4-4-4-4-4-4-4-4-4-4-4-4---|
|-4-4-4-4-4-4-4-4-4-4-4-4-4-4-4-4-4-4-4-4-4-4---|
|-2-0-2-2-3-2-2-2-2-2-2-2-0-2-2-3-2-2-2-2-2-2---|
|-----------------------------------------------|


  T T S T T T T S S S S T T S T T T T S S S S
|---------------------------------------------|
|---------------------------------------------|
|-4-4-4-4-4-4-4-4-4-4-4-4-4-4-4-4-4-4-4-4-4-4-|
|-4-4-4-4-4-4-4-4-4-4-4-4-4-4-4-4-4-4-4-4-4-4-|
|-2-0-2-2-3-2-2-2-2-2-2-2-0-2-2-3-2-2-2-2-2-2-|
|---------------------------------------------|
|
| Gtr IV
| E     S   S   S S S E     S S   E     S S S
|---------------------------------------------|
|---------------1-----------------1-----------|
|-----------0-----0-----------0---------0-----|
|-------3-----------3-------3-------------3---|
|---------------------------------------------|
|-1-------------------3---------------------3-|

   "Water's for the chosen..."


  T T S T T T T S S S S T T S T T T T S S S S
|-----------------------------------------------|
|-----------------------------------------------|
|-4-4-4-4-4-4-4-4-4-4-4-4-4-4-4-4-4-4-4-4-4-4---|
|-4-4-4-4-4-4-4-4-4-4-4-4-4-4-4-4-4-4-4-4-4-4---|
|-2-0-2-2-3-2-2-2-2-2-2-2-0-2-2-3-2-2-2-2-2-2---|
|-----------------------------------------------|
|
| E     S   S   S S S E     S S   E     S S S
|-----------------------------------------------|
|---------------1-----------------0-------------|
|-----------0-----0-----------0---------0-------|
|-------3-----------3-------4-------------4-----|
|-0---------------------------------------------|
|---------------------0---------------------0---|


 4/4
  Gtr IV
  E S S S S S E S S E S S S   E S S S S S E S S E S S S
|---------------------------|---------------------0-----|
|-------1-----------1-------|-------1-----------0---0---|
|-----0---0-------0---0-----|-----0---0-------0-------0-|
|---3-------3---3-------3---|---3-------3---4-----------|
|---------------------------|-0-----------2-------------|
|-1-----------3-----------3-|---------------------------|


 4/4
  E S S S S S E S S E S S S   E S S S S S E S S E S S S
|---------------------------|---------------------------|
|-------1-----------1-------|-------1-----------0-------|
|-----0---0-------0---0-----|-----0---0-------0---0-----|
|---3-------3---3-------3---|---3-------3---4-------4---|
|---------------------------|-0-------------------------|
|-1-----------3-----------3-|-------------0-----------0-|


 4/4
  E S S S S S E S S E S S S   E S S S S S E S S E S S S
|---------------------------|---------------------------|
|-------1-----------1-------|-------1-----------0-------|
|-----0---0-------0---0-----|-----0---0-------0---0-----|
|---3-------3---3-------3---|---3-------3---4-------4---|
|---------------------------|-0-----------2-----------2-|
|-1-----------3-----------3-|---------------------------|


 4/4                         7/8
                                            Gtr II
                                            ~~~~~~
  E S S S S S E S S E S S S   E S S S S S S E. E.
|---------------------0-----|---------------------|
|-------1-----3-----3---3---|-1-----1-------------|
|-----0---0-----0---------0-|---0-----0-----------|
|---2-------2-----2---------|-----2-----2---------|
|-3-------------------------|-------------3-------|
|---------------------------|---------------2--3--|


 17/16
  Gtr I
                                        ~~~~~~~
   Q           Q           S S  S  E    E    E
|--------------0----------------------------------|
|--------------3----------------------------------|
|-(2)----------2------------------------3----2----|
|--0----------(0)---------------------------------|
|--0-------------------------0--------------------|
|--0----------------------/3----3--1--------------|
|
| Gtr II
|  S   S S  S  S   S  S S  S S  S  S S  S S  S  S
|-12--12---12-----12-12---12---12-12---12---12-12-|
|-10--10---10-----10-10---10---10-10---10---10-10-|
|--7---7----7------7--7----7----7--7----7----7--7-|
|-------------------------------------------------|
|-------------------------------------------------|
|-------------------------------------------------|


                                       ~~~~~~~
   Q           Q          S  S S  E    E    E
|--------------0----------------------------------|
|--------------3----------------------------------|
|-(2)----------2-----------------------3----2-----|
|--0----------(0)---------------------------------|
|--0-------------------------0--------------------|
|--0---------------------/3----3--1---------------|
|
|  S   S S  S  S  S  S S  S  S S  S S  S  S S  S
|-----12---12-12----12---12-12---12---12-12---12--|
|-----10---10-10----10---10-10---10---10-10---10--|
|------7----7--7-----7----7--7----7----7--7----7--|
|-------------------------------------------------|
|-------------------------------------------------|
|-------------------------------------------------|


                                        ~~~~~~~
   Q           Q           S  S S  E    E    E
|--------------0----------------------------------|
|--------------3----------------------------------|
|-(2)----------2------------------------3----2----|
|--0----------(0)---------------------------------|
|--0--------------------------0-------------------|
|--0----------------------/3----3--1--------------|
|
|  S   S  S S  S  S  S  S  S  S S  S  S S  S S  S
|-----12-12---12----12-12----12---12-12---12---12-|
|-----10-10---10----10-10----10---10-10---10---10-|
|------7--7----7-----7--7-----7----7--7----7----7-|
|-------------------------------------------------|
|-------------------------------------------------|
|-------------------------------------------------|


                                       ~~~~~~~~
   Q          Q           S  S  S E    E     E
|-------------0----------------------------------|
|-------------3----------------------------------|
|-(2)---------2------------------------3-----2---|
|--0---------(0)---------------------------------|
|--0-------------------------0-------------------|
|--0---------------------/3-----3-1--------------|
|
|  S  S  S S  S   S S  S  S  S  S S  S S  S  S S
|-12----12---12--12---12----12-12---12---12-12---|
|-10----10---10--10---10----10-10---10---10-10---|
|--7-----7----7---7----7-----7--7----7----7--7---|
|------------------------------------------------|
|------------------------------------------------|
|------------------------------------------------|


 4/4
  W                           +W
|---------------------------|-------------------------------|
|---------------------------|-------------------------------|
|---------------------------|-------------------------------|
|-0-------------------------|-(0)---------------------------|
|-0-------------------------|-(0)---------------------------|
|-0-------------------------|-(0)---------------------------|
|
| W                           +W
|-0-------------------------|-(0)---------------------------|
|-3-------------------------|-(3)---------------------------|
|-2-------------------------|-(2)---------------------------|
|-0-------------------------|-(0)---------------------------|
|---------------------------|-------------------------------|
|---------------------------|-------------------------------|
|
| Gtr III
| E S S S S S E E S S S S S    E  S S S S S E E  S  S S S S
|---0-0-0-0-0-0-0-----------|-----0-0-0-0-0-0-0-------------|
|---0-0-0-0-0-0-0-----------|-----0-0-0-0-0-0-0-------------|
|---6-6-6-6-6-6-6-----------|-----6-6-6-6-6-6-6-----------2-|
|---7-7-7-7-7-7-7-----------|-----7-7-7-7-7-7-7---------2---|
|---5-5-5-5-5-5-5---2s4-2p0-|-----5-5-5-5-5-5-5-(0)-2s4-----|
|-0---------------0-2s4-2p0-|--0-----------------0----------|


  Gtr III
  E S S S S S E   E  S S S S S
|---0-0-0-0-0-0---0------------*|
|---0-0-0-0-0-0---0------------*|
|---6-6-6-6-6-6---6------------*|
|---7-7-7-7-7-7---7------------*|
|---5-5-5-5-5-5---5----2s4-2p0-*|
|-0------------------0-2s4-2p0-*|
|
| Gtr IV
|                      ~~
| E S E   E   E a E.   Q
|------------------------------*|
|------------------------------*|
|---------------4s6------------*|
|---4-4---6---6--------7-------*|
|------------------------------*|
|------------------------------*|


Duration Legend
---------------
W - whole; H - half; Q - quarter; E - 8th; S - 16th; T - 32nd; X - 64th; a - acciaccatura
+ - note tied to previous; . - note dotted; .. - note double dotted
Uncapitalized letters represent notes that are staccato (1/2 duration)
Irregular groupings are notated above the duration line
Duration letters will always appear directly above the note/fret number it represents the
duration for.  Duration letters with no fret number below them represent rests.  Multi-
bar rests are notated in the form Wxn, where n is the number of bars to rest for.  Low
melody durations appear below the staff

Tablature Legend
----------------
 h   - hammer-on
 p   - pull-off
 b   - bend
 pb  - pre-bend
 r   - bend release (if no number after the r, then release immediately)
 /\  - slide into or out of (from/to "nowhere")
 s   - legato slide
 S   - shift slide
  - natural harmonic
[n]  - artificial harmonic
n(n) - tapped harmonic
 ~   - vibrato
 tr  - trill
 T   - tap
 TP  - trem. picking
 PM  - palm muting
\n/  - tremolo bar dip; n = amount to dip
 \n  - tremolo bar down
 n/  - tremolo bar up
/n\  - tremolo bar inverted dip
 =   - hold bend; also acts as connecting device for hammers/pulls
 <>  - volume swell (louder/softer)
 x   - on rhythm slash represents muted slash
 o   - on rhythm slash represents single note slash

Misc Legend
-----------
 |  - bar
||  - double bar
||o - repeat start
o|| - repeat end
*|  - double bar (ending)
 :  - bar (freetime)
 $  - Segno
 &  - Coda
Tempo markers -  = BPM(8/16=s8/s16), where s8 = swing 8ths, s16 = swing 16ths
comments
We did not receive enough feedback on this tab! Please rate:
print report bad tab
1 2 3 4 5
I want to post or [tab]
guest
You may want to rate the tab now too:
select rating
Please do not post tabs as comments. Select "correction" instead!