Oops, an error
Loading. Please wait.

Porque Todavia Podemos Decir Una Vez Mas Tab

ver1
ver1

Whole song

Interactive

More versions @911Tabs.com
39,458 views 39 this week
3 commentsread comments
1 2 3 4 5
accurate
x 6
Autoscroll
+/-
esc
set tempo
stop
Contributor
Difficulty
intermediate
Hey! There's an official Ultimate Guitar app which is ideal
for learning songs when you're away from computer. Get the app
WARNING: You are trying to view
                                    content from Ultimate-Guitar.com
                                    in an unauthorized application,
                                    which is prohibited.

                                    Please use an official Ultimate
                                    Guitar Tabs application for iPhone,
                                    iPad or Android to access legitimate
                                    chords, guitar, bass, and drum tabs
                                    from Ultimate-Guitar.com database.

                                    Type "ultimate guitar tabs" in Apple
                                    App Store's or Android Market's
                                    search to find the application.

.= palm muting (ahogar las cuerdas)

Tuning: Standard

 Versos:
e|-------------------------------------|
B|----0-------0-------0-4-0---0-2-0----|
G|---4-4-4---4-4-4---4-------4---------|
D|--2---2---2---2---2-------2----------|
A|-----------------0-------0-----------|
E|-0-------4---------------------------|

 Pre-coro("se que cosas que aclarar...) X3
e|-----0---------0------------------------|
B|----------------------------------------|
G|---6--6-6----6--6-6---------------------|
D|--6-6--6----6-6--6----------------------|
A|-4---------0----------------------------|
E|----------------------------------------|

 ..."Sigue igual"
e|-0------------------|
B|-0------------------|
G|-2------------------| déjalas sonar.
D|-2------------------|
A|-0------------------|
E|-x------------------|

 Coro(Saca tu los tiempos y ritmo):
e|-0--0--0--0---------------------------------------------|
B|-0--0--0--0---------------------------------------------|
G|-2--2--6--4---------------------------------------------|
D|-2--2--6--4---------------------------------------------|
A|-0--1--4--2---------------------------------------------|
E|-------x--x---------------------------------------------|

 Para acabar el primer coro en "no me dejes dudando..."
e|-------------------------------------------------------|
B|-------------------------------------------------------|
G|-22222222----------------------------------------------|
D|-22222222----------------------------------------------|
A|-00000000----------------------------------------------|
E|-........----------------------------------------------|

Después :
verso
pre-coro
coro(también en el "no me dejes dudando")

Outro:
e|----------00000000-0-------------------------|
B|----------00000000-0-------------------------|
G|-22222222-22222222-1-------------------------|
D|-22222222-22222222-2-------------------------|
A|-00000000-00000000-2-------------------------|
E|-........----------0-------------------------|


comments
print report bad tab
3 comments total.
0 reply
omertoscar wrote on August 3 2006, 04:19 pm

Tambien me arrepiento de haber puesto este tab de una rola extremadamente plaguiada de los bright eyes llamada"messenger birds song" panda suxx :(

0 reply
guitarhead93 wrote on November 29 2006, 07:14 pm

Oye esos acordes q has usado stan mal!!! El coro deberia ser así:

e--X--X--X--X--
B--0--0--0--0--
G--4--4--4--4--
D--2--2--2--2--
A--0--4--2--0--
E--X--X--X--X--

Tócalo y vas a ver q suena mejor (casi todo este tab sta mal!!).
2 estrellas(me gusto tu opinion y el intro)

0 reply
unlikereggaeton wrote on February 13 2007, 06:20 pm

el coro esta todo malogrado...

I want to post or [tab]
guest
You may want to rate the tab now too:
select rating
Please do not post tabs as comments. Select "correction" instead!