Oops, an error
Loading. Please wait.

Behind The Sea Tab

ver2
ver2

Whole song

More versions @911Tabs.com
506 views 9 this week
no commentswrite comment
1 2 3 4 5
excellent!
x 1
Autoscroll
+/-
esc
set tempo
stop
Difficulty
intermediate
WARNING: You are trying to view
                                    content from Ultimate-Guitar.com
                                    in an unauthorized application,
                                    which is prohibited.

                                    Please use an official Ultimate
                                    Guitar Tabs application for iPhone,
                                    iPad or Android to access legitimate
                                    chords, guitar, bass, and drum tabs
                                    from Ultimate-Guitar.com database.

                                    Type "ultimate guitar tabs" in Apple
                                    App Store's or Android Market's
                                    search to find the application.
-------------------------------------------------------------------------------
Behind the Sea (Alternate Version) – Panic! At The Disco
-------------------------------------------------------------------------------
Email: ls.voller@hotmail.co.uk

Tuning: Standard, Capo 7th fret


Intro
e|-------2-----------0---------0---------2-----------0---------0-------------|
B|-------------3-----------3-------------------3-----------3-----------------|
G|-------2-------2-------2-------2-------2-------2-------2-------2-----------|
D|---0-------0-------0-------0-------0-------0-------0-------0---------------|
A|---------------------------------------------------------------------------|
E|---------------------------------------------------------------------------|

Verse
e|-------2-----------0---------0---------2-----------0---------0-------------|
B|-------------3-----------3-------------------3-----------3-----------------|
G|-------2-------2-------2-------2-------2-------2-------2-------2-----------|
D|---0-------0-------0-------0-------0-------0-------0-------0---------------|
A|---------------------------------------------------------------------------|
E|---------------------------------------------------------------------------|

e|-------------------0-------------------------------------------------------|
B|-------3-----------------3-------------3-----------------3-----------------|
G|-------------4---------------4---------------0-----3---------3-------------|
D|-------4-------4-------4-------4-------0-------0-------0-------0-----------|
A|---2-------2-------2-------2-----------------------------------------------|
E|-----------------------------------3-------3-------3-------3---------------|


e|-------2-----------0---------0---------2-----------0---------0-------------|
B|-------------3-----------3-------------------3-----------3-----------------|
G|-------2-------2-------2-------2-------2-------2-------2-------2-----------|
D|---0-------0-------0-------0-------0-------0-------0-------0---------------|
A|---------------------------------------------------------------------------|
E|---------------------------------------------------------------------------|

e|-------------------0-------------------------------------------------------|
B|-------3-----------------3-------------3-----------------3-----------------|
G|-------------4---------------4---------------0-----3---------3-------------|
D|-------4-------4-------4-------4-------0-------0-------0-------0-----------|
A|---2-------2-------2-------2-----------------------------------------------|
E|-----------------------------------3-------3-------3-------3-------3-------|

Chorus
e|-------5-------------------------------------------------------------------|
B|-------------3---------3---------------2---------------3-------------------|
G|-------2-------2-------------4---------------2---------------4-------------|
D|---0-------0-----------4-------4-------4-------4-------4-------4-----------|
A|-------------------2-------2-------4-------4-------2-------2---------------|
E|---------------------------------------------------------------------------|

e|-----------------------2---------------------------0-----------------------|
B|-------2---------------------3---------0-----2-----------0---2-------------|
G|-------------2---------2-------2-------------------------------------------|
D|-------4-------4---0-------0-----------2-------2-------2-------2-----------|
A|---4-------4-----------------------0-------0-------0-------0---------------|
E|---------------------------------------------------------------------------|

e|-------5-------------------------------------------------------------------|
B|-------------3---------3---------------2---------------3-------------------|
G|-------2-------2-------------4---------------2---------------4-------------|
D|---0-------0-----------4-------4-------4-------4-------4-------4-----------|
A|-------------------2-------2-------4-------4-------2-------2---------------|
E|---------------------------------------------------------------------------|

e|-----------------------2---------------------------0-----------------------|
B|-------2---------------------3---------0-----2-----------0---2-------------|
G|-------------2---------2-------2-------------------------------------------|
D|-------4-------4---0-------0-----------2-------2-------2-------2-----------|
A|---4-------4-----------------------0-------0-------0-------0---------------|
E|---------------------------------------------------------------------------|

e|-------2---------------------------0---------------------------------------|
B|-------------3-----3---3-----------0---------------------------------------|
G|-------2-------2---4---4-----------2---------------------------------------|
D|---0-------0-------4---4-----------2---------------------------------------|
A|-------------------2---2-----------0---------------------------------------|
E|---------------------------------------------------------------------------|


Repeat Verse


Bridge
e|-----------2---------2-------2-------------2---------2-------2-------------|
B|-----------------3-------3-------3---------------3-------3-------3---------|
G|---------------2-------2-------2-----------2-------2-------2---------------|
D|---0-------0-------0-------0-------0-----------0-------0-------0-----------|
A|---------------------------------------------------------------------------|
E|---------------------------------------------------------------------------|

e|-------------------0---------------------------------------0---------------|
B|-------------0-----------0-----------------0-----------0---0---------------|
G|-------5---------------------5---------0-----------0-------2---------------|
D|-------5-------5-------5-------5---2-----------0-----------2---------------|
A|---0-------0-------0-------0-------------------------------0---------------|
E|---------------------------------------------------------------------------|

e|---------------------------0-----------------------------------------------|
B|-----------0-----------0---0-----------------------------------------------|
G|-------0-----------0-------2-----------------------------------------------|
D|---2-----------0-----------2-----------------------------------------------|
A|---------------------------0-----------------------------------------------|
E|---------------------------------------------------------------------------|

Chorus
e|-------2-------------------------------------------------------------------|
B|-------------3---------3---------------2---------------3-------------------|
G|-------2-------2-------------4---------------2---------------4-------------|
D|---0-------0-----------4-------4-------4-------4-------4-------4-----------|
A|-------------------2-------2-------4-------4-------2-------2---------------|
E|---------------------------------------------------------------------------|

e|-------2-------------------------------------------0-----------------------|
B|-------------2---------3---------------0-----2-----------0---2-------------|
G|-------2---------------------2---------------------------------------------|
D|---------------4-------4-------4-------2-------2-------2-------2-----------|
A|---4-------4-------2-------2-------0-------0-------0-------0---------------|
E|---------------------------------------------------------------------------|

e|-------5-------------------------------------------------------------------|
B|-------------3---------3---------------2---------------3-------------------|
G|-------2-------2-------------4---------------2---------------4-------------|
D|---0-------0-----------4-------4-------4-------4-------4-------4-----------|
A|-------------------2-------2-------4-------4-------2-------2---------------|
E|---------------------------------------------------------------------------|

e|-----------------------5---------------------------0-----------------------|
B|-------2---------------------3---------0-----0-----------0---2-------------|
G|-------------2---------2-------2-------------------------------------------|
D|-------4-------4---0-------0-----------2-------2-------2-------2-----------|
A|---4-------4-----------------------0-------0-------0-------0---------------|
E|---------------------------------------------------------------------------|

e|-------2-----------------------------------------0-------0-----------------|
B|-------------3---------3---------------0-----2-------2-------2-------------|
G|-------2-------2-------------4---------------------------------------------|
D|---0-------0-----------4-------4-------2-------2-------2-------2-----------|
A|-------------------2-------2-------0-------0-------0-------0---------------|
E|---------------------------------------------------------------------------|

e|-------2---------------------------0---------------------------------------|
B|-------------3-----3---3-----------0---------------------------------------|
G|-------2-------2---4---4-----------2---------------------------------------|
D|---0-------0-------4---4-----------2---------------------------------------|
A|-------------------2---2-----------0---------------------------------------|
E|---------------------------------------------------------------------------|
comments
We did not receive enough feedback on this tab! Please rate:
print report bad tab
1 2 3 4 5
I want to post or [tab]
guest
You may want to rate the tab now too:
select rating
Please do not post tabs as comments. Select "correction" instead!