Oops, an error
Loading. Please wait.

I Write Sins Not Tragedies Bass Tab

ver1
ver1

Whole song

Interactive

More versions @911Tabs.com
29,166 views 129 this week
10 commentsread comments
1 2 3 4 5
accurate
x 13
Autoscroll
+/-
esc
set tempo
stop
Contributor
Difficulty
Tuning
novice
D A D G B E
WARNING: You are trying to view
                                    content from Ultimate-Guitar.com
                                    in an unauthorized application,
                                    which is prohibited.

                                    Please use an official Ultimate
                                    Guitar Tabs application for iPhone,
                                    iPad or Android to access legitimate
                                    chords, guitar, bass, and drum tabs
                                    from Ultimate-Guitar.com database.

                                    Type "ultimate guitar tabs" in Apple
                                    App Store's or Android Market's
                                    search to find the application.
Original contributor: Julioman
New Contributor: Teh D Bot
Original Tab at bottom


Verse 0:10
G|--2-----------------------------------------------------------5---|
D|o-----------------------------------------------------------------|
A|o-----------------------------------------------------------------|
D|------------------------------------------------------------------|
    1 + 2 + 3 + 4 + 1 + 2 + 3 + 4 + 1 + 2 + 3 + 4 + 1 + 2 + 3 + 4 +

G|-----------------------------2------------------------------------|
D|-4-------------------------------3-------------------------------o|
A|-----------------------------------------------------------------o|
D|------------------------------------------------------------------|
   1 + 2 + 3 + 4 + 1 + 2 + 3 + 4 + 1 + 2 + 3 + 4 + 1 + 2 + 3 + 4 +

Chorus 0:32
G|-----------------------------------------------------------------|
D|-----------------------------------------------------------------|
A|-0---------0---0-------------------------------------------------|
D|-----------------3---3---3-3-3-3-0---------0---0-0---0---0-5-5-5-|
   1 + 2 + 3 + 4 + 1 + 2 + 3 + 4 + 1 + 2 + 3 + 4 + 1 + 2 + 3 + 4 +

G|-----------------------------------------------------------------|
D|-----------------------------------------------------------------|
A|-0---------0---0-------------------------------------------------|
D|-----------------3---3---3-3-3-3-0---------0---0-0-0-0-5-5-5-5-5-|
   1 + 2 + 3 + 4 + 1 + 2 + 3 + 4 + 1 + 2 + 3 + 4 + 1 + 2 + 3 + 4 +

G|-----------------------------------------------------------------|
D|-----------------------------------------------------------5-5-5-|
A|-0---------0-0-0---------------------------------5---5---5-------|
D|-----------------3---3---3-3-3-3-0---0---0-0-0-0-----------------|
   1 + 2 + 3 + 4 + 1 + 2 + 3 + 4 + 1 + 2 + 3 + 4 + 1 + 2 + 3 + 4 +

G|-----------------------------------------------------------------|
D|-----------------------------------------------------------------|
A|-0---0-----0-0-0-------------------------------------------------|
D|-----------------3---3---3-3-3-3-0---0-----0-0---0---0---0-5-5-5-|
   1 + 2 + 3 + 4 + 1 + 2 + 3 + 4 + 1 + 2 + 3 + 4 + 1 + 2 + 3 + 4 +

Verse 0:55
G|-2-----------------------------------------------------------5---|
D|-----------------------------------------------------------------|
A|-----------------------------------------------------------------|
D|-----------------------------------------------------------------|
   1 + 2 + 3 + 4 + 1 + 2 + 3 + 4 + 1 + 2 + 3 + 4 + 1 + 2 + 3 + 4 +

G|-----------------------------2-----------------------------------|
D|-4---------4-----4-4-------4-----3---------3-----3-3-------3-----|
A|-----------------------------------------------------------------|
D|-----------------------------------------------------------------|
   1 + 2 + 3 + 4 + 1 + 2 + 3 + 4 + 1 + 2 + 3 + 4 + 1 + 2 + 3 + 4 +

G|-------------------------------------------------------------5---|
D|-----------------------------------------------------------------|
A|-0-0-------0-----0-0-------0-----0-0-------0-----0-0-------0-----|
D|-----------------------------------------------------------------|
   1 + 2 + 3 + 4 + 1 + 2 + 3 + 4 + 1 + 2 + 3 + 4 + 1 + 2 + 3 + 4 +


G|-----------------------------2-----------------------------------|
D|-4-4-------4-----4-4-------4-----3-3-------3-----3---3---3---3---|
A|-----------------------------------------------------------------|
D|-----------------------------------------------------------------|
   1 + 2 + 3 + 4 + 1 + 2 + 3 + 4 + 1 + 2 + 3 + 4 + 1 + 2 + 3 + 4 +

Interlude 1:19
G|-----------------------------------------------------------------|
D|-3-3-3-3-3-3-3-3-3-3-3-3-0-0-0-0---------------------------------|
A|---------------------------------2-2-2-2-2-2-2-2-2-2-2-2-2-2-2-2-|
D|-----------------------------------------------------------------|
   1 + 2 + 3 + 4 + 1 + 2 + 3 + 4 + 1 + 2 + 3 + 4 + 1 + 2 + 3 + 4 +

G|-----------------------------------------------------------------|
D|-3-3-3-3-3-3-3-3-3-3-3-3-7-7-7-7---------------------------------|
A|---------------------------------5-5-5-5-5-5-5-5-5-5-5-5-5-5-5-5-|
D|-----------------------------------------------------------------|
   1 + 2 + 3 + 4 + 1 + 2 + 3 + 4 + 1 + 2 + 3 + 4 + 1 + 2 + 3 + 4 +

Chorus 1:29
G|-----------------------------------------------------------------|
D|-----------------------------------------------------------5-5-5-|
A|-0---0-----0-0-0---------------------------------5---5---5-------|
D|-----------------3---3-3-3-3-3-3-0---0-----0-0-0-----------------|
   1 + 2 + 3 + 4 + 1 + 2 + 3 + 4 + 1 + 2 + 3 + 4 + 1 + 2 + 3 + 4 +

G|-----------------------------------------------------------------|
D|-----------------------------------------------------------------|
A|-0---0-----0-0-0-------------------------------------------------|
D|-----------------3---3---3-3-3-3-0---0-----0-0---0---0---0-5-5-5-|
   1 + 2 + 3 + 4 + 1 + 2 + 3 + 4 + 1 + 2 + 3 + 4 + 1 + 2 + 3 + 4 +

G|-----------------------------------------------------------------|
D|-----------------------------------------------------------5-5-5-|
A|-0---0-----0-0-0---------------------------------5---5---5-------|
D|-----------------3---3---3-3-3-3-0---0-----0-0-0-----------------|
   1 + 2 + 3 + 4 + 1 + 2 + 3 + 4 + 1 + 2 + 3 + 4 + 1 + 2 + 3 + 4 +

G|-----------------------------------------------------------------|
D|-----------------------------------------------------------------|
A|-0---0-----0-0-0-------------------------------------------------|
D|-----------------3---3---3-3-3-3-0---0-----0-0---0---0---0-0-0-0-|
   1 + 2 + 3 + 4 + 1 + 2 + 3 + 4 + 1 + 2 + 3 + 4 + 1 + 2 + 3 + 4 +

Bridge 1:52
G|-----------------------------------------------------------------|
D|-----------------------------------------------------------------|
A|---------------------------------2-2-2-2---2-2---2---2---2---2---|
D|-3-3-3-3---3-3---3---3---0---0-----------------------------------|
   1 + 2 + 3 + 4 + 1 + 2 + 3 + 4 + 1 + 2 + 3 + 4 + 1 + 2 + 3 + 4 +

G|-----------------------------------------------------------------|
D|-----------------------------------------------------------------|
A|-----------------------------------------------------------------|
D|-3-3-3-3---3-3---3---3---5-5-5-5-0-0-0-0---0-0---0---0---0---0---|
   1 + 2 + 3 + 4 + 1 + 2 + 3 + 4 + 1 + 2 + 3 + 4 + 1 + 2 + 3 + 4 +

G|-----------------------------------------------------------------|
D|-----------------------------------------------------------------|
A|-------------------------2---2-2-3-3-3-3---3-3-3-3---3---3---3---|
D|-3-3-3-3---3-3-3-3---3-3-----------------------------------------|
   1 + 2 + 3 + 4 + 1 + 2 + 3 + 4 + 1 + 2 + 3 + 4 + 1 + 2 + 3 + 4 +

G|---------------------------------|
D|---------------------------------|
A|---------------------------------|
D|-3---3---3---3---3---3---3---3---|
   1 + 2 + 3 + 4 + 1 + 2 + 3 + 4 + 

Chorus 2:12
G|-----------------------------------------------------------------|
D|-----------------------------------------------------------------|
A|-0---------0---0-------------------------------------------------|
D|-----------------3---3---3-3-3-3-0---------------0---0---0-5-5-5-|
   1 + 2 + 3 + 4 + 1 + 2 + 3 + 4 + 1 + 2 + 3 + 4 + 1 + 2 + 3 + 4 +

G|-----------------------------------------------------------------|
D|-----------------------------------------------------------------|
A|-0---------0---0-------------------------------------------------|
D|-----------------3---3---3-3-3-3-0---------0---0-0---------------|
   1 + 2 + 3 + 4 + 1 + 2 + 3 + 4 + 1 + 2 + 3 + 4 + 1 + 2 + 3 + 4 +

G|-----------------------------------------------------------------|
D|-----------------------------------------------------------------|
A|-0---------0---0-------------------------------------------------|
D|-----------------3---3---3-3-3-3-0---------0---0-0---0---0-5-5-5-|
   1 + 2 + 3 + 4 + 1 + 2 + 3 + 4 + 1 + 2 + 3 + 4 + 1 + 2 + 3 + 4 +

G|-----------------------------------------------------------------|
D|-----------------------------------------------------------------|
A|-0---------0---0---------------------------------5-5-5-5-5-5-5-5-|
D|-----------------3---3---3-3-3-3-0---------0---0-----------------|
   1 + 2 + 3 + 4 + 1 + 2 + 3 + 4 + 1 + 2 + 3 + 4 + 1 + 2 + 3 + 4 +

Outro 2:34
G|-----------------------------------------------------------------|
D|-----------------------------------------------------------------|
A|---------------------------------2-2-2-2---2-2---2---2---2---2---|
D|-3-3-3-3---3-3---3---3---0---0-----------------------------------|
   1 + 2 + 3 + 4 + 1 + 2 + 3 + 4 + 1 + 2 + 3 + 4 + 1 + 2 + 3 + 4 +

G|-----------------------------------------------------------------|
D|-----------------------------------------------------------------|
A|-----------------------------------------------------------------|
D|-3-3-3-3---3-3---3---3---5-5-5-5-0-0-0-0---0-0---0---0---0---0---|
   1 + 2 + 3 + 4 + 1 + 2 + 3 + 4 + 1 + 2 + 3 + 4 + 1 + 2 + 3 + 4 +

G|-----------------------------------------------------------------|
D|-----------------------------------------------------------------|
A|-------------------------2---2-2-3-3-3-3---3-3-3-3---3---3---3---|
D|-3-3-3-3---3-3-3-3---3-3-----------------------------------------|
   1 + 2 + 3 + 4 + 1 + 2 + 3 + 4 + 1 + 2 + 3 + 4 + 1 + 2 + 3 + 4 +

G|-----------------------------------------------------------------|
D|-----------------------------------------------------------------|
A|-----------------------------------------------------------------|
D|-3-3-3-3---3-3-3-3---3-3-5---5-5-0-0-0-0---0-0-0-0---0---0---0---|
   1 + 2 + 3 + 4 + 1 + 2 + 3 + 4 + 1 + 2 + 3 + 4 + 1 + 2 + 3 + 4 +

G|-----------------------------------------------------------------|
D|-----------------------------------------------------------------|
A|-----------------------------------------------------------------|
D|-3-3-3-3---------------------------------------------------------|
   1 + 2 + 3 + 4 + 1 + 2 + 3 + 4 + 1 + 2 + 3 + 4 + 1 + 2 + 3 + 4 +
Tab changed by Dave Vucko


======================================================================


Song: I Write Sins Not Tragedies
Artist: Panic! At The Disco
Album: A Fever you Can't Sweat Out
Tabbed by: Julioman

Here you go...

No bass during intro

Verse 1
Around 11 seconds in
G|-2---------------5------------------2-----------------------|
D|-------------------4-------------------3--------------------| Repeat
A|------------------------------------------------------------|
E|------------------------------------------------------------|
*This isn't actually a bass guitar, but the sound is the same.


Chorus:
G|----------------------------------------------------------|
D|----------------------------------------------------------|
A|-0-----0-0------------------------------------------------|
E|------------3--3--3-3-3-3-0--0-0--0--0--0-5-5-5-----------|

G|----------------------------------------------------------|
D|----------------------------------------------------------|
A|-0-----0-0------------------------------------------------|
E|------------3--3--3-3-3-3-0--0-0-0-0-0-5-5-5-5-5----------|


G|----------------------------------------------------------|
D|-----------------------------------------------5-5-5------|
A|-0----0-0-0-0-------------------------5--5-5-5------------| And repeat to beginning of
E|---------------3--3--3-3-3-3-0--0-0-0---------------------|  this line


Verse 2
G|---------5----------------2-------------------------------|
D|-7---------4---4--4-4---4---3----3--3-3--3----------------|
A|----------------------------------------------------------|
E|----------------------------------------------------------|

G|---------------------------------------5------------------|
D|----------------------------------------------------------|
A|-0-0---0--0-0----0--0-0---0--0-0---0----------------------|
E|----------------------------------------------------------|

G|----------------2-----------------------------------------|
D|-4----4--4-4--4---3---3--3--3-3-3-3-3-3-------------------|
A|----------------------------------------------------------|
E|----------------------------------------------------------|

Interlude
G|-----------------------------------------------------------------|
D|-3-3-3-3-3-3-3-3-3-3-3-3-0-0-0-0---------------------------------|
A|---------------------------------2-2-2-2-2-2-2-2-2-2-2-2-2-2-2-2-|
E|-----------------------------------------------------------------|

G|----------------------------------------------------------------|
D|-3-3-3-3-3-3-3-3-3-3-3-3/-7-7-7-7-------------------------------|
A|----------------------------------5-5-5-5-----------------------|
E|------------------------------------------0-0-0-0-0-0-0-0-0-0-0-|

Chorus


G|----------------------------------------------------------|
D|-----------------------------------------------5-5-5------|
A|-0----0-0-0-0-------------------------5--5-5-5------------| Play 3 times
E|---------------3--3--3-3-3-3-0--0-0-0---------------------|


G|----------------------------------------------------------|
D|----------------------------------------------------------|
A|-0--0-0-0-0---------------------------------------5-5-----|
E|------------3--3--3-3-3-3--0--0-0-0-0-0-0-0-0-0-0---------|

Bridge
G|----------------------------------------------------------|
D|----------------------------------------------------------|
A|-----------------------5--5-5--2-2-2-2-2-2--2--2-2-2--2-2-|
E|-3-3-3-3-3-3-3--3--3-3------------------------------------|

G|----------------------------------------------------------|
D|----------------------------------------------------------|
A|----------------------------------------------------------|
E|-3-3-3-3-3-3-3-3--3-3-5-5-5-5-0-0-0-0-0-0-0-0--0--0--0----|

G|----------------------------------------------------------|
D|----------------------------------------------------------|
A|----------------------2--2-2-3-3-3-3-3-3-3-3--3-3-3--3-3--|
E|-3-3-3-3-3-3-3-3--3-3-------------------------------------|

G|----------------------------------------------------------|
D|----------------------------------------------------------|
A|--------------------------------0--0-0--------------------|
E|-3-3-3-3-3-3-3-3-3-3-3--3-3-3-3--------3--3--3-3-3-3-0----|

G|----------------------------------------------------------|
D|----------------------------------------------------------|
A|---------------0--0-0-------------------------------------|
E|-0--0--0-5-5-5--------3--3--3-3-3-3-0--0-0-0--------------|

G|----------------------------------------------------------|
D|----------------------------------------------------------|
A|-0-----0-0------------------------------------------------|
E|------------3--3--3-3-3-3-0--0-0--0--0--0-5-5-5-----------|

G|----------------------------------------------------------|
D|----------------------------------------------------------|
A|-----------------------5--5-5--2-2-2-2-2-2--2--2-2-2--2-2-|
E|-3-3-3-3-3-3-3--3--3-3------------------------------------|

G|----------------------------------------------------------|
D|----------------------------------------------------------|
A|----------------------------------------------------------|
E|-3-3-3-3-3-3-3-3--3-3-5-5-5-5-0-0-0-0-0-0-0-0--0--0--0----|

G|----------------------------------------------------------|
D|----------------------------------------------------------|
A|----------------------2--2-2-3-3-3-3-3-3-3-3--3-3-3--3-3--|
E|-3-3-3-3-3-3-3-3--3-3-------------------------------------|

Outro
G|----------------------------------------------------------|
D|----------------------------------------------------------|
A|----------------------------------------------------------|
E|-3-3-3-3-3-3-3-3--3-3s5-5-5-5-0-0-0-0-0-0-0-0--0-0-0--0-0-|

End with
G|----------------------------------------------------------|
D|----------------------------------------------------------|
A|----------------------------------------------------------|
E|-3-3-3-3-3------------------------------------------------|
Hold last note

That's it. The timing is hard to tell from my tab, but if you listen to the song, you
should be able to figure it out.

Contact me with any questions, comments, or corrections at picklekid7@yahoo.com.
comments
print report bad tab
10 comments total. Showing first comments.
0 reply
blinkrocks wrote on January 1 2007, 07:43 pm

the intro is a bass, its just a stand up, so it has a diffrent sound (I saw them live and the bass player used a stand up bass and he play the intro)

-2 reply
LCAY124 wrote on February 11 2007, 12:56 pm

sucks!

+2 reply
LCAY124 wrote on March 3 2007, 10:54 pm

acually, is pretty good

I want to post or [tab]
guest
You may want to rate the tab now too:
select rating
Please do not post tabs as comments. Select "correction" instead!