Oops, an error
Loading. Please wait.

Shes A Handsome Woman Bass Tab

ver2
ver2

Whole song

Interactive

More versions @911Tabs.com
1,217 views 9 this week
5 commentsread comments
1 2 3 4 5
excellent!
x 3
Autoscroll
+/-
esc
set tempo
stop
Contributor
NEW! There's an official Ultimate Guitar app which is ideal
for learning songs when you're away from computer. Get the app
WARNING: You are trying to view
                                    content from Ultimate-Guitar.com
                                    in an unauthorized application,
                                    which is prohibited.

                                    Please use an official Ultimate
                                    Guitar Tabs application for iPhone,
                                    iPad or Android to access legitimate
                                    chords, guitar, bass, and drum tabs
                                    from Ultimate-Guitar.com database.

                                    Type "ultimate guitar tabs" in Apple
                                    App Store's or Android Market's
                                    search to find the application.
BAND:PANIC AT THE DISCO
SONG:SHES A HANDSOME WOMAN
ALBUM:PRETTY.ODD.
TABBED BY:FALLOUTBOY96
TUNNING:STANDARD

INTRO 9 SECONDS INTO SONG (THOSE ARE TWENTY-TWOS&TWENTY-THREES)
G|--------------------------|
D|--------------------------|
A|---22-23/-----------------|
E|----------4~--44~--4~--44~|

VERSE (PLAY THE 2ND PART TWICE)
G|------------------------------------------------------------------|
D|2~------------------------------2-2-2-----------------------------|
A|------2--4-6-22----4-6-4-2-4-------------2--4-6-22----4-6-4-2-4---|
E|---44-----------22-----------4~-------44-----------44-----------4~|

POST-CHORUS X1
G|----------------|
D|----------------|
A|----------------|
E|-4~--44~-4~--44~|

VERSE X1 (THIS TIME PLAY THE 2ND PART ONCE)

PRE CHORUS X1
G|---------------------------|
D|-----------3333------------|
A|----------------6-4-----6~~|
E|-4444-2222----------8-6----|

CHORUS X2
G|------------------------------------|
D|--------3--------------------3------|
A|----------6-4-----6~-----6-----6-4-3|
E|-4444-2-------8-6----444---2--------|

POST CHORUS X1

VERSE X1

PRE CHORUS X1 

CHORUS X1

OUTRO
G|------------------------------------------------------------|
D|------------------------------------------------------------|
A|------------------------------------------------------------|
E|-4~--44~-4~--44~-2--4~--44~-4~--44~-2-4--4~--44~-4~--44~-2-4|\

GUITAR PAUSE

OUTRO
G|-------------|
D|-------------|
A|-------------|
E|-4~--44~--2-4|

ENJOY!
comments
We did not receive enough feedback on this tab! Please rate:
print report bad tab
1 2 3 4 5
5 comments total. Showing first comments.
0 reply
BCarey2293 wrote on January 22 2009, 11:09 pm

Unless you have good speakers and can hear the bass, the rhythms are tricky. Notes are right, and all of the fills are good because most people would just show the root chord. thanks a lot :D

0 reply
MusicMan24 wrote on March 24 2009, 10:17 pm

This tab is a lot better than the other bass tabs for this song, good job

0 reply
MusicMan24 wrote on April 6 2009, 01:59 pm

Ok, one thing I noticed is that, in the second verse you have the 3 2's one the d-string, they should be on the a-string, and that's the only thing wrong with this tab

I want to post or [tab]
guest
You may want to rate the tab now too:
select rating
Please do not post tabs as comments. Select "correction" instead!