Oops, an error
Loading. Please wait.

Becoming Tab

ver4
ver4

Whole song

More versions @911Tabs.com
1,840 views 1 this week
no commentswrite comment
1 2 3 4 5
worth learning
x 2
Autoscroll
+/-
esc
set tempo
stop
Contributor
Difficulty
intermediate
WARNING: You are trying to view
                                    content from Ultimate-Guitar.com
                                    in an unauthorized application,
                                    which is prohibited.

                                    Please use an official Ultimate
                                    Guitar Tabs application for iPhone,
                                    iPad or Android to access legitimate
                                    chords, guitar, bass, and drum tabs
                                    from Ultimate-Guitar.com database.

                                    Type "ultimate guitar tabs" in Apple
                                    App Store's or Android Market's
                                    search to find the application.
Pantera: Becoming

Transcribed by: Andrew Zara (disturbedfreak0520@yahoo.com)

Date last modified: June 12, 2007

PLEASE DO NOT COPY THIS TAB TO ANOTHER SITE
WITHOUT AUTHORS' PERMISSION. THANK YOU.

Tuning: D Standard (D,G,C,F,A,D)

 S S E  E  S S E  E  S S E     S S E  E  S S E  E  S S E   
D||-----------------------------|-----------------------------|
A||-----------------------------|-----------------------------|
F||-----------------------------|-----------------------------|
C||-----------------------------|-----------------------------|
G||--5-5-5-----5-5-5-----5-5-5--|--5-5-5-----5-5-5-----5-5----|
D||--5-5-5-----5-5-5-----5-5-5--|--5-5-5-----5-5-5-----5-5----|


         Whammy Pedal                                                 
  PM PM                   PM PM            PM PM          PM PM       
  E  E   E           S  S E  E  E  S  S    E  E   E  S  S E  E  Q     
--------19------------------------------|--------19------------------|
----------------------------------------|----------------------------|
--------16------------------------------|--------16------------------|
----------------------------------------|----------------------------|
--2--2---------------5S-4-2--2-----5S-4-|--2--2------5S-4-2--4--5----|
--0--0---------------3S-2-0--0-----3S-2-|--0--0------3S-2-0--2--3----|


  PM PM          PM PM            PM PM          PM PM       
  E  E   E  S  S E  E  E  S  S    E  E   E  S  S E  E  Q     
--------19---------------------|--------19------------------|
-------------------------------|----------------------------|
--------16---------------------|--------16------------------|
-------------------------------|----------------------------|
--2--2------5S-4-2--2-----5S-4-|--2--2------5S-4-2--4--5----|
--0--0------3S-2-0--0-----3S-2-|--0--0------3S-2-0--2--3----|


  PM PM          PM PM            PM PM          PM PM       
  E  E   E  S  S E  E  E  S  S    E  E   E  S  S E  E  Q     
--------19---------------------|--------19------------------|
-------------------------------|----------------------------|
--------16---------------------|--------16------------------|
-------------------------------|----------------------------|
--2--2------5S-4-2--2-----5S-4-|--2--2------5S-4-2--4--5----|
--0--0------3S-2-0--0-----3S-2-|--0--0------3S-2-0--2--3----|


  PM PM          PM PM            PM PM          PM PM       
  E  E   E  S  S E  E  E  S  S    E  E   E  S  S E  E  Q     
--------19---------------------|--------19------------------|
-------------------------------|----------------------------|
--------16---------------------|--------16------------------|
-------------------------------|----------------------------|
--2--2------5S-4-2--2-----5S-4-|--2--2------5S-4-2--4--5----|
--0--0------3S-2-0--0-----3S-2-|--0--0------3S-2-0--2--3----|


  PM PM                                                 
  E  E  E  S S E  E  E  S S    E  E  E  S S E  E  Q     
----------------------------|--------------------------|
----------------------------|--------------------------|
----------------------------|--------------------------|
----------------------------|--------------------------|
--2--2-----2-1-1--2-----2-1-|--1--2-----2-1-1--4--5----|
--0--0-----0-0-0--0-----0-0-|--0--0-----0-0-0--2--3----|


  PM PM                                                 
  E  E  E  S S E  E  E  S S    E  E  E  S S E  E  Q     
----------------------------|--------------------------|
----------------------------|--------------------------|
----------------------------|--------------------------|
----------------------------|--------------------------|
--2--2-----2-1-1--2-----2-1-|--1--2-----2-1-1--4--5----|
--0--0-----0-0-0--0-----0-0-|--0--0-----0-0-0--2--3----|


  PM PM                                                 
  E  E  E  S S E  E  E  S S    E  E  E  S S E  E  Q     
----------------------------|--------------------------|
----------------------------|--------------------------|
----------------------------|--------------------------|
----------------------------|--------------------------|
--2--2-----2-1-1--2-----2-1-|--1--2-----2-1-1--4--5----|
--0--0-----0-0-0--0-----0-0-|--0--0-----0-0-0--2--3----|


  PM PM                                                 
  E  E  E  S S E  E  E  S S    E  E  E  S S E  E  Q     
----------------------------|--------------------------|
----------------------------|--------------------------|
----------------------------|--------------------------|
----------------------------|--------------------------|
--2--2-----2-1-1--2-----2-1-|--1--2-----2-1-1--4--5----|
--0--0-----0-0-0--0-----0-0-|--0--0-----0-0-0--2--3----|


  PM PM          PM PM            PM PM          PM PM       
  E  E   E  S  S E  E  E  S  S    E  E   E  S  S E  E  Q     
--------19---------------------|--------19------------------|
-------------------------------|----------------------------|
--------16---------------------|--------16------------------|
-------------------------------|----------------------------|
--2--2------5S-4-2--2-----5S-4-|--2--2------5S-4-2--4--5----|
--0--0------3S-2-0--0-----3S-2-|--0--0------3S-2-0--2--3----|


  PM PM          PM PM            PM PM          PM PM       
  E  E   E  S  S E  E  E  S  S    E  E   E  S  S E  E  Q     
--------19---------------------|--------19------------------|
-------------------------------|----------------------------|
--------16---------------------|--------16------------------|
-------------------------------|----------------------------|
--2--2------5S-4-2--2-----5S-4-|--2--2------5S-4-2--4--5----|
--0--0------3S-2-0--0-----3S-2-|--0--0------3S-2-0--2--3----|


  PM PM          PM PM            PM PM          PM PM       
  E  E   E  S  S E  E  E  S  S    E  E   E  S  S E  E  Q     
--------19---------------------|--------19------------------|
-------------------------------|----------------------------|
--------16---------------------|--------16------------------|
-------------------------------|----------------------------|
--2--2------5S-4-2--2-----5S-4-|--2--2------5S-4-2--4--5----|
--0--0------3S-2-0--0-----3S-2-|--0--0------3S-2-0--2--3----|


  PM PM          PM PM            PM PM          PM PM       
  E  E   E  S  S E  E  E  S  S    E  E   E  S  S E  E  Q     
--------19---------------------|--------19------------------|
-------------------------------|----------------------------|
--------16---------------------|--------16------------------|
-------------------------------|----------------------------|
--2--2------5S-4-2--2-----5S-4-|--2--2------5S-4-2--4--5----|
--0--0------3S-2-0--0-----3S-2-|--0--0------3S-2-0--2--3----|


             PM PM                                         PM PM       
   Q    Q    E  E  Q       W                    E  E  Q    E  E  Q     
------------------------|-------------------|-------------------------|
------------------------|-------------------|-------------------------|
------------------------|-------------------|-------------------------|
-------------------7----|--L----------------|--------------------7----|
--/9----7----4--3--5----|--L----------------|--/9--8--7----4--3--5----|
--/7----5----2--1--5----|--L----------------|--/7--6--5----2--1--5----|


                                 PM PM                           
  W                    Q    Q    E  E  Q       W                 
-------------------|------------------------|-------------------|
-------------------|------------------------|-------------------|
-------------------|------------------------|-------------------|
--L----------------|-------------------7----|--L----------------|
--L----------------|--/9----7----4--3--5----|--L----------------|
--L----------------|--/7----5----2--1--5----|--L----------------|


              PM PM                                                         
   E  E  Q    E  E  Q       W                   S S E  E  S S E  E  S S E   
-------------------------|-------------------|-----------------------------|
-------------------------|-------------------|-----------------------------|
-------------------------|-------------------|-----------------------------|
--------------------7----|--L----------------|-----------------------------|
--/9--8--7----4--3--5----|--L----------------|--5-5-5-----5-5-5-----5-5----|
--/7--6--5----2--1--5----|--L----------------|--5-5-5-----5-5-5-----5-5----|


  PM PM          PM PM            PM PM          PM PM       
  E  E   E  S  S E  E  E  S  S    E  E   E  S  S E  E  Q     
--------19---------------------|--------19------------------|
-------------------------------|----------------------------|
--------16---------------------|--------16------------------|
-------------------------------|----------------------------|
--2--2------5S-4-2--2-----5S-4-|--2--2------5S-4-2--4--5----|
--0--0------3S-2-0--0-----3S-2-|--0--0------3S-2-0--2--3----|


  PM PM          PM PM            PM PM          PM PM       
  E  E   E  S  S E  E  E  S  S    E  E   E  S  S E  E  Q     
--------19---------------------|--------19------------------|
-------------------------------|----------------------------|
--------16---------------------|--------16------------------|
-------------------------------|----------------------------|
--2--2------5S-4-2--2-----5S-4-|--2--2------5S-4-2--4--5----|
--0--0------3S-2-0--0-----3S-2-|--0--0------3S-2-0--2--3----|


  PM PM          PM PM            PM PM          PM PM       
  E  E   E  S  S E  E  E  S  S    E  E   E  S  S E  E  Q     
--------19---------------------|--------19------------------|
-------------------------------|----------------------------|
--------16---------------------|--------16------------------|
-------------------------------|----------------------------|
--2--2------5S-4-2--2-----5S-4-|--2--2------5S-4-2--4--5----|
--0--0------3S-2-0--0-----3S-2-|--0--0------3S-2-0--2--3----|


  PM PM          PM PM            PM PM          PM PM       
  E  E   E  S  S E  E  E  S  S    E  E   E  S  S E  E  Q     
--------19---------------------|--------19------------------|
-------------------------------|----------------------------|
--------16---------------------|--------16------------------|
-------------------------------|----------------------------|
--2--2------5S-4-2--2-----5S-4-|--2--2------5S-4-2--4--5----|
--0--0------3S-2-0--0-----3S-2-|--0--0------3S-2-0--2--3----|


  PM PM                                                 
  E  E  E  S S E  E  E  S S    E  E  E  S S E  E  Q     
----------------------------|--------------------------|
----------------------------|--------------------------|
----------------------------|--------------------------|
----------------------------|--------------------------|
--2--2-----2-1-1--2-----2-1-|--1--2-----2-1-1--4--5----|
--0--0-----0-0-0--0-----0-0-|--0--0-----0-0-0--2--3----|


  PM PM                                                 
  E  E  E  S S E  E  E  S S    E  E  E  S S E  E  Q     
----------------------------|--------------------------|
----------------------------|--------------------------|
----------------------------|--------------------------|
----------------------------|--------------------------|
--2--2-----2-1-1--2-----2-1-|--1--2-----2-1-1--4--5----|
--0--0-----0-0-0--0-----0-0-|--0--0-----0-0-0--2--3----|


  PM PM                                                 
  E  E  E  S S E  E  E  S S    E  E  E  S S E  E  Q     
----------------------------|--------------------------|
----------------------------|--------------------------|
----------------------------|--------------------------|
----------------------------|--------------------------|
--2--2-----2-1-1--2-----2-1-|--1--2-----2-1-1--4--5----|
--0--0-----0-0-0--0-----0-0-|--0--0-----0-0-0--2--3----|


  PM PM                                                 
  E  E  E  S S E  E  E  S S    E  E  E  S S E  E  Q     
----------------------------|--------------------------|
----------------------------|--------------------------|
----------------------------|--------------------------|
----------------------------|--------------------------|
--2--2-----2-1-1--2-----2-1-|--1--2-----2-1-1--4--5----|
--0--0-----0-0-0--0-----0-0-|--0--0-----0-0-0--2--3----|


  PM PM          PM PM            PM PM          PM PM       
  E  E   E  S  S E  E  E  S  S    E  E   E  S  S E  E  Q     
--------19---------------------|--------19------------------|
-------------------------------|----------------------------|
--------16---------------------|--------16------------------|
-------------------------------|----------------------------|
--2--2------5S-4-2--2-----5S-4-|--2--2------5S-4-2--4--5----|
--0--0------3S-2-0--0-----3S-2-|--0--0------3S-2-0--2--3----|


  PM PM          PM PM            PM PM          PM PM       
  E  E   E  S  S E  E  E  S  S    E  E   E  S  S E  E  Q     
--------19---------------------|--------19------------------|
-------------------------------|----------------------------|
--------16---------------------|--------16------------------|
-------------------------------|----------------------------|
--2--2------5S-4-2--2-----5S-4-|--2--2------5S-4-2--4--5----|
--0--0------3S-2-0--0-----3S-2-|--0--0------3S-2-0--2--3----|


  PM PM          PM PM            PM PM          PM PM       
  E  E   E  S  S E  E  E  S  S    E  E   E  S  S E  E  Q     
--------19---------------------|--------19------------------|
-------------------------------|----------------------------|
--------16---------------------|--------16------------------|
-------------------------------|----------------------------|
--2--2------5S-4-2--2-----5S-4-|--2--2------5S-4-2--4--5----|
--0--0------3S-2-0--0-----3S-2-|--0--0------3S-2-0--2--3----|


  PM PM          PM PM            PM PM          PM PM       
  E  E   E  S  S E  E  E  S  S    E  E   E  S  S E  E  Q     
--------19---------------------|--------19------------------|
-------------------------------|----------------------------|
--------16---------------------|--------16------------------|
-------------------------------|----------------------------|
--2--2------5S-4-2--2-----5S-4-|--2--2------5S-4-2--4--5----|
--0--0------3S-2-0--0-----3S-2-|--0--0------3S-2-0--2--3----|


             PM PM                                         PM PM       
   Q    Q    E  E  Q       W                    E  E  Q    E  E  Q     
------------------------|-------------------|-------------------------|
------------------------|-------------------|-------------------------|
------------------------|-------------------|-------------------------|
-------------------7----|--L----------------|--------------------7----|
--/9----7----4--3--5----|--L----------------|--/9--8--7----4--3--5----|
--/7----5----2--1--5----|--L----------------|--/7--6--5----2--1--5----|


                                 PM PM                           
  W                    Q    Q    E  E  Q       W                 
-------------------|------------------------|-------------------|
-------------------|------------------------|-------------------|
-------------------|------------------------|-------------------|
--L----------------|-------------------7----|--L----------------|
--L----------------|--/9----7----4--3--5----|--L----------------|
--L----------------|--/7----5----2--1--5----|--L----------------|


              PM PM                                                         
   E  E  Q    E  E  Q       W                   S S E  E  S S E  E  S S E   
-------------------------|-------------------|-----------------------------|
-------------------------|-------------------|-----------------------------|
-------------------------|-------------------|-----------------------------|
--------------------7----|--L----------------|-----------------------------|
--/9--8--7----4--3--5----|--L----------------|--5-5-5-----5-5-5-----5-5-5--|
--/7--6--5----2--1--5----|--L----------------|--5-5-5-----5-5-5-----5-5-5--|


                                This solo is just tremolo and squeal noise.  
  S S E  E  S S E  E  S S E     W                                            
-----------------------------|----------------------------------------------|
-----------------------------|----------------------------------------------|
-----------------------------|----------------------------------------------|
-----------------------------|----------------------------------------------|
--5-5-5-----5-5-5-----5-5----|----------------------------------------------|
--5-5-5-----5-5-5-----5-5----|----------------------------------------------|


  W                   W                   W                   W                 
-------------------|-------------------|-------------------|-------------------|
-------------------|-------------------|-------------------|-------------------|
-------------------|-------------------|-------------------|-------------------|
-------------------|-------------------|-------------------|-------------------|
-------------------|-------------------|-------------------|-------------------|
-------------------|-------------------|-------------------|-------------------|


  Improvise it.                                             
  W                   W                   W                 
-------------------|-------------------|-------------------|
-------------------|-------------------|-------------------|
-------------------|-------------------|-------------------|
-------------------|-------------------|-------------------|
-------------------|-------------------|-------------------|
-------------------|-------------------|-------------------|


                                           PM PM                           
  S S E  E  S S E  E  S S E      Q    Q    E  E  Q       W                 
-----------------------------|------------------------|-------------------|
-----------------------------|------------------------|-------------------|
-----------------------------|------------------------|-------------------|
-----------------------------|-------------------7----|--L----------------|
--5-5-5-----5-5-5-----5-5----|--/9----7----4--3--5----|--L----------------|
--5-5-5-----5-5-5-----5-5----|--/7----5----2--1--5----|--L----------------|


              PM PM                                        PM PM       
   E  E  Q    E  E  Q       W                    Q    Q    E  E  Q     
-------------------------|-------------------|------------------------|
-------------------------|-------------------|------------------------|
-------------------------|-------------------|------------------------|
--------------------7----|--L----------------|-------------------7----|
--/9--8--7----4--3--5----|--L----------------|--/9----7----4--3--5----|
--/7--6--5----2--1--5----|--L----------------|--/7----5----2--1--5----|


                                  PM PM                           
  W                    E  E  Q    E  E  Q       W                 
-------------------|-------------------------|-------------------|
-------------------|-------------------------|-------------------|
-------------------|-------------------------|-------------------|
--L----------------|--------------------7----|--L----------------|
--L----------------|--/9--8--7----4--3--5----|--L----------------|
--L----------------|--/7--6--5----2--1--5----|--L----------------|


  S S E  E  S S E  E  S S E     S S E  E  S S E  E  S S E   
-----------------------------|-----------------------------|
-----------------------------|-----------------------------|
-----------------------------|-----------------------------|
-----------------------------|-----------------------------|
--5-5-5-----5-5-5-----5-5-5--|--5-5-5-----5-5-5-----5-5----|
--5-5-5-----5-5-5-----5-5-5--|--5-5-5-----5-5-5-----5-5----|


  PM PM          PM PM            PM PM          PM PM       
  E  E   E  S  S E  E  E  S  S    E  E   E  S  S E  E  Q     
--------19---------------------|--------19------------------|
-------------------------------|----------------------------|
--------16---------------------|--------16------------------|
-------------------------------|----------------------------|
--2--2------5S-4-2--2-----5S-4-|--2--2------5S-4-2--4--5----|
--0--0------3S-2-0--0-----3S-2-|--0--0------3S-2-0--2--3----|


  PM PM          PM PM            PM PM          PM PM       
  E  E   E  S  S E  E  E  S  S    E  E   E  S  S E  E  Q     
--------19---------------------|--------19------------------|
-------------------------------|----------------------------|
--------16---------------------|--------16------------------|
-------------------------------|----------------------------|
--2--2------5S-4-2--2-----5S-4-|--2--2------5S-4-2--4--5----|
--0--0------3S-2-0--0-----3S-2-|--0--0------3S-2-0--2--3----|


  PM PM          PM PM            PM PM          PM PM       
  E  E   E  S  S E  E  E  S  S    E  E   E  S  S E  E  Q     
--------19---------------------|--------19------------------|
-------------------------------|----------------------------|
--------16---------------------|--------16------------------|
-------------------------------|----------------------------|
--2--2------5S-4-2--2-----5S-4-|--2--2------5S-4-2--4--5----|
--0--0------3S-2-0--0-----3S-2-|--0--0------3S-2-0--2--3----|


  PM PM          PM PM            PM PM          PM PM       
  E  E   E  S  S E  E  E  S  S    E  E   E  S  S E  E  Q     
--------19---------------------|--------19------------------|
-------------------------------|----------------------------|
--------16---------------------|--------16------------------|
-------------------------------|----------------------------|
--2--2------5S-4-2--2-----5S-4-|--2--2------5S-4-2--4--5----|
--0--0------3S-2-0--0-----3S-2-|--0--0------3S-2-0--2--3----|


  PM PM      PM PM         PM PM      PM PM         PM PM      PM PM       
  E  E  Q    E  E  Q       E  E  Q    E  E  Q       E  E  Q    E  E  Q     
------------------------|------------------------|------------------------|
------------------------|------------------------|------------------------|
------------------------|------------------------|------------------------|
------------------------|------------------------|------------------------|
--2--2-------2--2-------|--2--2-------2--4--5----|--2--2-------2--2-------|
--0--0-------0--0-------|--0--0-------0--2--3----|--0--0-------0--0-------|


  PM PM      PM PM        
  E  E  Q    E  E  Q      
------------------------||
------------------------||
------------------------||
------------------------||
--2--2-------2--4--5----||
--0--0-------0--2--3----||

********************************
********************************
********************************

Dime Harmonics



     W                   W                   W                 
D||-------------------|-------------------|-------------------|
A||-------------------|-------------------|-------------------|
F||-------------------|-------------------|-------------------|
C||-------------------|-------------------|-------------------|
G||-------------------|-------------------|-------------------|
D||-------------------|-------------------|-------------------|


  W                   W                   W                   W                 
-------------------|-------------------|-------------------|-------------------|
-------------------|-------------------|-------------------|-------------------|
-------------------|-------------------|-------------------|-------------------|
-------------------|-------------------|-------------------|-------------------|
-------------------|-------------------|-------------------|-------------------|
-------------------|-------------------|-------------------|-------------------|


  W                   W                   W                   W                 
-------------------|-------------------|-------------------|-------------------|
-------------------|-------------------|-------------------|-------------------|
-------------------|-------------------|-------------------|-------------------|
-------------------|-------------------|-------------------|-------------------|
-------------------|-------------------|-------------------|-------------------|
-------------------|-------------------|-------------------|-------------------|


  W                   W                   W                   W                 
-------------------|-------------------|-------------------|-------------------|
-------------------|-------------------|-------------------|-------------------|
-------------------|-------------------|-------------------|-------------------|
-------------------|-------------------|-------------------|-------------------|
-------------------|-------------------|-------------------|-------------------|
-------------------|-------------------|-------------------|-------------------|


  W                   W                   W                   W                 
-------------------|-------------------|-------------------|-------------------|
-------------------|-------------------|-------------------|-------------------|
-------------------|-------------------|-------------------|-------------------|
-------------------|-------------------|-------------------|-------------------|
-------------------|-------------------|-------------------|-------------------|
-------------------|-------------------|-------------------|-------------------|


  W                   W                   W                   W                 
-------------------|-------------------|-------------------|-------------------|
-------------------|-------------------|-------------------|-------------------|
-------------------|-------------------|-------------------|-------------------|
-------------------|-------------------|-------------------|-------------------|
-------------------|-------------------|-------------------|-------------------|
-------------------|-------------------|-------------------|-------------------|


  W                   W                   W                   W                 
-------------------|-------------------|-------------------|-------------------|
-------------------|-------------------|-------------------|-------------------|
-------------------|-------------------|-------------------|-------------------|
-------------------|-------------------|-------------------|-------------------|
-------------------|-------------------|-------------------|-------------------|
-------------------|-------------------|-------------------|-------------------|


                              PH            PH     
  W                   E  E    Q     E  E    Q      
-------------------|------------------------------|
-------------------|------------------------------|
-------------------|--------<>7~----------<>7~----|
-------------------|------------------------------|
-------------------|------------------------------|
-------------------|--7--6----------2--1----------|


          PH            PH                                             
  E  E    Q     E  E    Q        W                   W                 
------------------------------|-------------------|-------------------|
------------------------------|-------------------|-------------------|
--------<>7~----------<>7~----|-------------------|-------------------|
-----7-------------7----------|-------------------|-------------------|
--5-------------5-------------|-------------------|-------------------|
------------------------------|-------------------|-------------------|


          PH            PH               PH            PH     
  E  E    Q     E  E    Q        E  E    Q     E  E    Q      
------------------------------|------------------------------|
------------------------------|------------------------------|
--------<>7~----------<>7~----|--------<>7~----------<>7~----|
------------------------------|-----7-------------7----------|
------------------------------|--5-------------5-------------|
--7--6----------2--1----------|------------------------------|


  W                   W                   W                   W                 
-------------------|-------------------|-------------------|-------------------|
-------------------|-------------------|-------------------|-------------------|
-------------------|-------------------|-------------------|-------------------|
-------------------|-------------------|-------------------|-------------------|
-------------------|-------------------|-------------------|-------------------|
-------------------|-------------------|-------------------|-------------------|


  W                   W                   W                   W                 
-------------------|-------------------|-------------------|-------------------|
-------------------|-------------------|-------------------|-------------------|
-------------------|-------------------|-------------------|-------------------|
-------------------|-------------------|-------------------|-------------------|
-------------------|-------------------|-------------------|-------------------|
-------------------|-------------------|-------------------|-------------------|


  W                   W                   W                   W                 
-------------------|-------------------|-------------------|-------------------|
-------------------|-------------------|-------------------|-------------------|
-------------------|-------------------|-------------------|-------------------|
-------------------|-------------------|-------------------|-------------------|
-------------------|-------------------|-------------------|-------------------|
-------------------|-------------------|-------------------|-------------------|


  W                   W                   W                   W                 
-------------------|-------------------|-------------------|-------------------|
-------------------|-------------------|-------------------|-------------------|
-------------------|-------------------|-------------------|-------------------|
-------------------|-------------------|-------------------|-------------------|
-------------------|-------------------|-------------------|-------------------|
-------------------|-------------------|-------------------|-------------------|


  W                   W                   W                   W                 
-------------------|-------------------|-------------------|-------------------|
-------------------|-------------------|-------------------|-------------------|
-------------------|-------------------|-------------------|-------------------|
-------------------|-------------------|-------------------|-------------------|
-------------------|-------------------|-------------------|-------------------|
-------------------|-------------------|-------------------|-------------------|


  W                   W                   W                   W                 
-------------------|-------------------|-------------------|-------------------|
-------------------|-------------------|-------------------|-------------------|
-------------------|-------------------|-------------------|-------------------|
-------------------|-------------------|-------------------|-------------------|
-------------------|-------------------|-------------------|-------------------|
-------------------|-------------------|-------------------|-------------------|


  W                   W                   W                 
-------------------|-------------------|-------------------|
-------------------|-------------------|-------------------|
-------------------|-------------------|-------------------|
-------------------|-------------------|-------------------|
-------------------|-------------------|-------------------|
-------------------|-------------------|-------------------|


          PH            PH               PH            PH     
  E  E    Q     E  E    Q        E  E    Q     E  E    Q      
------------------------------|------------------------------|
------------------------------|------------------------------|
--------<>7~----------<>7~----|--------<>7~----------<>7~----|
------------------------------|-----7-------------7----------|
------------------------------|--5-------------5-------------|
--7--6----------2--1----------|------------------------------|


                                                  PH            PH     
  W                   W                   E  E    Q     E  E    Q      
-------------------|-------------------|------------------------------|
-------------------|-------------------|------------------------------|
-------------------|-------------------|--------<>7~----------<>7~----|
-------------------|-------------------|------------------------------|
-------------------|-------------------|------------------------------|
-------------------|-------------------|--7--6----------2--1----------|


          PH            PH                                             
  E  E    Q     E  E    Q        W                   W                 
------------------------------|-------------------|-------------------|
------------------------------|-------------------|-------------------|
--------<>7~----------<>7~----|-------------------|-------------------|
-----7-------------7----------|-------------------|-------------------|
--5-------------5-------------|-------------------|-------------------|
------------------------------|-------------------|-------------------|


  W                   W                   W                   W                 
-------------------|-------------------|-------------------|-------------------|
-------------------|-------------------|-------------------|-------------------|
-------------------|-------------------|-------------------|-------------------|
-------------------|-------------------|-------------------|-------------------|
-------------------|-------------------|-------------------|-------------------|
-------------------|-------------------|-------------------|-------------------|


  W                   W                   W                   W                 
-------------------|-------------------|-------------------|-------------------|
-------------------|-------------------|-------------------|-------------------|
-------------------|-------------------|-------------------|-------------------|
-------------------|-------------------|-------------------|-------------------|
-------------------|-------------------|-------------------|-------------------|
-------------------|-------------------|-------------------|-------------------|


  W                   W                   W                 
-------------------|-------------------|-------------------|
-------------------|-------------------|-------------------|
-------------------|-------------------|-------------------|
-------------------|-------------------|-------------------|
-------------------|-------------------|-------------------|
-------------------|-------------------|-------------------|


          PH            PH               PH            PH     
  E  E    Q     E  E    Q        E  E    Q     E  E    Q      
------------------------------|------------------------------|
------------------------------|------------------------------|
--------<>7~----------<>7~----|--------<>7~----------<>7~----|
------------------------------|-----7-------------7----------|
------------------------------|--5-------------5-------------|
--7--6----------2--1----------|------------------------------|


                                                  PH            PH     
  W                   W                   E  E    Q     E  E    Q      
-------------------|-------------------|------------------------------|
-------------------|-------------------|------------------------------|
-------------------|-------------------|--------<>7~----------<>7~----|
-------------------|-------------------|------------------------------|
-------------------|-------------------|------------------------------|
-------------------|-------------------|--7--6----------2--1----------|


          PH            PH                                             
  E  E    Q     E  E    Q        W                   W                 
------------------------------|-------------------|-------------------|
------------------------------|-------------------|-------------------|
--------<>7~----------<>7~----|-------------------|-------------------|
-----7-------------7----------|-------------------|-------------------|
--5-------------5-------------|-------------------|-------------------|
------------------------------|-------------------|-------------------|


  W                   W                   W                   W                 
-------------------|-------------------|-------------------|-------------------|
-------------------|-------------------|-------------------|-------------------|
-------------------|-------------------|-------------------|-------------------|
-------------------|-------------------|-------------------|-------------------|
-------------------|-------------------|-------------------|-------------------|
-------------------|-------------------|-------------------|-------------------|


  W                   W                   W                   W                 
-------------------|-------------------|-------------------|-------------------|
-------------------|-------------------|-------------------|-------------------|
-------------------|-------------------|-------------------|-------------------|
-------------------|-------------------|-------------------|-------------------|
-------------------|-------------------|-------------------|-------------------|
-------------------|-------------------|-------------------|-------------------|


  W                   W                   W                 
-------------------|-------------------|-------------------|
-------------------|-------------------|-------------------|
-------------------|-------------------|-------------------|
-------------------|-------------------|-------------------|
-------------------|-------------------|-------------------|
-------------------|-------------------|-------------------|


  W                  
-------------------||
-------------------||
-------------------||
-------------------||
-------------------||
-------------------||








Duration Legend
---------------
W - whole
H - half
Q - quarter
E - 8th
S - 16th
T - 32nd
X - 64th
. - note dotted
|-n-|  - n-tuplets


Tablature Legend
----------------
L - tied note
x - dead note
g - grace note
(n) - ghost note
> - accentuded note
NH - natural harmonic
AH - artificial harmonic
TH - tapped harmonic
SH - semi harmonic
PH - pitch harmonic
h - hammer on
p - pull off
b - bend
br - bendRelease
pb - preBend
pbr - preBendRelease
brb - bendReleaseBend
\n/ - tremolo bar dip
\n - tremolo bar dive
-/n - tremolo bar Release up
/n\ - tremolo bar inverted dip
/n - tremolo bar return
-\n - tremolo bar Release down
S - shift slide
s - legato slide
/ -  slide into from below or out of upwards
\ -  slide into from above or out of downwards
~ - vibrato
W - wide vibrato
tr - trill
TP - tremolo picking
T - tapping
S - slap
P - pop
< - fade in
^ - brush up
v - brush down
comments
We did not receive enough feedback on this tab! Please rate:
1 2 3 4 5
I want to post or [tab]
guest
You may want to rate the tab now too:
select rating
Please do not post tabs as comments. Select "correction" instead!