Oops, an error
Loading. Please wait.

Cowboys From Hell Tab

ver1
ver1

Album

Whole song

More versions @911Tabs.com
117,021 views 75 this week
12 commentsread comments
1 2 3 4 5
worth learning
x 13
Autoscroll
+/-
esc
set tempo
stop
Contributor
WARNING: You are trying to view
                                    content from Ultimate-Guitar.com
                                    in an unauthorized application,
                                    which is prohibited.

                                    Please use an official Ultimate
                                    Guitar Tabs application for iPhone,
                                    iPad or Android to access legitimate
                                    chords, guitar, bass, and drum tabs
                                    from Ultimate-Guitar.com database.

                                    Type "ultimate guitar tabs" in Apple
                                    App Store's or Android Market's
                                    search to find the application.
I'm doing this in honor of Dimebag Darrell.He was one of a kind.

RIP:DIMEBAG DARRELL

1.COWBOYS FROM HELL

|-------------------------------|-------------------------------|
|-------------------------------|-------------------------------|
|-------------------------------|-------------------------------|  play a whole
|-------------------------------|-------------------------------|  load o' times
|-------------------------------|-------------------------------|
|-0-0-0-0-0-0-0-0-0-0-0-0-0-0-0-|0-0-0-0-0-0-0-0-0-0-0-0-0-0-0-0| 

|-------------------------------|-------------------------------|
|-------------------------------|-------------------------------|
|-----------------------------8-|-----------------------------8-|
|---5---5-7-5-7-5-8-5-7-5-7-9---|---5---5-7-5-7-5-8-5-7-5-7-9---|
|-7---7-------------------------|-7---7-------------------------|
|-------------------------------|-------------------------------|
pm...............................................................
|-------------------------------|-------------------------------|
|-------------------------------|-------------------------------|
|-----------------------------8-|-------------------------------|
|---5---5-7-5-7-5-8-5-7-5-7-9---|---5---5-7-5-7-5-8-7-5---------|
|-7---7-------------------------|-7---7-----------------7////---|
|-------------------------------|-------------------------------|
.................................................
|-------------------------------|-------------------------------|
|-------------------------------|-------------------------------|
|-------------------------------|-------------------------------|
|-------------------------------|-------------------------------|
|-----------------------------5-|-----------------------------5-|
|-0-3-0-3-5-3-5-3-6-3-5-3-5-7---|-0-3-0-3-5-3-5-3-6-3-5-3-5-7---|
.................                 ...............
|-------------------------------|-------------------------------|
|-------------------------------|-------------------------------|
|-------------------------------|-------------------------------|
|-------------------------------|-------------------------------|
|-----------------------------5-|-------------------------------|
|-0-3-0-3-5-3-5-3-6-3-5-3-5-7---|-0-3-0-3-5-3-5-3-6-5-3-0-------|
.................                 ...............
|-------------------------------|-------------------------------|
|-------------------------------|-------------------------------|
|-------------------------------|-------------------------------|
|-------------------------------|-------------------------------|
|-----------------------------5-|-----------------------------5-|
|-0-3-0-3-5-3-5-3-6-3-5-3-5-7---|-0-3-0-3-5-3-5-3-6-3-5-3-5-7---|
.................                 ...............
|-------------------------------|-------------------------------|
|-------------------------------|-------------------------------|
|-------------------------------|-------------------------------|
|-------------------------------|-------------------------------|
|-----------------------------5-|-------------------------------|
|-0-3-0-3-5-3-5-3-6-3-5-3-5-7---|-0-3-0-3-5-3-5-3-6-5-3-0-------|
  ...............                 ...............



|-----------------------|-----------------------|
|-----------------------|-----------------------|
|-----------------------|-----------------------|
|---------------------0-|---------------------0-|
|---------------0h1h2---|---------------0h1h2---|
|-0-0-0-0-0-0-0---------|-0-0-0-0-0-0-0---------|

|-----------------------|------------------------|
|-----------------------|------------------------|
|-----------------------|------------------------|
|---------------------0-|----------------0-----0-|
|---------------0h1h2---|-----------0h1h2-0h1h2--|
|-0-0-0-0-0-0-0---------|-0-0-0-0-0--------------|

|-----------------------|----------------------------|
|-----------------------|----------------------------|
|-----------------------|----------------------------|
|---------------------0-|----------------------------|
|---------------0h1h2---|-----------0h1p0---0h1p0----|
|-0-0-0-0-0-0-0---------|-0-0-0-0-0------3-3-----3-1-|

|-----------------------|----------------------------|
|-----------------------|----------------------------|
|-----------------------|----------------------------|
|---------------------0-|----------------------------|
|---------------0h1h2---|-----------0h1p0---0h1p0----|
|-0-0-0-0-0-0-0---------|-0-0-0-0-0------3-3-----3-3-|
...............           .........
|-----------------------|--------------------------|
|-----------------------|--------------------------|
|-----------------------|--------------------------|
|-----------------------|-----------------0--------|
|-----------------------|-----------0h1h2----------|
|-0-0-0-0-0-0-0-0-0-0-0-|-0-0-0-0-0----------------|
  ................................. 
|-----------------------|----------------------------|
|-----------------------|----------------------------|
|-----------------------|----------------------------|
|-----------------------|----------------------------|
|-----------------------|--------0h1p0-----0h1p0-----|
|-0-0-0-0-0-0-0-0-0-0-0-|-0-0-0--------3-3-------3-1-|
............................... 
|-----------------------|--------------------------|
|-----------------------|--------------------------|
|-----------------------|--------------------------|
|-----------------------|-----------------0--------|
|-----------------------|-----------0h1h2----------|
|-0-0-0-0-0-0-0-0-0-0-0-|-0-0-0-0-0----------------|
...................................
|-----------------------|----------------------------|
|-----------------------|----------------------------|
|-----------------------|----------------------------|
|-----------------------|----------------------------|
|-----------------------|--------0h1p0-----0h1p0-----|
|-0-0-0-0-0-0-0-0-0-0-0-|-0-0-0--------3-3-------3-1-|
...............................

|-----------------|--------------------|
|-----------------|--------------------|
|-----------------|--------------------|
|-555555555556--6-|-5555555555510-8--6-|
|-555555555556--6-|-5555555555510-8--6-|
|-333333333334--4-|-333333333338--6--4-|
.............       ...........
|-----------------------|--------------------------|
|-----------------------|--------------------------|
|-----------------------|--------------------------|
|-----------------------|--------------------------|
|-----------------------|--------------------------|
|-0-0-0-0-0-0-0-0-0-0-0-|-0-0-0-0-0-6-5-3-0--------|
................................... 
|-------------------------------|-------------------------------|
|-------------------------------|-------------------------------|
|-------------------------------|-------------------------------|
|-------------------------------|-------------------------------|
|-----------------------------5-|-----------------------------5-|
|-0-3-0-3-5-3-5-3-6-3-5-3-5-7---|-0-3-0-3-5-3-5-3-6-3-5-3-5-7---|
.................                 ...............
|-------------------------------|-------------------------------|
|-------------------------------|-------------------------------|
|-------------------------------|-------------------------------|
|-------------------------------|-------------------------------|
|-----------------------------5-|-------------------------------|
|-0-3-0-3-5-3-5-3-6-3-5-3-5-7---|-0-3-0-3-5-3-5-3-6-5-3-0-------|
.................                 ...............
|-------------------------------|-------------------------------|
|-------------------------------|-------------------------------|
|-------------------------------|-------------------------------|
|-------------------------------|-------------------------------|
|-----------------------------5-|-----------------------------5-|
|-0-3-0-3-5-3-5-3-6-3-5-3-5-7---|-0-3-0-3-5-3-5-3-6-3-5-3-5-7---|
.................                 ...............
|-------------------------------|-------------------------------|
|-------------------------------|-------------------------------|
|-------------------------------|-------------------------------|
|-------------------------------|-------------------------------|
|-----------------------------5-|-------------------------------|
|-0-3-0-3-5-3-5-3-6-3-5-3-5-7---|-0-3-0-3-5-3-5-3-6-5-3-0-------|
.................                 ...............
|-----------------------|------------------------|
|-----------------------|------------------------|
|-----------------------|------------------------|
|---------------------0-|----------------0-----0-|
|---------------0h1h2---|-----------0h1h2-0h1h2--|
|-0-0-0-0-0-0-0---------|-0-0-0-0-0--------------|
...............           .........
|-----------------------|----------------------------|
|-----------------------|----------------------------|
|-----------------------|----------------------------|
|---------------------0-|----------------------------|
|---------------0h1h2---|-----------0h1p0---0h1p0----|
|-0-0-0-0-0-0-0---------|-0-0-0-0-0------3-3-----3-1-|


|-----------------------|----------------------------|
|-----------------------|----------------------------|
|-----------------------|----------------------------|
|---------------------0-|----------------------------|
|---------------0h1h2---|-----------0h1p0---0h1p0----|
|-0-0-0-0-0-0-0---------|-0-0-0-0-0------3-3-----3-3-|
...............           .........
|-----------------------|--------------------------|
|-----------------------|--------------------------|
|-----------------------|--------------------------|
|-----------------------|-----------------0--------|
|-----------------------|-----------0h1h2----------|
|-0-0-0-0-0-0-0-0-0-0-0-|-0-0-0-0-0----------------|
...................................
|-----------------------|----------------------------|
|-----------------------|----------------------------|
|-----------------------|----------------------------|
|-----------------------|----------------------------|
|-----------------------|--------0h1p0-----0h1p0-----|
|-0-0-0-0-0-0-0-0-0-0-0-|-0-0-0--------3-3-------3-1-|
...............................
|-----------------------|--------------------------|
|-----------------------|--------------------------|
|-----------------------|--------------------------|
|-----------------------|-----------------0--------|
|-----------------------|-----------0h1h2----------|
|-0-0-0-0-0-0-0-0-0-0-0-|-0-0-0-0-0----------------|
...................................
|-----------------------|----------------------------|
|-----------------------|----------------------------|
|-----------------------|----------------------------|
|-----------------------|----------------------------|
|-----------------------|--------0h1p0-----0h1p0-----|
|-0-0-0-0-0-0-0-0-0-0-0-|-0-0-0--------3-3-------3-1-|
...............................
|-----------------|--------------------|
|-----------------|--------------------|
|-----------------|--------------------|
|-555555555556--6-|-5555555555510-8--6-|
|-555555555556--6-|-5555555555510-6--4-|
|-333333333334--4-|-333333333338--6--4-|
.............       ...........
|-------------------------------|-------------------------------|
|-------------------------------|-------------------------------|
|-------------------------------|-------------------------------|
|-------------------------------|-------------------------------|
|-----------------------------5-|-----------------------------5-|
|-0-3-0-3-5-3-5-3-6-3-5-3-5-7---|-0-3-0-3-5-3-5-3-6-3-5-3-5-7---|
.................                 ............... 
|-------------------------------|-------------------------------|
|-------------------------------|-------------------------------|
|-------------------------------|-------------------------------|
|-------------------------------|-------------------------------|
|-----------------------------5-|-------------------------------|
|-0-3-0-3-5-3-5-3-6-3-5-3-5-7---|-0-3-0-3-5-3-5-3-6-5-3-0-------|
.................                 ...............

|-------------------------------|-------------------------------|
|-------------------------------|-------------------------------|
|-------------------------------|-------------------------------|
|-------------------------------|-------------------------------|
|-----------------------------5-|-----------------------------5-|
|-0-3-0-3-5-3-5-3-6-3-5-3-5-7---|-0-3-0-3-5-3-5-3-6-3-5-3-5-7---|
.................                 ...............
|-------------------------------|-------------------------------|
|-------------------------------|-------------------------------|
|-------------------------------|-------------------------------|
|-------------------------------|-----------------5---4---3-----|
|-----------------------------5-|-----------------5---4---3-----|
|-0-3-0-3-5-3-5-3-6-3-5-3-5-7---|-0-3-0-3-5-3-5-3-3---2---1-----|
.................                 ...............
Behind the Solo
|------------|------------|------------|-----------------|
|------------|------------|------------|-----------------|
|-----4------|-----5------|-----6------|-----7-----------|
|-----4------|-----5------|-----6------|-----7-5---4---3-|
|-----2------|-----3------|-----4------|-----5-5---4---3-|
|-0-0--------|-0-0--------|-0-0--------|-0-0---3---2---1-|
play this 4 times behind the solo. 
.....          ...          ...          ...
(Solo tabbed at the end)

|---------------------|-----------------------|-----------------------|
|-2p0----2p0---2p0/5*-|----2p0---2p0---2p0/5*-|----2p0---2p0---2p0/5*-|
|---------------------|-----------------------|-----------------------|
|---------------------|-----------------------|-----------------------|
|---------------------|-----------------------|-----------------------|
|-----0-0---0-0-------|-0-0---0-0---0-0-------|-------0-0---0-0-------|
      ...   ...         ...   ...   ...               ...   ...
|-------------------------------------|
|-------------------------------------|
|-------14p12--12p11--11p9--9p7--7p6--|
|-12-12------14-----12----11----9---7-|
|-------------------------------------|
|-------------------------------------|

|---------------------|-----------------------|-----------------------|
|-2p0----2p0---2p0/5*-|----2p0---2p0---2p0/5*-|----2p0---2p0---2p0/5*-|
|---------------------|-----------------------|-----------------------|
|---------------------|-----------------------|-----------------------|
|---------------------|-----------------------|-----------------------|
|-----0-0---0-0-------|-0-0---0-0---0-0-------|-------0-0---0-0-------|
      ...   ...         ...   ...   ...               ...   ...
|-17p15--15p14--14p12--12p10--10p9---|
|------17-----15-----14-----12----10-|
|------------------------------------|
|------------------------------------|
|------------------------------------|
|------------------------------------|


|-------------------------------|-------------------------------|
|-------------------------------|-------------------------------|
|-----------------------------8-|-----------------------------8-|
|---5---5-7-5-7-5-8-5-7-5-7-9---|---5---5-7-5-7-5-8-5-7-5-7-9---|
|-7---7-------------------------|-7---7-------------------------|
|-------------------------------|-------------------------------|
................................................................
|-------------------------------|-------------------------------|
|-------------------------------|-------------------------------|
|-----------------------------8-|-------------------------------|
|---5---5-7-5-7-5-8-5-7-5-7-9---|---5---5-7-5-7-5-8-7-5---------|
|-7---7-------------------------|-7---7-----------------7////---|
|-------------------------------|-------------------------------|
................................................................
|-------------------------------|-------------------------------|
|-------------------------------|-------------------------------|
|-------------------------------|-------------------------------|
|-------------------------------|-------------------------------|
|-----------------------------5-|-----------------------------5-|
|-0-3-0-3-5-3-5-3-6-3-5-3-5-7---|-0-3-0-3-5-3-5-3-6-3-5-3-5-7---|
..................                ...............
|-------------------------------|-------------------------------|
|-------------------------------|-------------------------------|
|-------------------------------|-------------------------------|
|-------------------------------|-------------------------------|
|-----------------------------5-|-------------------------------|
|-0-3-0-3-5-3-5-3-6-3-5-3-5-7---|-0-3-0-3-5-3-5-3-6-5-3-0-------|
.................                 ...............
|-------------------------------|-------------------------------|
|-------------------------------|-------------------------------|
|-------------------------------|-------------------------------|
|-------------------------------|-------------------------------|
|-----------------------------5-|-----------------------------5-|
|-0-3-0-3-5-3-5-3-6-3-5-3-5-7---|-0-3-0-3-5-3-5-3-6-3-5-3-5-7---|
.................                 ...............
|-------------------------------|-------------------------------|
|-------------------------------|-------------------------------|
|-------------------------------|-------------------------------|
|-------------------------------|-------------------------------|
|-----------------------------5-|-------------------------------|
|-0-3-0-3-5-3-5-3-6-3-5-3-5-7---|-0-3-0-3-5-3-5-3-6-5-3-0-------|
.................                 ...............
|---------------------|-----------------------|-----------------------|
|-2p0----2p0---2p0/5*-|----2p0---2p0---2p0/5*-|----2p0---2p0---2p0/5*-|
|---------------------|-----------------------|-----------------------|
|---------------------|-----------------------|-----------------------|
|---------------------|-----------------------|-----------------------|
|-----0-0---0-0-------|-0-0---0-0---0-0-------|-------0-0---0-0-------|
      ...   ...         ...   ...   ...               ...   ...
|-------------------------------|
|-------------------------------|
|-14p12--12p11--11p9--9p7--7p6--|
|------14-----12----11----9---7-|
|-------------------------------|
|-------------------------------|


|---------------------|-----------------------|-----------------------|
|-2p0----2p0---2p0/5*-|----2p0---2p0---2p0/5*-|----2p0---2p0---2p0/5*-|
|---------------------|-----------------------|-----------------------|
|---------------------|-----------------------|-----------------------|
|---------------------|-----------------------|-----------------------|
|-----0-0---0-0-------|-0-0---0-0---0-0-------|-------0-0---0-0-------|
      ...   ...         ...   ...   ...               ...   ...
|-17p15--15p14--14p12--12p10--10p9---|
|------17-----15-----14-----12----10-|
|------------------------------------|
|------------------------------------|
|------------------------------------|
|------------------------------------|

|-------------------------|
|-------------------------|
|-------------------------|
|-----------------------2-|
|-------------0h1p0-----2-|
|-0-0-0-0-0---------3-3-0-|
...........         


Solo
-----------------------------------------------------------------------------------------
-----------------------------------------------------------------------------------------
------------------------------------------------15----15----15^--------------------------
---------------8---8---8---------8/14--------14----14----14------------------------------
-----7-------7---7---7-------------------------------------------------------------11-12-
-0-0-------------------------------------------------------------11-12-15-11-12-15-------

-------------------------------------------------------------------11-12-15p12p11--11-12-
-------------------------------------------------11-12-15-11-12-15-----------------------
-------------------------------11-12-15-11-12-15-----------------------------------------
-------------11-12-15-11-12-15-----------------------------------------------------------
-15-11-12-15-----------------------------------------------------------------------------
-----------------------------------------------------------------------------------------

-15p12p11-15p12h15^^---12-14-17p14p12-12-14-17p14p12-12-14-17p14p12-12-14-17p14p12-12-15-
-----------------------------------------------------------------------------------------
-----------------------------------------------------------------------------------------
-----------------------------------------------------------------------------------------
-----------------------------------------------------------------------------------------
-----------------------------------------------------------------------------------------

-19p15p12h15-20p15p12h15-----------------------------------------------------------------
-------------------------20p15p12h15p12--------------------------------------------------
----------------------------------------20p15p12h15p12-----------------------------------
-------------------------------------------------------20p15p12h15p12-14--------14\5/14--
-----------------------------------------------------------------------------------------
-----------------------------------------------------------------------------------------

----------------------------------------------15-----------------18----18----18^---------
------------------------------15^-----15^--------15^-----15\8/17----17----17-------------
-15----15----15-------15~~~~--------------------------------------------------------7/14-
----14----14-----------------------------------------------------------------------------
-----------------------------------------------------------------------------------------
-----------------------------------------------------------------------------------------

-----------------------------------------------------------------------------------------
-12----------------12----------------12----------------12-----------------12^-12^--------
----15-14-12-14-15----15-14-12-14-15----15-14-12-14-15----15-14-12-14-15--12^-12^--------
---------------------------------------------------------------------------------14p12h14
-----------------------------------------------------------------------------------------
-----------------------------------------------------------------------------------------

-14^^---12-14-----12-15-----12-15------12-------------------15-----19-----20-----21------
--------------15^-------15^--------15^----14^p12-------11/12--12/15--15/17--17/18--18/19-
-------------------------------------------------14\0------------------------------------
-----------------------------------------------------------------------------------------
-----------------------------------------------------------------------------------------
-----------------------------------------------------------------------------------------

Here�s how I play the solo:

-----------------------------------------------------------------------------------------
-----------------------------------------------------------------------------------------
-----------------------------------------------------------15----15----15^^^^14-13-------
-----------------------8---8--8^^^^^-----------8/14^----14----14----14-------------------
-----7^^^^-----------7---7---------------------------------------------------------------
-0-0-------------------------------------------------------------------------------13-12-
pm��									
-------------------------------------------------------13-12-11-11-13-12-11-11-13^-------
-------------------------------------------13-12-11-11-----------------------------------
-------------------------------13-12-11-11-----------------------------------------------
-------------------13-12-11-11-----------------------------------------------------------
-------13-12-11-11-----------------------------------------------------------------------
-11-11-----------------------------------------------------------------------------------

-17-16-15-15-17-16-15-15-17-16-15-15-17-16-15-15----------------------------------------
-------------------------------------------------17-16-15-15----------------------------
-------------------------------------------------------------17-16-15-15----------------
-------------------------------------------------------------------------17-16-15-15----
-------------------------------------------------------------------------------------17-
----------------------------------------------------------------------------------------

------------------------------------------------------15-----------18----18----18^^^----
---------------------------------------------------15^---15^^\2/17----17----17----------
-----------------------------------15----15---15^^--------------------------------------
----------------------14^^------14----14------------------------------------------------
-16-15-15-------------------------------------------------------------------------------
----------17-16-15-15-------------------------------------------------------------------

----------------------------------------------------14^---------------------------------
-9-8-7-7-9-8-7-7-9-8-7-7-9-8-7-7-12^12^12^----------------15^^^-17-16-15-15-17-16-15-15-
---------------------------------12^12^12^----------------------------------------------
-------------------------------------------14p12h14-------------------------------------
----------------------------------------------------------------------------------------
----------------------------------------------------------------------------------------

-11-10-9-9-13-12-11-11-15-14-13-13-17-16-15-19-21^^^^-----------------------------------
----------------------------------------------------------------------------------------
----------------------------------------------------------------------------------------
----------------------------------------------------------------------------------------
----------------------------------------------------------------------------------------
----------------------------------------------------------------------------------------

2.PRIMAL CONCRETE SLEDGE

Drop D Tuning (D,A,D,G,B,E) 
 
 w/bar 
|-----|-----|-----|-----|---------------------------------| 
|-----|-----|-----|-----|---------------------------------| 
|-----|-----|-----|-----|---------------------------------| 
|-----|-----|-----|-----|---------------------------------| 
|-----|-----|--x--|--x--|-0-0---0-0---0-0---0-0---0-0---0-| 
|--x--|-(x)-|-----|-----|-0-0---0-0---0-0---0-0---0-0---0-| 
   w  +  w     w     w    s s S s s S s s S s s S s s S s 
             pick scrapes 
 
|---------------------------------|---------------------------------| 
|---------------------------------|---------------------------------| 
|---------------------------------|---------------------------------| 
|---------------------------------|---------------------------------| 
|-0---0-0---0-0---0-0---0-0---0-0-|---0-0---0-0---0-0---0-0---0-0---| 
|-0---0-0---0-0---0-0---0-0---0-0-|---0-0---0-0---0-0---0-0---0-0---| 
  s S s s S s s S s s S s s S s s   S s s S s s S s s S s s S s s S 
 
|---------------------------|-------------------|-------------------| 
|---------------------------|-------------------|-------------------| 
|---------------------------|-------------------|-------------------| 
|---------------------------|-------------------|-------------------| 
|-0-0---0-0---0-0---0-0-x/\-|-0-5---6--3--4---1-|-0-7---6--3--4---1-| 
|-0-0---0-0---0-0---0-0-----|-0-5---6--3--4---1-|-0-7---6--3--4---1-| 
  s s S s s S s s S s s q     e e+s e. e. s+e e   e e+s e. e. s+e e 
 
|-------------------|----------------|---------------------------------| 
|-------------------|----------------|---------------------------------| 
|-------------------|----------------|---------------------------------| 
|-------------------|----------------|---------------------------------| 
|-0-5---6--3--4---1-|-0-7---6--1-----|-0-0---0-0---0-0---0-0---0-0---0-| 
|-0-5---6--3--4---1-|-0-7---6--1-----|-0-0---0-0---0-0---0-0---0-0---0-| 
  e e+s e. e. s+e e   e e+s e. e E Q   s s S s s S s s S s s S s s S s 
 
|---------------------------------|---------------------------------| 
|---------------------------------|---------------------------------| 
|---------------------------------|---------------------------------| 
|---------------------------------|---------------------------------| 
|-0---0-0---0-0---0-0---0-0---0-0-|---0-0---0-0---0-0---0-0---0-0---| 
|-0---0-0---0-0---0-0---0-0---0-0-|---0-0---0-0---0-0---0-0---0-0---| 
  s S s s S s s S s s S s s S s s   S s s S s s S s s S s s S s s S 
 
                                   verse 1 
|---------------------------------|---------------------------------| 
|---------------------------------|---------------------------------| 
|---------------------------------|---------------------------------| 
|---------------------------------|---------------------------------| 
|-0-0---0-0---0-0---0-0---0-0---0-|-0---0-0---0-0---0-0---0-0---0-0-| 
|-0-0---0-0---0-0---0-0---0-0---0-|-0---0-0---0-0---0-0---0-0---0-0-| 
  s s S s s S s s S s s S s s S s   s S s s S s s S s s S s s S s s 
 
|---------------------------------|---------------------------------| 
|---------------------------------|---------------------------------| 
|---------------------------------|---------------------------------| 
|---------------------------------|---------------------------------| 
|---0-0---0-0---0-0---0-0---0-0---|-0-0---0-0---0-0---0-0---0-0---0-| 
|---0-0---0-0---0-0---0-0---0-0---|-0-0---0-0---0-0---0-0---0-0---0-| 
  S s s S s s S s s S s s S s s S   s s S s s S s s S s s S s s S s 
 
|---------------------------|-------------------|-------------------| 
|---------------------------|-------------------|-------------------| 
|---------------------------|-------------------|-------------------| 
|---------------------------|-------------------|-------------------| 
|-0---0-0---0-0---0-0---0---|-0-5---6--3--4---1-|-0-7---6--3--4---1-| 
|-0---0-0---0-0---0-0---0---|-0-5---6--3--4---1-|-0-7---6--3--4---1-| 
  s S s s S s s S s s S s+q   e e+s e. e. s+e e   e e+s e. e. s+e e 
 
                    9/8                   2/4 
|-------------------|---------------------|-------|| 
|-------------------|---------------------|-------|| 
|-------------------|---------------------|-------|| 
|-------------------|---------------------|-------|| 
|-0-5---6--3--4---1-|-0-7---6--5--4---3-2-|-1-----|| 
|-0-5---6--3--4---1-|-0-7---6--5--4---3-2-|-1-----|| 
  e e+s e. e. s+e e   e e+s e. e. s+e e e   e E Q 
 
 4/4 
|---------------------------------|---------------------------------| 
|---------------------------------|---------------------------------| 
|---------------------------------|---------------------------------| 
|---------------------------------|---------------------------------| 
|-0-0---0-0---0-0---0-0---0-0---0-|-0---0-0---0-0---0-0---0-0---0-0-| 
|-0-0---0-0---0-0---0-0---0-0---0-|-0---0-0---0-0---0-0---0-0---0-0-| 
  s s S s s S s s S s s S s s S s   s S s s S s s S s s S s s S s s 
 
|---------------------------------|---------------------------------| 
|---------------------------------|---------------------------------| 
|---------------------------------|---------------------------------| 
|---------------------------------|---------------------------------| 
|---0-0---0-0---0-0---0-0---0-0---|-0-0---0-0---0-0---0-0---0-0---0-| 
|---0-0---0-0---0-0---0-0---0-0---|-0-0---0-0---0-0---0-0---0-0---0-| 
  S s s S s s S s s S s s S s s S   s s S s s S s s S s s S s s S s 
 
 verse 2 
|---------------------------------|---------------------------------| 
|---------------------------------|---------------------------------| 
|---------------------------------|---------------------------------| 
|---------------------------------|---------------------------------| 
|-0---0-0---0-0---0-0---0-0---0-0-|---0-0---0-0---0-0---0-0---0-0---| 
|-0---0-0---0-0---0-0---0-0---0-0-|---0-0---0-0---0-0---0-0---0-0---| 
  s S s s S s s S s s S s s S s s   S s s S s s S s s S s s S s s S 
 
|---------------------------------|---------------------------| 
|---------------------------------|---------------------------| 
|---------------------------------|---------------------------| 
|---------------------------------|---------------------------| 
|-0-0---0-0---0-0---0-0---0-0---0-|-0---0-0---0-0---0-0---0---| 
|-0-0---0-0---0-0---0-0---0-0---0-|-0---0-0---0-0---0-0---0---| 
  s s S s s S s s S s s S s s S s   s S s s S s s S s s S s+q 
 
|-------------------|-------------------|-------------------| 
|-------------------|-------------------|-------------------| 
|-------------------|-------------------|-------------------| 
|-------------------|-------------------|-------------------| 
|-0-5---6--3--4---1-|-0-7---6--3--4---1-|-0-5---6--3--4---1-| 
|-0-5---6--3--4---1-|-0-7---6--3--4---1-|-0-5---6--3--4---1-| 
  e e+s e. e. s+e e   e e+s e. e. s+e e   e e+s e. e. s+e e 
 
 9/8                  2/4 
|---------------------|-------|| 
|---------------------|-------|| 
|---------------------|-------|| 
|---------------------|-------|| 
|-0-7---6--5--4---3-2-|-1-----|| 
|-0-7---6--5--4---3-2-|-1-----|| 
  e e+s e. e. s+e e e   e E Q 
 
||---------------------------------|---------------------------------| 
||---------------------------------|---------------------------------| 
||o--------------------------------|---------------------------------| 
||o--4-5-3-4--h5p4---4-------------|-5h6p6-4-5-4h5p4---4-------------| 
||-----------------6---------------|-----------------6---------------| 
||---------------------0-0-0-0-0-0-|---------------------0-0-0-0-0-0-| 
     s s s s+s+t+t s s e s s e s s   s+t+t s s s+t+t s s e s s e s s 
 
                                                                            2x 
|---------------------------------|------------------------------------------|| 
|---------------------------------|------------------------------------------|| 
|---------------------------------|-----------------------------------------o|| 
|-4h5p4---4-4h5p4---4-------------|-5h6p5-4-5h6p5-4-5h6p5-4-5h6p5-4-6h7p6-5-o|| 
|-------6---------6---------------|------------------------------------------|| 
|---------------------0-0-0-0-0-0-|------------------------------------------|| 
  s+t+t s s s+t+t s s e s s e s s   s+t+t s s+t+t s s+t+t s s+t+t s s+t+t e 
 
|-----------------|-----------------|-----------------|---------------| 
|-----------------|-----------------|-----------------|---------------| 
|-----------------|-----------------|-----------------|---------------| 
|-----------------|-----------------|-----------------|---------------| 
|-5---5-6---5-----|-5---5-----5-----|-5---5-6---5-----|---1---1---1---| 
|-0-0-0-0-0-0-0-0-|-0-0-0-0-0-0-0-0-|-0-0-0-0-0-0-0-0-|-0-1---1---1---| 
  e e e e e e e e   e e e e e e e e   e e e e e e e e   e e Q e E e E 
 
                                                           2x 
||--------------------|-----|-----|------------------------|| 
||--------------------|-----|-----|------------------------|| 
||o-------------------|-----|-----|-----------------------o|| 
||o-------------------|--%--|--%--|-----------------------o|| 
||--0---0-------0-----|-----|-----|---1-1-1-1-1-1-1-1-1-1--|| 
||--0-0-0-0-0-0-0-0-0-|-----|-----|-0-1-1-1-1-1-1-1-1-1-1--|| 
    e e e s s e e e e               e s s e e s s e s s e 
 
|------------------------------------------------------------| 
|------------------------------------------------------------| 
|------------------------------------------------------------| 
|------------------------------------------------------------| 
|-0----------------------------------------------------------| 
|-0----------------------------------------------------------| 
| w                                                          + 
|                                                            | 
|-11-10-8-10-8----10-8----8----------------------------------| 
|--------------11------11---11-10-8-10-8-7-8-7----8-7--------| 
|----------------------------------------------10-----10-8-7-| 
|------------------------------------------------------------| 
|------------------------------------------------------------| 
|------------------------------------------------------------| 
  s  s  s s  s s  s  s s  s s  s  s s  s s s s s  s e s  s s 
  {     6      }  {       7       } {    6     }  {   6    } 
 
|---------------------------------------------------|-----------------| 
|---------------------------------------------------|-----------------| 
|---------------------------------------------------|-----------------| 
|---------------------------------------------------|-----------------| 
|-(0)-----------------------------------------------|-0-1-1-1-1-1-1-1-| 
|-(0)-----------------------------------------------|-0-1-1-1-1-1-1-1-| 
+  w                                                | e e e e e e e e | 
|                                                   |                 | 
|                                                   |   vib.          | 
|---------------------------------------------------|-----------------| 
|---------------------------------------------------|-----------------| 
|-8-7-5-7-5---7-5---5-------------------------------|-----------------| 
|-----------8-----8---8-7-5-7-5-4-5-4-3-5-4-3-4-3---|-----------------| 
|-------------------------------------------------6-|-5~~~~-----------| 
|---------------------------------------------------|-----------------| 
  s s s s s s s s s s s s s s s s s s s s s s s s s   w 
  {    6    } {     7     } {    6    } {    6    } 
 
                    7/8                4/4 
|-------------------|-----------------||---------------------------------| 
|-------------------|-----------------||---------------------------------| 
|-------------------|-----------------||---------------------------------| 
|-------------------|-----------------||---------------------------------| 
|-1-1---3--4--5---6-|---7--6--5---3-1-||-0-0---0-0---0-0---0-0---0-0---0-| 
|-1-1---3--4--5---6-|---7--6--5---3-1-||-0-0---0-0---0-0---0-0---0-0---0-| 
  e e+s e. e. s+e e + s e. e. s+e e e    s s S s s S s s S s s S s s S s 
 
|---------------------------------|---------------------------------|-----|| 
|---------------------------------|---------------------------------|-----|| 
|---------------------------------|---------------------------------|-----|| 
|---------------------------------|---------------------------------|-----|| 
|-0---0-0---0-0---0-0---0-0---0-0-|---0-0---0-0---0-0---0-0---0-0---|--0--|| 
|-0---0-0---0-0---0-0---0-0---0-0-|---0-0---0-0---0-0---0-0---0-0---|--0--|| 
  s S s s S s s S s s S s s S s s   S s s S s s S s s S s s S s s S    w 
 
||--------------------|-------------------|-------------------| 
||--------------------|-------------------|-------------------| 
||o-------------------|-------------------|-------------------| 
||o-------------------|-------------------|-------------------| 
||--0-5---6--3--4---1-|-0-7---6--3--4---1-|-0-5---6--3--4---1-| 
||--0-5---6--3--4---1-|-0-7---6--3--4---1-|-0-5---6--3--4---1-| 
    e e+s e. e. s+e e   e e+s e. e. s+e e   e e+s e. e. s+e e 
 
|1. 9/8                 |2. 9/8                4/4 
|----------------------||---------------------|---------|| 
|----------------------||---------------------|---------|| 
|---------------------o||---------------------|---------|| 
|---------------------o||---------------------|---------|| 
|-0-7---6--5--4---3-1--||-0-7---6--5--4---3-2-|-1-------|| 
|-0-7---6--5--4---3-1--||-0-7---6--5--4---3-2-|-1-------|| 
  e e+s e. e. s+e e e     e e+s e. e. s+e e e   e E Q H 
 
 
 
              PRIMAL CONCRETE SLEDGE - PANTERA   BASS 
              --------------------------------------- 
 
Drop D Tuning  (D,A,D,G) 
 
                                    4x                                    4x 
||-----------------------------------|||-----------------------------------|| 
||o---------------------------------o|||o---------------------------------o|| 
||o---------------------------------o|||o---------------------------------o|| 
||--0-0-0-0-0-0-0-0-0-0-0-0-0-0-0-0--|||--0-0-0-0-0-0-0-0-0-0-0-0-0-0-0-0--|| 
    s s s s s s s s s s s s s s s s       s s s s s s s s s s s s s s s s 
 
 
|-------------------|-------------------|-------------------|----------------| 
|-------------------|-------------------|-------------------|----------------| 
|-------------------|-------------------|-------------------|----------------| 
|-0-5---6--3--4---1-|-0-7---6--3--4---1-|-0-5---6--3--4---1-|-0-7---6--1-----| 
  e e+s e. e. s+e e   e e+s e. e. s+e e   e e+s e. e. s+e e   e e+s e. e E Q 
 
                                    4x  verse 1                           4x 
||-----------------------------------|||-----------------------------------|| 
||o---------------------------------o|||o---------------------------------o|| 
||o---------------------------------o|||o---------------------------------o|| 
||--0-0-0-0-0-0-0-0-0-0-0-0-0-0-0-0--|||--0-0-0-0-0-0-0-0-0-0-0-0-0-0-0-0--|| 
    s s s s s s s s s s s s s s s s       s s s s s s s s s s s s s s s s 
 
|-------------------|-------------------|-------------------| 
|-------------------|-------------------|-------------------| 
|-------------------|-------------------|-------------------| 
|-0-5---6--3--4---1-|-0-7---6--3--4---1-|-0-5---6--3--4---1-| 
  e e+s e. e. s+e e   e e+s e. e. s+e e   e e+s e. e. s+e e 
 
 9/8                   2/4 
|---------------------|-------|| 
|---------------------|-------|| 
|---------------------|-------|| 
|-0-7---6--5--4---3-2-|-1-----|| 
  e e+s e. e. s+e e e   e E Q 
 
  4/4                               4x  verse 2                           4x 
||-----------------------------------|||-----------------------------------|| 
||o---------------------------------o|||o---------------------------------o|| 
||o---------------------------------o|||o---------------------------------o|| 
||--0-0-0-0-0-0-0-0-0-0-0-0-0-0-0-0--|||--0-0-0-0-0-0-0-0-0-0-0-0-0-0-0-0--|| 
    s s s s s s s s s s s s s s s s       s s s s s s s s s s s s s s s s 
 
|-------------------|-------------------|-------------------| 
|-------------------|-------------------|-------------------| 
|-------------------|-------------------|-------------------| 
|-0-5---6--3--4---1-|-0-7---6--3--4---1-|-0-5---6--3--4---1-| 
  e e+s e. e. s+e e   e e+s e. e. s+e e   e e+s e. e. s+e e 
 
 9/8                   2/4 
|---------------------|-------|| 
|---------------------|-------|| 
|---------------------|-------|| 
|-0-7---6--5--4---3-2-|-1-----|| 
  e e+s e. e. s+e e e   e E Q 
 
||--------------------|-------------------|-------------------| 
||o-------------------|-------------------|-------------------| 
||o-------------------|-------------------|-------------------| 
||--0-0-0-0-0-0-0-0-0-|-0-0-0-0-0-0-0-0-0-|-0-0-0-0-0-0-0-0-0-| 
    q e e e s s e s s   q e e e s s e s s   q e e e s s e s s 
 
|1.                 |2. 
|------------------||---------------||-----------------|-----|-----| 
|-----------------o||---------------||-----------------|-----|-----| 
|-----------------o||---------------||-----------------|--%--|--%--| 
|-1--1---1---1--1--||-1-1-1-1-1-1-1-||-0-0-0-0-0-0-0-0-|-----|-----| 
  e. s+e e+s e. q     e q e q e s s    e e e e e e e e 
 
|---------------||--------------------------|-----|-----| 
|---------------||o-------------------------|-----|-----| 
|---------------||o-------------------------|--%--|--%--| 
|-0-1---1---1---||--0-0-0-0-0-0-0-0-0-0-0-0-|-----|-----| 
  e e Q e E e E     e s s e s s e s s e s s 
 
                           2x 
|---------------------------||-----|-----|-----------------| 
|-------------------------o-||-----|-----|-----------------| 
|-------------------------o-||-----|-----|-----------------| 
|-0-1-1-1-1-1-1-1-1-1-1-1---||--0--|-(0)-|-0-1-1-1-1-1-1-1-| 
  e s s e s s e s s e s s       w  +  w    e e e e e e e e 
 
                      7/8               4/4                                4x 
|--------------------|-----------------||-----------------------------------|| 
|--------------------|-----------------||o---------------------------------o|| 
|--------------------|-----------------||o---------------------------------o|| 
|-1-1---3--4---5---6-|---7--6--5---3-1-||--0-0-0-0-0-0-0-0-0-0-0-0-0-0-0-0--|| 
  e e+s e. e.  s+e e + s e. e. s+e e e     s s s s s s s s s s s s s s s s 
 
||--------------------|-------------------|-------------------| 
||o-------------------|-------------------|-------------------| 
||o-------------------|-------------------|-------------------| 
||--0-5---6--3--4---1-|-0-7---6--3--4---1-|-0-5---6--3--4---1-| 
    e e+s e. e. s+e e   e e+s e. e. s+e e   e e+s e. e. s+e e 
 
|1. 9/8                 |2.  9/8              4/4 
|----------------------||---------------------|---------|| 
|---------------------o||---------------------|---------|| 
|---------------------o||---------------------|---------|| 
|-0-7---6--5--4---3-1--||-0-7---6--5--4---3-2-|-1-------|| 
  e e+s e. e. s+e e e     e e+s e. e. s+e e e   e E Q H

3.PSYCHO HOLIDAY

16th note triplet feel ( s s = e s ) 
                                {3} 
 
|-------------------------------------|-----|-----|-----|| 
|-------------------------------------|-----|-----|-----|| 
|-------------------------------------|-----|-----|-----|| 
|-------------------------------------|--%--|--%--|--%--|| 
|-------------------------------------|-----|-----|-----|| 
|-2-2-2-2-2-2-2-2-2-2-2-2-2-2-2-2-2-2-|-----|-----|-----|| 
  s s s s s s s s s s s s s s s s s s 
  { 3 }             { 3 } 
 
|---------------------|---------------------|---------------------| 
|---------------------|---------------------|---------------------| 
|---------------3-----|---------------2-----|---------------1-----| 
|---------------3-----|---------------2-----|---------------1-----| 
|---------------------|---------------------|---------------------| 
|-4-4-4-4-4-4-4-------|-4-4-4-4-4-4-4-------|-4-4-4-4-4-4-4-------| 
  s s s s s s s e + h   s s s s s s s e + h   s s s s s s s e + h 
  { 3 }                 { 3 }                 { 3 } 
 
|---------------------|---------------------|---------------------| 
|---------------------|---------------------|---------------------| 
|---------------0-----|---------------3-----|---------------2-----| 
|---------------0-----|---------------3-----|---------------2-----| 
|---------------------|---------------------|---------------------| 
|-4-4-4-4-4-4-4-------|-4-4-4-4-4-4-4-------|-4-4-4-4-4-4-4-------| 
  s s s s s s s e + h   s s s s s s s e + h   s s s s s s s e + h 
  { 3 }                 { 3 }                 { 3 } 
 
                        Harm 
                          vib. 
|---------------------|-------------||------------------------------------| 
|---------------------|-------------||------------------------------------| 
|---------------1-----|--5----------||----------------------------------7-| 
|---------------1-----|-------------||-6-4--------------6-4-------------7-| 
|---------------------|---------x\--||-----6-5-4-5----------6-5-4-5-------| 
|-4-4-4-4-4-4-4-------|-------------||-------------7-4--------------7-4---| 
  s s s s s s s e + h   h.      q      s s s s s s s e. s s s s s s s s e 
  { 3 }                                {    6    }      {    6    } 
 
            9/8 
|-----|-----|--------------------------------------|| 
|-----|-----|--------------------------------------|| 
|-----|-----|----------------------------------7---|| 
|--%--|--%--|-6-4--------------6-4-------------7---|| 
|-----|-----|-----6-5-4-5----------6-5-4-5---------|| 
|-----|-----|-------------7-4--------------7-4-----|| 
              s s s s s s s e. s s s s s s s s e E 
              {    6    }      {    6    } 
 
 4/4 
  verse 1 
|-------------------------------------|-----|-----|-----|-----|-----| 
|-------------------------------------|-----|-----|-----|-----|-----| 
|-------------------------------------|-----|-----|-----|-----|-----| 
|-------------------------------------|--%--|--%--|--%--|--%--|--%--| 
|-------------------------------------|-----|-----|-----|-----|-----| 
|-0-0-0-0-0-0-0-0-0-0-0-0-0-0-0-0-0-0-|-----|-----|-----|-----|-----| 
  s s s s s s s s s s s s s s s s s s 
  { 3 }             { 3 } 
 
|-----|-----|------------------------------------| 
|-----|-----|------------------------------------| 
|-----|-----|----------------------------------7-| 
|--%--|--%--|-6-4--------------6-4-------------7-| 
|-----|-----|-----6-5-4-5----------6-5-4-5-------| 
|-----|-----|-------------7-4--------------7-4---| 
              s s s s s s s e. s s s s s s s s e 
              {    6    }      {    6    } 
 
|-------------------------------------|-----| 
|-------------------------------------|-----| 
|-------------------------------------|-----| 
|-------------------------------------|--%--| 
|-------------------------------------|-----| 
|-0-0-0-0-0-0-0-0-0-0-0-0-0-0-0-0-0-0-|-----| 
  s s s s s s s s s s s s s s s s s s 
  { 3 }             { 3 } 
 
                                                  2/4 
|------------------------------------|-----|-----|------------------| 
|------------------------------------|-----|-----|------------------| 
|----------------------------------7-|-----|-----|------------------| 
|-6-4--------------6-4-------------7-|--%--|--%--|-6-4--------------| 
|-----6-5-4-5----------6-5-4-5-------|-----|-----|-----6-5-4-5------| 
|-------------7-4--------------7-4---|-----|-----|-------------7-4--| 
  s s s s s s s e. s s s s s s s s e               s s s s s s s e. 
  {    6    }      {    6    }                     {    6    } 
 
 4/4                   chorus                                  Harm & bar 
|-------------------||-----|-----|-----|-----|-----|-----|-----|-x---|| 
|-------------------||-----|-----|-----|-----|-----|-----|-----|-----|| 
|-----7-----7-7-----||-3---|-2---|-1---|-0---|-3---|-2---|-1---|-----|| 
|-----7-----7-7-----||-3---|-2---|-1---|-0---|-3---|-2---|-1---|-----|| 
|-------------------||-----|-----|-----|-----|-----|-----|-----|-----|| 
|-0-0---0-0---------||-----|-----|-----|-----|-----|-----|-----|-----|| 
  e e e e e e e E Q    w     w     w     w     w     w     w     w 
  { 3 } { 3 } 
 
  verse 2 
|-------------------------------------|-----|-----|-----|-----|-----| 
|-------------------------------------|-----|-----|-----|-----|-----| 
|-------------------------------------|-----|-----|-----|-----|-----| 
|-------------------------------------|--%--|--%--|--%--|--%--|--%--| 
|-------------------------------------|-----|-----|-----|-----|-----| 
|-0-0-0-0-0-0-0-0-0-0-0-0-0-0-0-0-0-0-|-----|-----|-----|-----|-----| 
  s s s s s s s s s s s s s s s s s s 
  { 3 }             { 3 } 
 
|-----|-----|------------------------------------| 
|-----|-----|------------------------------------| 
|-----|-----|----------------------------------7-| 
|--%--|--%--|-6-4--------------6-4-------------7-| 
|-----|-----|-----6-5-4-5----------6-5-4-5-------| 
|-----|-----|-------------7-4--------------7-4---| 
              s s s s s s s e. s s s s s s s s e 
              {    6    }      {    6    } 
 
|-------------------------------------|-----| 
|-------------------------------------|-----| 
|-------------------------------------|-----| 
|-------------------------------------|--%--| 
|-------------------------------------|-----| 
|-0-0-0-0-0-0-0-0-0-0-0-0-0-0-0-0-0-0-|-----| 
  s s s s s s s s s s s s s s s s s s 
  { 3 }             { 3 } 
 
                                                  2/4 
|------------------------------------|-----|-----|------------------| 
|------------------------------------|-----|-----|------------------| 
|----------------------------------7-|-----|-----|------------------| 
|-6-4--------------6-4-------------7-|--%--|--%--|-6-4--------------| 
|-----6-5-4-5----------6-5-4-5-------|-----|-----|-----6-5-4-5------| 
|-------------7-4--------------7-4---|-----|-----|-------------7-4--| 
  s s s s s s s e. s s s s s s s s e               s s s s s s s e. 
  {    6    }      {    6    }                     {    6    } 
 
 4/4                   chorus 
|-------------------||-----|-----|-----|-----|-----|-----|-----| 
|-------------------||-----|-----|-----|-----|-----|-----|-----| 
|-----7-----7-7-----||-3---|-2---|-1---|-0---|-3---|-2---|-1---| 
|-----7-----7-7-----||-3---|-2---|-1---|-0---|-3---|-2---|-1---| 
|-------------------||-----|-----|-----|-----|-----|-----|-----| 
|-0-0---0-0---------||-----|-----|-----|-----|-----|-----|-----| 
  e e e e e e e E Q    w     w     w     w     w     w     w 
  { 3 } { 3 } 
 
|-------------------|| 
|-------------------|| 
|-------------------|| 
|-6-4---------------|| 
|-----6-5-4---------|| 
|-----------7-4-----|| 
  s s s s s s e E H 
  {    6    } 
 
 solo     full       1/2         full  full 
|-------0----------0----|-------0-3b---5b-----| 
|-----0---3b-----0---2b-|-----0---------------| 
|-0h1--------0h1--------|-0h1-----------------| 
|-----------------------|---------------------| 
|-----------------------|---------------------| 
|-----------------------|---------------------| 
  s s s s q  s s s s q    s s s s q  S e.+e E 
 
              full            1/2              1 1/2 
|----------12--------------12-----|----------12-15b---15-----|| 
|-------12----15b-------12----14b-|-------12-------------14--|| 
|-12h13-----------12h13-----------|-12h13--------------------|| 
|---------------------------------|--------------------------|| 
|---------------------------------|--------------------------|| 
|---------------------------------|--------------------------|| 
  s  s  s  s  q   s  s  s  s  q     s  s  s  s  q   E s  s+q 
 
|-------------------------------------------------------15-17----15-17----| 
|-------------------15-17----15-17----15-17-18-15-17-18-------18-------18-| 
|-15-17-18-15-17-18-------18-------18-------------------------------------| 
|-------------------------------------------------------------------------| 
|-------------------------------------------------------------------------| 
|-------------------------------------------------------------------------| 
  s  s  s  s  s  s  s  s  s  s  s  s  s  s  s  s  s  s  s  s  s  s  s  s 
  {      6       }  {      6       }  {      6       }  {      6       } 
 
                                                           full 2 
|-15-17-18-17-17-18-17-18-17-18-17-15-15-17-18-17-15----15-18b--b-----| 
|----------------------------------------------------18-----------x---| 
|-------------------------------------------------------------------x-| 
|---------------------------------------------------------------------| 
|---------------------------------------------------------------------| 
|---------------------------------------------------------------------| 
  s  s  s  s  s  s  s  t  t  t  t  s  t  t  s  s  s  s  s  e      e s + 
  {        7        }                       {       7      } 
 
|--------18-22-18----17-------------------18-22-18----------------------| 
|-----20----------20----20-18----18----20----------20-20-18-18----18----| 
|-(x)-------------------------19----19-------------------------19----19-| 
|-----------------------------------------------------------------------| 
|-----------------------------------------------------------------------| 
|-----------------------------------------------------------------------| 
+  e  s  s  s  s  s  s  s  s  s  s  s  s  s  s  s  s  s  s  s  s  s  s 
            {      6       }  {        7        }  {        7        } 
 
|---------------------------------------------------------------------|| 
|----18----20-18----18-22----18----18---------------------------------|| 
|-18----18-------19-------19----18----18----18----18------------------|| 
|----------------------------------------20----18----18----17----17~~-|| 
|-------------------------------------------------------20----20------|| 
|---------------------------------------------------------------------|| 
  t  t  t  t  t  t  t  t  s  s  s  s  s  s  s  s  s  s  s  s  s  q 
                          {        7        }  {      6       } 
 
               full           1/2               full   full 
|----------12--------------12-----|----------12-15b---17b~-----| 
|-------12----15b-------12----14b-|-------12---------------/17-| 
|-12h13-----------12h13-----------|-12h13----------------------| 
|---------------------------------|----------------------------| 
|---------------------------------|----------------------------| 
|---------------------------------|----------------------------| 
  s  s  s  s  q   s  s  s  s  q     s  s  s  s  q   E q     e 
 
|----19-------18----22-17-------17-------19-------18-------17-------18-------| 
|-20----19-20----20-------19-20----19-20----19-20----19-20----19-20----19-20-| 
|----------------------------------------------------------------------------| 
|----------------------------------------------------------------------------| 
|----------------------------------------------------------------------------| 
|----------------------------------------------------------------------------| 
  s  s  s  s  s  s  s  s  s  s  s  s  s  s  s  s  s  s  s  s  s  s  s  s  s 
  {      6       }  {      6       }  {        7        }  {      6       } 
 
|-19-------18-------17-------18-------18b~~~-----|| 
|----19-20----19-20----19-------19------------x\-|| 
|-------------------------19-------19------------|| 
|------------------------------------------------|| 
|------------------------------------------------|| 
|------------------------------------------------|| 
  s  s  s  s  s  s  s  s  s  s  s  s  q.      e 
  {      6       }  {      6       } 
 
|-15-17-18-17-18-17-18-17-15-17-15----------15-17-15-17-15---------------- 
|----------------------------------18-18-17----------------18-18-17-15-17- 
|------------------------------------------------------------------------- 
|------------------------------------------------------------------------- 
|------------------------------------------------------------------------- 
|------------------------------------------------------------------------- 
  s  s  s  s  s  s  s  s  s  s  s  s  s  s  s  s  s  s  s  t  t  t  t  t 
        {  3  }  {        7        }  {        7        } 
 
                                                bar------------------------- 
----------|------------------------------------------------|-/15~~\-/15~~\-| 
-15-14-15-|-16-15-14-15-18-17-15-14-15-14-------x\---------|---------------| 
----------|-------------------------------17-16-----x\--x\-|---------------| 
----------|------------------------------------------------|---------------| 
----------|------------------------------------------------|---------------| 
----------|------------------------------------------------|---------------| 
 t  t  t    t  t  t  t  t  t  t  t  s  s  s  s  s+q q   q     h      h 
                                    {  3  }       {  3  } 
 
--------------|        full       full       full 
|----------------||--------17-20-----|-17-19-----17---------------------| 
|---/13----~\----||---20b--------20b-|-------20b----19-20-17------------| 
|----------------||------------------|-----------------------18---------| 
|----------------||------------------|--------------------------19------| 
|----------------||------------------|----------------------------------| 
|----------------||------------------|-----------------------------19~~-| 
  E  q. + h         E q.+q e  e  e     e  e  e   e  e  e  e  e  e  q 
                           {  3  }     {  3  }   {  3  }  {  3  } 
 
    full     full  vib  bar 
|------------24b-|-~~--\--|| 
|---22b~---------|--------|| 
|----------------|--------|| 
|----------------|--------|| 
|----------------|--------|| 
|----------------|--------|| 
  E q. + q E e   + h + h 
 
  verse 3 
|-------------------------------------|-----|-----|-----|-----|-----| 
|-------------------------------------|-----|-----|-----|-----|-----| 
|-------------------------------------|-----|-----|-----|-----|-----| 
|-------------------------------------|--%--|--%--|--%--|--%--|--%--| 
|-------------------------------------|-----|-----|-----|-----|-----| 
|-0-0-0-0-0-0-0-0-0-0-0-0-0-0-0-0-0-0-|-----|-----|-----|-----|-----| 
  s s s s s s s s s s s s s s s s s s 
  { 3 }             { 3 } 
 
|-----|-----|------------------------------------| 
|-----|-----|------------------------------------| 
|-----|-----|----------------------------------7-| 
|--%--|--%--|-6-4--------------6-4-------------7-| 
|-----|-----|-----6-5-4-5----------6-5-4-5-------| 
|-----|-----|-------------7-4--------------7-4---| 
              s s s s s s s e. s s s s s s s s e 
              {    6    }      {    6    } 
 
|-------------------------------------|-----| 
|-------------------------------------|-----| 
|-------------------------------------|-----| 
|-------------------------------------|--%--| 
|-------------------------------------|-----| 
|-0-0-0-0-0-0-0-0-0-0-0-0-0-0-0-0-0-0-|-----| 
  s s s s s s s s s s s s s s s s s s 
  { 3 }             { 3 } 
 
                                                  2/4 
|------------------------------------|-----|-----|------------------| 
|------------------------------------|-----|-----|------------------| 
|----------------------------------7-|-----|-----|------------------| 
|-6-4--------------6-4-------------7-|--%--|--%--|-6-4--------------| 
|-----6-5-4-5----------6-5-4-5-------|-----|-----|-----6-5-4-5------| 
|-------------7-4--------------7-4---|-----|-----|-------------7-4--| 
  s s s s s s s e. s s s s s s s s e               s s s s s s s e. 
  {    6    }      {    6    }                     {    6    } 
 
 4/4                   chorus                                   Harm & bar 
|-------------------||-----|-----|-----|-----|-----|-----|-----|-/x--/-\-|| 
|-------------------||-----|-----|-----|-----|-----|-----|-----|---------|| 
|-----7-----7-7-----||-3---|-2---|-1---|-0---|-3---|-2---|-1---|---------|| 
|-----7-----7-7-----||-3---|-2---|-1---|-0---|-3---|-2---|-1---|---------|| 
|-------------------||-----|-----|-----|-----|-----|-----|-----|---------|| 
|-0-0---0-0---------||-----|-----|-----|-----|-----|-----|-----|---------|| 
  e e e e e e e E Q    w     w     w     w     w     w     w      w 
  { 3 } { 3 } 
 
                         harm------| 
    dive    dive   dive          vib      dive    dive   dive   vib 
|-------|-------|------|--------------|-------|-------|------|-/15~------|| 
|-11--\-|-10--\-|-9--\-|--------2~~~--|-11--\-|-10--\-|-9--\-|-----------|| 
|-------|-------|------|-2--3---------|-------|-------|------|-----------|| 
|-8---\-|-7---\-|-6--\-|--------------|-8---\-|-7---\-|-6--\-|-----------|| 
|-------|-------|------|--------------|-------|-------|------|-----------|| 
|-------|-------|------|--------------|-------|-------|------|-----------|| 
  w       w       w       e. s+e e + h  w       w       w       q   Q  H 
 
 ( s s = s s ) 
  outro 
|---------------------------------|---------------------------------| 
|---------------------------------|---------------------------------| 
|---------------------------------|---------------------------------| 
|---------------------------------|---------------------------------| 
|-8-------8-------8-----8-------8-|-7-------7-------7-----7-------7-| 
|-6-6-6-6-6-6-6-6-6-6-6-6-6-6-6-6-|-5-5-5-5-5-5-5-5-5-5-5-5-5-5-5-5-| 
  s s s s s s s s s s s s s s s s   s s s s s s s s s s s s s s s s 
 
|---------------------------------|---------------------------------| 
|---------------------------------|---------------------------------| 
|---------------------------------|---------------------------------| 
|---------------------------------|---------------------------------| 
|-6-------6-------6-----6-------6-|-5-------------------------------| 
|-4-4-4-4-4-4-4-4-4-4-4-4-4-4-4-4-|-3-3-3-3-3-3-3-3-3-3-3-3-3-3-3-3-| 
  s s s s s s s s s s s s s s s s   s s s s s s s s s s s s s s s s 
 
|---------------------------------|---------------------------------| 
|---------------------------------|---------------------------------| 
|---------------------------------|---------------------------------| 
|---------------------------------|---------------------------------| 
|-8-------8-------8-----8-------8-|-7-------7-------7-----7-------7-| 
|-6-6-6-6-6-6-6-6-6-6-6-6-6-6-6-6-|-5-5-5-5-5-5-5-5-5-5-5-5-5-5-5-5-| 
  s s s s s s s s s s s s s s s s   s s s s s s s s s s s s s s s s 
 
|---------------------------------|-----------------------| 
|---------------------------------|-----------------------| 
|---------------------------------|-----------------------| 
|---------------------------------|-----------------------| 
|-6-------6-------6-----6-------6-|-5--5--5-3--5--5--5-4--| 
|-4-4-4-4-4-4-4-4-4-4-4-4-4-4-4-4-|-3--3--3-1--3--3--3-2--| 
  s s s s s s s s s s s s s s s s   e  e  s e. e  e  s e. 
 
|---------------------------------|---------------------------------| 
|---------------------------------|---------------------------------| 
|---------------------------------|---------------------------------| 
|---------------------------------|---------------------------------| 
|-8-------8-------8-----8-------8-|-7-------7-------7-----7-------7-| 
|-6-6-6-6-6-6-6-6-6-6-6-6-6-6-6-6-|-5-5-5-5-5-5-5-5-5-5-5-5-5-5-5-5-| 
  s s s s s s s s s s s s s s s s   s s s s s s s s s s s s s s s s 
 
|---------------------------------|---------------------------------| 
|---------------------------------|---------------------------------| 
|---------------------------------|---------------------------------| 
|---------------------------------|---------------------------------| 
|-6-------6-------6-----6-------6-|-5-------------------------------| 
|-4-4-4-4-4-4-4-4-4-4-4-4-4-4-4-4-|-3-3-3-3-3-3-3-3-3-3-3-3-3-3-3-3-| 
  s s s s s s s s s s s s s s s s   s s s s s s s s s s s s s s s s 
 
|---------------------------------|---------------------------------| 
|---------------------------------|---------------------------------| 
|---------------------------------|---------------------------------| 
|---------------------------------|---------------------------------| 
|-8-------8-------8-----8-------8-|-7-------7-------7-----7-------7-| 
|-6-6-6-6-6-6-6-6-6-6-6-6-6-6-6-6-|-5-5-5-5-5-5-5-5-5-5-5-5-5-5-5-5-| 
  s s s s s s s s s s s s s s s s   s s s s s s s s s s s s s s s s 
 
|---------------------------------|-----------------------| 
|---------------------------------|-----------------------| 
|---------------------------------|-----------------------| 
|---------------------------------|-----------------------| 
|-6-------6-------6-----6-------6-|-5--5--5-3--5--5--5-4--| 
|-4-4-4-4-4-4-4-4-4-4-4-4-4-4-4-4-|-3--3--3-1--3--3--3-2--| 
  s s s s s s s s s s s s s s s s   e  e  s e. e  e  s e. 
 
                                          harm. 
|-----------------|------------------/18--/x--|--------|| 
|-----------------|---------------------------|--------|| 
|-----------------|-------------/15-----------|--------|| 
|-5---5---5---5---|-8-------------------------|-8-5----|| 
|-5---5---5---5---|-8-------------------------|-8-5----|| 
|-3---3---3---3---|-6-------------------------|-6-3----|| 
  e E e E e E e E                               e e 
 
 
                          PSYCHO HOLIDAY - BASS 
                          --------------------- 
 
 16th note triplet feel ( s s = e s ) 
                                {3} 
 
|-------------------------------------|-----|-----|-----|| 
|-------------------------------------|-----|-----|-----|| 
|-------------------------------------|--%--|--%--|--%--|| 
|-2-2-2-2-2-2-2-2-2-2-2-2-2-2-2-2-2-2-|-----|-----|-----|| 
  s s s s s s s s s s s s s s s s s s 
  { 3 }             { 3 } 
 
                                             8x 
||-------------------------------------------|| 
||o-----------------------------------------o|| 
||o-----------------------------------------o|| 
||--4-4-4-4-4-4-4-4-4-4-4-4-4-4-4-4-4-4-4-4--|| 
    s s s s s s s s s s s s s s s s s s s s 
    { 3 }     { 3 }     { 3 }     { 3 } 
 
                                   9/8 
|----------------------|-----|-----|------------------------|| 
|-6\--------6\---------|-----|-----|-6\--------6\-----------|| 
|------2---------2---5-|--%--|--%--|------2---------2---5---|| 
|--------4---------4---|-----|-----|--------4---------4-----|| 
  q    s e. q    s s e               q    s e. q    s s e E 
 
 4/4 
  verse 1 
|-------------------------------------|-----|-----|-----|-----|-----| 
|-------------------------------------|-----|-----|-----|-----|-----| 
|-------------------------------------|--%--|--%--|--%--|--%--|--%--| 
|-0-0-0-0-0-0-0-0-0-0-0-0-0-0-0-0-0-0-|-----|-----|-----|-----|-----| 
  s s s s s s s s s s s s s s s s s s 
  { 3 }             { 3 } 
 
|-----|-----|----------------------|-------------------------------------| 
|-----|-----|-6\--------6\---------|-------------------------------------| 
|--%--|--%--|------2---------2---5-|-------------------------------------| 
|-----|-----|--------4---------4---|-0-0-0-0-0-0-0-0-0-0-0-0-0-0-0-0-0-0-| 
              q    s e. q    s s e   s s s s s s s s s s s s s s s s s s 
                                     { 3 }             { 3 } 
 
                                         2/4          4/4 
|-----|----------------------|-----|-----|-----------|------------------|| 
|-----|-6\--------6\---------|-----|-----|-6\--------|------------------|| 
|--%--|------2---------2---5-|--%--|--%--|------2----|-7-7-7-7-7-7-7\---|| 
|-----|--------4---------4---|-----|-----|--------4--|------------------|| 
        q    s e. q    s s e               q    s e.   e e e e e e q  Q 
                                                       { 3 } { 3 } 
 
  chorus 
|---------------------------------|-----|-----|-----|-----|-----|-----| 
|---------------------------------|-----|-----|-----|-----|-----|-----| 
|---------------------------------|--%--|--%--|--%--|--%--|--%--|--%--| 
|-3-3-3-3-3-3-3-3-3-3-3-3-3-3-3-3-|-----|-----|-----|-----|-----|-----| 
  s s s s s s s s s s s s s s s s 
 
|-----------------------------------|| 
|-----------------5-5-5-5-5-5-5-5-5-|| 
|-----------------------------------|| 
|-3-3-3-3-3-3-3-3-------------------|| 
  s s s s s s s s s s s s s s s s e 
                  { 3 }     { 3 } 
 
  verse 2 
|-------------------------------------|-----|-----|-----|-----|-----| 
|-------------------------------------|-----|-----|-----|-----|-----| 
|-------------------------------------|--%--|--%--|--%--|--%--|--%--| 
|-0-0-0-0-0-0-0-0-0-0-0-0-0-0-0-0-0-0-|-----|-----|-----|-----|-----| 
  s s s s s s s s s s s s s s s s s s 
  { 3 }             { 3 } 
 
|-----|-----|----------------------|-------------------------------------| 
|-----|-----|-6\--------6\---------|-------------------------------------| 
|--%--|--%--|------2---------2---5-|-------------------------------------| 
|-----|-----|--------4---------4---|-0-0-0-0-0-0-0-0-0-0-0-0-0-0-0-0-0-0-| 
              q    s e. q    s s e   s s s s s s s s s s s s s s s s s s 
                                     { 3 }             { 3 } 
 
                                         2/4          4/4 
|-----|----------------------|-----|-----|-----------|------------------|| 
|-----|-6\--------6\---------|-----|-----|-6\--------|------------------|| 
|--%--|------2---------2---5-|--%--|--%--|------2----|-7-7-7-7-7-7-7\---|| 
|-----|--------4---------4---|-----|-----|--------4--|------------------|| 
        q    s e. q    s s e               q    s e.   e e e e e e q  Q 
                                                       { 3 } { 3 } 
 
  chorus 
|---------------------------------|-----|-----|-----|-----|-----|-----| 
|---------------------------------|-----|-----|-----|-----|-----|-----| 
|---------------------------------|--%--|--%--|--%--|--%--|--%--|--%--| 
|-3-3-3-3-3-3-3-3-3-3-3-3-3-3-3-3-|-----|-----|-----|-----|-----|-----| 
  s s s s s s s s s s s s s s s s 
 
|------------|| 
|------------|| 
|------------|| 
|-3-------x/-|| 
  e E Q Q q 
 
 solo 
|---------------------------|---------------------------| 
|---------------------------|---------------------------| 
|---------7\-------------5/-|---------7\----------------| 
|-0-0-0-0----0-0-0-0-0-0----|-0-0-0-0----0-0-0-0-0-0-4/-| 
  s s s s e  s s s s s s q    s s s s e  s s s s s s q 
 
|-------------------------|------------------|| 
|-------------------------|------------------|| 
|---------7-------4-2---2-|---------7\-------|| 
|-0-0-0-0---0-0-------4---|-0-0-0-0----0-1-2-|| 
  s s s s e s s E e s s e   s s s s q  q q q 
                                       { 3 } 
 
|-------------------------------|---------------------------|-----| 
|-------------------------------|---------------------------|-----| 
|---------------------------1-1-|-----------------------1-1-|--%--| 
|-3-3-3-3-3-3-3-3-3-3-3-3-3-----|---3-3-3-3-3-1-3-3-1-3-----|-----| 
  s s s s s s s s s s s s s e s + e e s s s s s s s s s e s +     + 
 
|---------------------------||---------------------------| 
|---------------------------||---------------------------| 
|---------------------------||---------7\-------------5/-| 
|---3-3-3-3-3-3-3-3-3-3-3-1-||-0-0-0-0----0-0-0-0-0-0----| 
+ e e s s s s s s s s e e e    s s s s e  s s s s s s q 
                      { 3 } 
 
|---------------------------|-----------------------------| 
|---------------------------|-----------------------------| 
|---------7\----------------|---------7-----4---4---2-----| 
|-0-0-0-0----0-0-0-0-0-0-4/-|-0-0-0-0---0-0---0---0---3-4-| 
  s s s s e  s s s s s s q    s s s s e s s s s s s s s e 
 
|---------------------||-------------------------------| 
|---------------------||-------------------------------| 
|---------7\----------||---------------------------1-1-| 
|-0-0-0-0------0--1-2-||-3-3-3-3-3-3-3-3-3-3-3-3-3-----| 
  s s s s q  S e. e e    s s s s s s s s s s s s s e s + 
 
|---------------------------|-----|---------------------|| 
|---------------------------|-----|---------------------|| 
|-----------------------1-1-|--%--|---------------------|| 
|---3-3-3-3-3-1-3-3-1-3-----|-----|---3-3-3-3-3-1-3-3-4-|| 
+ e e s s s s s s s s s e s +     + e e e e e e e e e e 
                                            { 3 } { 3 } 
 
|-------------------|-------------------|-----------------| 
|-------------------|-------------------|---------------0-| 
|-0-0-0-0-0-0-0-3-3-|---0-0-0-0-0-0-3-3-|---2-2-2-2-2-2---| 
|-------------------|-------------------|-----------------| 
  e e e e e e s e s + e e e e e e s e s + e e e e e e e e 
 
|---------------------|| 
|-0-0-0-0-0-0-0-------|| 
|-----------------x\--|| 
|---------------------|| 
  e e e e e e e E q 
  { 3 } { 3 } 
 
  verse 3 
|-------------------------------------|-----|-----|-----|-----|-----| 
|-------------------------------------|-----|-----|-----|-----|-----| 
|-------------------------------------|--%--|--%--|--%--|--%--|--%--| 
|-0-0-0-0-0-0-0-0-0-0-0-0-0-0-0-0-0-0-|-----|-----|-----|-----|-----| 
  s s s s s s s s s s s s s s s s s s 
  { 3 }             { 3 } 
 
|-----|-----|----------------------|-------------------------------------| 
|-----|-----|-6\--------6\---------|-------------------------------------| 
|--%--|--%--|------2---------2---5-|-------------------------------------| 
|-----|-----|--------4---------4---|-0-0-0-0-0-0-0-0-0-0-0-0-0-0-0-0-0-0-| 
              q    s e. q    s s e   s s s s s s s s s s s s s s s s s s 
                                     { 3 }             { 3 } 
 
                                         2/4          4/4 
|-----|----------------------|-----|-----|-----------|------------------|| 
|-----|-6\--------6\---------|-----|-----|-6\--------|------------------|| 
|--%--|------2---------2---5-|--%--|--%--|------2----|-7-7-7-7-7-7-7\---|| 
|-----|--------4---------4---|-----|-----|--------4--|------------------|| 
        q    s e. q    s s e               q    s e.   e e e e e e q  Q 
                                                       { 3 } { 3 } 
 
  chorus 
|---------------------------------|-----|-----|-----|-----|-----|-----| 
|---------------------------------|-----|-----|-----|-----|-----|-----| 
|---------------------------------|--%--|--%--|--%--|--%--|--%--|--%--| 
|-3-3-3-3-3-3-3-3-3-3-3-3-3-3-3-3-|-----|-----|-----|-----|-----|-----| 
  s s s s s s s s s s s s s s s s 
 
|---------------------------------||-------------------|-----------------| 
|---------------------------------||-------5-----------|-----------------| 
|---------------------4-3-1-3-----||-------------------|-----------------| 
|-3-3-3-3-3-3-3-3-3-3---------1-2-||-3-3-3---3-3-3-1-2-|-3-3-3-3-3-3-3-3-| 
  s s s s s s s s s s e e e e e e    e e e e e e e s s   e e e e e e e e 
      { 3 }     { 3 } { 3 } { 3 } 
 
|-------------------|-----------------------|-----------------| 
|-------------------|-------------------3-5-|-----------------| 
|-------------------|-----------4-3-1-3-----|-----------------| 
|-3-3-3-3-3-3-3-1-2-|-3-3-3-3-3-------------|-3-3-3-3-3-3-3-3-| 
  e e e e e e e s s   e e s s e e e e e e e   e e e e e e e e 
                                { 3 } { 3 } 
 
|-------------------|-----------------|--------|| 
|-------------------|-----------------|--------|| 
|-------------------|-----------------|--------|| 
|-3-3-3-3-3-3-3-1-2-|-3-3-3-3-3-3-3-3-|-3------|| 
  e e e e e e e s s   e e e e e e e e   q  Q H 
 
 ( s s = s s ) 
  outro 
|---------------------------------|---------------------------------| 
|---------------------------------|---------------------------------| 
|-1-1-1-1-1-1-1-1-1-1-1-1-1-1-1-1-|-0-0-0-0-0-0-0-0-0-0-0-0-0-0-0-0-| 
|---------------------------------|---------------------------------| 
  s s s s s s s s s s s s s s s s   s s s s s s s s s s s s s s s s 
 
|---------------------------------|---------------------------------| 
|---------------------------------|---------------------------------| 
|---------------------------------|---------------------------------| 
|-4-4-4-4-4-4-4-4-4-4-4-4-4-4-4-4-|-3-3-3-3-3-3-3-3-3-3-3-3-3-3-3-3-| 
  s s s s s s s s s s s s s s s s   s s s s s s s s s s s s s s s s 
 
|---------------------------------|---------------------------------| 
|---------------------------------|---------------------------------| 
|-1-1-1-1-1-1-1-1-1-1-1-1-1-1-1-1-|-0-0-0-0-0-0-0-0-0-0-0-0-0-0-0-0-| 
|---------------------------------|---------------------------------| 
  s s s s s s s s s s s s s s s s   s s s s s s s s s s s s s s s s 
 
|---------------------------------|-----------------------| 
|---------------------------------|-----------------------| 
|---------------------------------|-----------------------| 
|-4-4-4-4-4-4-4-4-4-4-4-4-4-4-4-4-|-3--3--3-1--3--3--3-2--| 
  s s s s s s s s s s s s s s s s   e  e  s e. e  e  s e. 
 
|---------------------------------|---------------------------------| 
|---------------------------------|---------------------------------| 
|-1-1-1-1-1-1-1-1-1-1-1-1-1-1-1-1-|-0-0-0-0-0-0-0-0-0-0-0-0-0-0-0-0-| 
|---------------------------------|---------------------------------| 
  s s s s s s s s s s s s s s s s   s s s s s s s s s s s s s s s s 
 
|---------------------------------|---------------------------------| 
|---------------------------------|---------------------------------| 
|---------------------------------|---------------------------------| 
|-4-4-4-4-4-4-4-4-4-4-4-4-4-4-4-4-|-3-3-3-3-3-3-3-3-3-3-3-3-3-3-3-3-| 
  s s s s s s s s s s s s s s s s   s s s s s s s s s s s s s s s s 
 
|---------------------------------|---------------------------------| 
|---------------------------------|---------------------------------| 
|-1-1-1-1-1-1-1-1-1-1-1-1-1-1-1-1-|-0-0-0-0-0-0-0-0-0-0-0-0-0-0-0-0-| 
|---------------------------------|---------------------------------| 
  s s s s s s s s s s s s s s s s   s s s s s s s s s s s s s s s s 
 
|---------------------------------|-----------------------| 
|---------------------------------|-----------------------| 
|---------------------------------|-----------------------| 
|-4-4-4-4-4-4-4-4-4-4-4-4-4-4-4-4-|-3--3--3-1--3--3--3-2--| 
  s s s s s s s s s s s s s s s s   e  e  s e. e  e  s e. 
 
|-----------------|---------------------|-------|| 
|-----------------|---------------------|-------|| 
|-----------------|-1-------------------|-1-----|| 
|-3---3---3---3---|---------------------|---3---|| 
  e E e E e E e E                         e e

4.HERESY

---||-----------------------|---------------------------| 
---||-----------------------|---------------------------| 
---||-----------------------|---------------------------| 
---||-----------------------|---------------------------| 
---||-----------------------|---------------------------| 
-5-||-(5)-5-4-4-4-4-4-3-3-3-|-3-3-3_-3_-3_-2+-2+-2+-2-5-| 
 e  +  e  e s s e e e s s e   e e s  s  e  s  s  e  e e + 
Harm.---------------------------------------------------- 
                                   ^        ^ 
                                   3_ = just before the 3rd fret 
                                            2+ = just after the 2nd fret 
 
|-----------------------|---------------------------| 
|-----------------------|---------------------------| 
|-----------------------|---------------------------| 
|-----------------------|---------------------------| 
|-----------------------|---------------------------| 
|-(5)-5-4-4-4-4-4-3-3-3-|-3-3-3_-3_-3_-2+-2+-2+-2-5-| 
+  e  e s s e e e s s e   e e s  s  e  s  s  e  e e + 
----------------------------------------------------- 
 
|-----------------------|---------------------------| 
|-----------------------|---------------------------| 
|-----------------------|---------------------------| 
|-----------------------|---------------------------| 
|-----------------------|---------------------------| 
|-(5)-5-4-4-4-4-4-3-3-3-|-3-3-3_-3_-3_-2+-2+-2+-2-5-| 
+  e  e s s e e e s s e   e e s  s  e  s  s  e  e e + 
----------------------------------------------------- 
 
|-----------------------|---------------------------|| 
|-----------------------|---------------------------|| 
|-----------------------|---------------------------|| 
|-----------------------|---------------------------|| 
|-----------------------|---------------------------|| 
|-(5)-5-4-4-4-4-4-3-3-3-|-3-3-3_-3_-3_-2+-2+-2+-2-0-|| 
+  e  e s s e e e s s e   e e s  s  e  s  s  e  e e 
-------------------------------------------------| 
 
|-----------------------|-----------------------|-----------------------| 
|-----------------------|-----------------------|-----------------------| 
|-----------------------|-----------------------|-----------------------| 
|-----------------------|-----------------------|-----------------------| 
|-----------------------|-----------------------|-----------------------| 
|---0-2-2-0-0-0-0-2-2-0-|-0-0-0-4-4-0-0-0-0-3-0-|---0-2-2-0-0-0-0-2-2-0-| 
  E e s s e s s e s s e   s s e s s e s s e e e   E e s s e s s e s s e 
 
|-----------------------------|-----------------------| 
|-----------------------------|-----------------------| 
|-----------------------------|-----------------------| 
|-----------------------------|-----------------------| 
|-----------------------------|-----------------------| 
|-0-0-0-0-4-0-0-0-0-0-0-0-3-0-|---0-2-2-0-0-0-0-2-2-0-| 
  s s s s s s s s s s s s e e   E e s s e s s e s s e 
 
|-----------------------|-----------------------|---------------|| 
|-----------------------|-----------------------|---------------|| 
|-----------------------|-----------------------|---------------|| 
|-----------------------|-----------------------|---------------|| 
|-----------------------|-----------------------|---------------|| 
|-0-0-0-4-4-0-0-0-0-3-0-|---0-2-2-0-0-0-0-2-2-0-|-0-0-------3-0-|| 
  s s e s s e s s e e e   E e s s e s s e s s e   s s E Q Q e e 
 
||-------------------------|-----------------------|-----------------------| 
||-------------------------|-----------------------|-----------------------| 
||-o-----------------------|-----------------------|-----------------------| 
||-o-----------------------|-----------------------|-----------------------| 
||-------------------------|-----------------------|-----------------------| 
||-----0-2-2-0-0-0-0-2-2-0-|-0-0-0-4-4-0-0-0-0-3-0-|---0-2-2-0-0-0-0-2-2-0-| 
     E e s s e s s e s s e   s s e s s e s s e e e   E e s s e s s e s s e 
 
                               4x 
|-------------------------------|| 
|-------------------------------|| 
|-----------------------------o-|| 
|-----------------------------o-|| 
|-------------------------------|| 
|-0-0-0-0-4-0-0-0-0-0-0-0-3-0---|| 
  s s s s s s s s s s s s e e 
 
                     |1,2,3.              |4. 
||-------------------|-------------------||---------------|| 
||-------------------|-------------------||---------------|| 
||-o-----------------|-----------------o-||---------------|| 
||-o-----------------|-----------------o-||---------6---6-|| 
||-------9---8---6-8-|-9---8---5-6-7-----||-9---8---4-6-4-|| 
||-----0-7-0-6-0-4-6-|-7-0-6-0-3-4-5-0---||-7-0-6-0---4---|| 
     E e e e e e e e   e e e e e e e e      e e e e q q q 
                                                    { 3 } 
 
 verse 1 
|-----------------|---------------|-----------------|---------------| 
|-----------------|---------------|-----------------|---------------| 
|-----------------|---------------|-----------------|---------------| 
|-----------------|---------------|-----------------|---------------| 
|-----------------|-----------5-6-|-----------------|-----------3-4-| 
|-0-0-0-0-0-0-0-0-|-0-0-0-0-0-3-4-|-0-0-0-0-0-0-0-0-|-0-0-0-0-0-1-2-| 
  e e e e e e e e   e e e e e q e   e e e e e e e e   e e e e e q e 
 
|-----------------|---------------|-----------------|---------------|| 
|-----------------|---------------|-----------------|---------------|| 
|-----------------|---------------|-----------------|---------------|| 
|-----------------|---------------|-----------------|---------8---8-|| 
|-----------------|-----------5-6-|-----------------|---------6-8-6-|| 
|-0-0-0-0-0-0-0-0-|-0-0-0-0-0-3-4-|-0-0-0-0-0-0-0-0-|-0-0-0-0---6---|| 
  e e e e e e e e   e e e e e q e   e e e e e e e e   e e e e q q q 
                                                              { 3 } 
 
 
 
|-----------------|---------------|-----------------|---------------| 
|-----------------|---------------|-----------------|---------------| 
|-----------------|---------------|-----------------|---------------| 
|-----------------|---------------|-----------------|---------------| 
|-----------------|-----------5-6-|-----------------|-----------3-4-| 
|-0-0-0-0-0-0-0-0-|-0-0-0-0-0-3-4-|-0-0-0-0-0-0-0-0-|-0-0-0-0-0-1-2-| 
  e e e e e e e e   e e e e e q e   e e e e e e e e   e e e e e q e 
 
|-----------------|---------------|-----|---------------|| 
|-----------------|---------------|-----|---------------|| 
|-----------------|---------------|-----|---------------|| 
|-----------------|---------------|-----|---------4-2-5-|| 
|-----------------|-----------5-6-|-----|---3---3---0-3-|| 
|-0-0-0-0-0-0-0-0-|-0-0-0-0-0-3-4-|-----|-----3---------|| 
  e e e e e e e e   e e e e e q e    W    E e e e e q e 
 
pre-chorus 
|-----------------|-----------------|-----------------|-----------------| 
|-----------------|-----------------|-----------------|-----------------| 
|-----------------|-----------------|-----------------|-----------------| 
|-6-6-6-----------|-------3-4-4-4-5-|-6-6-6-----------|---------------5-| 
|-4-4-4-7-8-8-8-4-|-5-5-5-1-2-2-2-3-|-4-4-4-7-8-8-6\4-|---2---2---2---3-| 
|-------5-6-6-6-2-|-3-3-3-----------|-------5-6-6-4\2-|-0-0-0-0-0-0-0---| 
  e e e e e e e e   e e e e e e e e   e e e e e e e+e   e e e e e e e e 
 
|-----------------|-----------------|-----------------|| 
|-----------------|-----------------|-----------------|| 
|-----------------|-----------------|-----------------|| 
|-6-6-6-----------|-------3-4-4-4-5-|-6-6-6-----------|| 
|-4-4-4-7-8-8-8-4-|-5-5-5-1-2-2-2-3-|-4-4-4-7-8-8-4---|| 
|-------5-6-6-6-2-|-3-3-3-----------|-------5-6-6-2-0-|| 
  e e e e e e e e   e e e e e e e e   e e e e e e e e 
 
 chorus 
||-------------------------|-----------------------|-----------------------| 
||-------------------------|-----------------------|-----------------------| 
||-o-----------------------|-----------------------|-----------------------| 
||-o-----------------------|-----------------------|-----------------------| 
||-------------------------|-----------------------|-----------------------| 
||-----0-2-2-0-0-0-0-2-2-0-|-0-0-0-4-4-0-0-0-0-3-0-|---0-2-2-0-0-0-0-2-2-0-| 
     E e s s e s s e s s e   s s e s s e s s e e e   E e s s e s s e s s e 
 
                               2x 
|-------------------------------|| 
|-------------------------------|| 
|-----------------------------o-|| 
|-----------------------------o-|| 
|-------------------------------|| 
|-0-0-0-0-4-0-0-0-0-0-0-0-3-0---|| 
  s s s s s s s s s s s s e e 
 
                                                                2/4 
|-----------------|--------------|-----------------|------------|-----|| 
|-----------------|--------------|-----------------|------------|-----|| 
|-----------------|--------------|-----------------|------------|-----|| 
|-----------------|--------------|-----------------|------------|-----|| 
|-----9---8---6-8-|-9---8---6-8--|-----9---8---6-8-|-9-8--4-5---|-----|| 
|---0-7-0-6-0-4-6-|-7-0-6-0-4-6--|-0-0-7-0-6-0-4-6-|-7-6--2-3---|-----|| 
  E e e e e e e e   e e e e e q.   e e e e e e e e   e q. e e Q    H 
 
4/4 
 verse 2 
|-----------------|---------------|-----------------|---------------| 
|-----------------|---------------|-----------------|---------------| 
|-----------------|---------------|-----------------|---------------| 
|-----------------|---------------|-----------------|---------------| 
|-----------------|-----------5-6-|-----------------|-----------3-4-| 
|-0-0-0-0-0-0-0-0-|-0-0-0-0-0-3-4-|-0-0-0-0-0-0-0-0-|-0-0-0-0-0-1-2-| 
  e e e e e e e e   e e e e e q e   e e e e e e e e   e e e e e q e 
 
|-----------------|---------------|-----------------|---------------|| 
|-----------------|---------------|-----------------|---------------|| 
|-----------------|---------------|-----------------|---------------|| 
|-----------------|---------------|-----------------|---------8---8-|| 
|-----------------|-----------5-6-|-----------------|---------6-8-6-|| 
|-0-0-0-0-0-0-0-0-|-0-0-0-0-0-3-4-|-0-0-0-0-0-0-0-0-|-0-0-0-0---6---|| 
  e e e e e e e e   e e e e e q e   e e e e e e e e   e e e e q q q 
                                                              { 3 } 
 
|-----------------|---------------|-----------------|---------------| 
|-----------------|---------------|-----------------|---------------| 
|-----------------|---------------|-----------------|---------------| 
|-----5\3-----5\3-|-----5\3-6---6-|-----5\3-----5\3-|-----5\3-8---8-| 
|-----3\1-----3\1-|-----3\1-4-6-4-|-----3\1-----3\1-|-----3\1-6-8-6-| 
|-0-0-----0-0-----|-0-0-------4---|-0-0-----0-0-----|-0-0-------6---| 
  e e e+e e e e+e   e e e+e q q q   e e e+e e e e+e   e e e+e q q q 
                            { 3 }                             { 3 } 
 
|-----------------|---------------|-----------------|---------------|| 
|-----------------|---------------|-----------------|---------------|| 
|-----------------|---------------|-----------------|---------------|| 
|-----5\3-----5\3-|-----5\3-6---6-|-----5\3-----5\3-|-----5\3-------|| 
|-----3\1-----3\1-|-----3\1-4-6-4-|-----3\1-----3\1-|-----3\1-6-7-8-|| 
|-0-0-----0-0-----|-0-0-------4---|-0-0-----0-0-----|-0-0-----4-5-6-|| 
  e e e+e e e e+e   e e e+e q q q   e e e+e e e e+e   e e e+e q q q 
                            { 3 }                             { 3 } 
 
|-----------------|---------------|-----------------|---------------| 
|-----------------|---------------|-----------------|---------------| 
|-----------------|---------------|-----------------|---------------| 
|-----------------|---------------|-----------------|---------------| 
|-----------------|-----------5-6-|-----------------|-----------3-4-| 
|-0-0-0-0-0-0-0-0-|-0-0-0-0-0-3-4-|-0-0-0-0-0-0-0-0-|-0-0-0-0-0-1-2-| 
  e e e e e e e e   e e e e e q e   e e e e e e e e   e e e e e q e 
 
|-----------------|---------------|-----|---------------|| 
|-----------------|---------------|-----|---------------|| 
|-----------------|---------------|-----|---------------|| 
|-----------------|---------------|-----|---------4-2-5-|| 
|-----------------|-----------5-6-|-----|---3---3---0-3-|| 
|-0-0-0-0-0-0-0-0-|-0-0-0-0-0-3-4-|-----|-----3---------|| 
  e e e e e e e e   e e e e e q e    W    E e e e e q e 
 
pre-chorus 
|-----------------|-----------------|-----------------|-----------------| 
|-----------------|-----------------|-----------------|-----------------| 
|-----------------|-----------------|-----------------|-----------------| 
|-6-6-6-----------|-------3-4-4-4-5-|-6-6-6-----------|---------------5-| 
|-4-4-4-7-8-8-8-4-|-5-5-5-1-2-2-2-3-|-4-4-4-7-8-8-6\4-|---2---2---2---3-| 
|-------5-6-6-6-2-|-3-3-3-----------|-------5-6-6-4\2-|-0-0-0-0-0-0-0---| 
  e e e e e e e e   e e e e e e e e   e e e e e e e+e   e e e e e e e e 
 
|-----------------|-----------------|-----------------|| 
|-----------------|-----------------|-----------------|| 
|-----------------|-----------------|-----------------|| 
|-6-6-6-----------|-------3-4-4-4-5-|-6-6-6-----------|| 
|-4-4-4-7-8-8-8-4-|-5-5-5-1-2-2-2-3-|-4-4-4-7-8-8-4---|| 
|-------5-6-6-6-2-|-3-3-3-----------|-------5-6-6-2-0-|| 
  e e e e e e e e   e e e e e e e e   e e e e e e e e 
 
 chorus 
||-------------------------|-----------------------|-----------------------| 
||-------------------------|-----------------------|-----------------------| 
||-o-----------------------|-----------------------|-----------------------| 
||-o-----------------------|-----------------------|-----------------------| 
||-------------------------|-----------------------|-----------------------| 
||-----0-2-2-0-0-0-0-2-2-0-|-0-0-0-4-4-0-0-0-0-3-0-|---0-2-2-0-0-0-0-2-2-0-| 
     E e s s e s s e s s e   s s e s s e s s e e e   E e s s e s s e s s e 
 
                               2x       2/4 
|-------------------------------||-----|-----|| 
|-------------------------------||-----|-----|| 
|-----------------------------o-||-----|-----|| 
|-----------------------------o-||-----|-----|| 
|-------------------------------||-----|-----|| 
|-0-0-0-0-4-0-0-0-0-0-0-0-3-0---||-----|-----|| 
  s s s s s s s s s s s s e e       W     H 
 
||------------------|-----|----------------|-----| 
||------------------|-----|----------------|-----| 
||-o----------------|-----|----------------|-----| 
||-o----------------|-----|----------------|-5---| 
||---------6-----4--|-2---|-------6-----4--|-3---| 
||---0-0-0-4-0-0-2--|-0---|-0-0-0-4-0-0-2--|-----| 
     e e e e e e q    w     e e e e e e q    w 
 
                                                        2x 
|----------------|-----|----------------|----------------|| 
|----------------|-----|----------------|----------------|| 
|----------------|-----|----------------|--------------o-|| 
|----------------|-----|-------5-----4--|-3--2---------o-|| 
|-------6-----4--|-2---|-0-0-0-3-0-0-2--|-1--0--7-5-3----|| 
|-0-0-0-4-0-0-2--|-0---|----------------|-------5-3-1----|| 
  e e e e e e q    w     e e e e e e q    q  q  e e q 
 
  w/Guitar solo 
||------------------|-----|----------------|-----| 
||------------------|-----|----------------|-----| 
||-o----------------|-----|----------------|-----| 
||-o----------------|-----|----------------|-5---| 
||---------6-----4--|-2---|-------6-----4--|-3---| 
||---0-0-0-4-0-0-2--|-0---|-0-0-0-4-0-0-2--|-----| 
     e e e e e e q    w     e e e e e e q    w 
 
                                                        2x 
|----------------|-----|----------------|----------------|| 
|----------------|-----|----------------|----------------|| 
|----------------|-----|----------------|--------------o-|| 
|----------------|-----|-------5-----4--|-3--2---------o-|| 
|-------6-----4--|-2---|-0-0-0-3-0-0-2--|-1--0--7-5-3----|| 
|-0-0-0-4-0-0-2--|-0---|----------------|-------5-3-1----|| 
  e e e e e e q    w     e e e e e e q    q  q  e e q 
 
||-------------------|-----------------|-----------------|-----------------| 
||-------------------|-----------------|-----------------|-----------------| 
||-o-----------------|-----------------|-----------------|-----------------| 
||-o-----------------|-----------------|-----------------|-----------------| 
||---2-2-2-5-2-2-2-2-|-2-5-2-2-2-2-2-2-|-2-2-2-5-2-2-2-2-|-2-5-2-2-2-2-2-2-| 
||---0-0-0-3-0-0-0-0-|-0-3-0-0-0-0-0-0-|-0-0-0-3-0-0-0-0-|-0-3-0-0-0-0-0-0-| 
     e e e e e e e e   e e e e e e e e   e e e e e e e e   e e e e e e e e 
 
                                                                    2x 
|-----------------|-----------------|-----------------|--------------|| 
|-----------------|-----------------|-----------------|--------------|| 
|-----------------|-----------------|-----------------|------------o-|| 
|-----------------|-----------------|-----------------|------------o-|| 
|-2-2-2-5-2-2-2-2-|-2-5-2-2-2-2-2-2-|-7-7-7-7-7-7-7-7-|-10-9-7-5-3---|| 
|-0-0-0-3-0-0-0-0-|-0-3-0-0-0-0-0-0-|-5-5-5-5-5-5-5-5-|-8--7-5-3-1---|| 
  e e e e e e e e   e e e e e e e e   e e e e e e e e   q  q e e q 
 
||-------------------|-----------------|-----------------|-----------------| 
||-------------------|-----------------|-----------------|-----------------| 
||-o-----------------|-----------------|-----------------|-----------------| 
||-o-----------------|-----------------|-----------------|-----------------| 
||---4-2-2-5-2-2-4-2-|-2-5-2-2-4-4-4-4-|-4-2-2-5-2-2-4-2-|-2-5-2-2-4-4-4-4-| 
||---2-0-0-3-0-0-2-0-|-0-3-0-0-2-2-2-2-|-2-0-0-3-0-0-2-0-|-0-3-0-0-2-2-2-2-| 
     e e e e e e e e   e e e e e e e e   e e e e e e e e   e e e e e e e e 
 
                                                      |1,2,3. 
|-----------------|-----------------|-----------------|---------------|| 
|-----------------|-----------------|-----------------|---------------|| 
|-----------------|-----------------|-----------------|-------------o-|| 
|-----------------|-----------------|-5-4-2-------5-4-|-2-----5-4-2-o-|| 
|-4-2-2-5-2-2-4-2-|-2-5-2-2-4-4-4-4-|-3-2-0-4---2-3-2-|-0-4-2-3-2-0---|| 
|-2-0-0-3-0-0-2-0-|-0-3-0-0-2-2-2-2-|-------2---0-----|---2-0---------|| 
  e e e e e e e e   e e e e e e e e   e e e e+e e e e   e q e e e q 
 
|4. 
|---------------|-----------------|---------------|-------|| 
|---------------|-----------------|---------------|-------|| 
|---------------|-----------------|---------------|-------|| 
|-2-----5-4-2---|-5-4-2-------5-4-|-2-----5-4-2---|-------|| 
|-0-4-2-3-2-0-4-|-3-2-0-4---2-3-2-|-0-4-2-3-2-0-4-|-5-----|| 
|---2-0-------2-|-------2---0-----|---2-0-------2-|-3-----|| 
  e q e e e e e   e e e e+e e e e   e q e e e e e   w 
 
  Outro chorus 
||-------------------------|-----------------------|-----------------------| 
||-------------------------|-----------------------|-----------------------| 
||-o-----------------------|-----------------------|-----------------------| 
||-o-----------------------|-----------------------|-----------------------| 
||-------------------------|-----------------------|-----------------------| 
||-----0-2-2-0-0-0-0-2-2-0-|-0-0-0-4-4-0-0-0-0-3-0-|---0-2-2-0-0-0-0-2-2-0-| 
     E e s s e s s e s s e   s s e s s e s s e e e   E e s s e s s e s s e 
 
                               2x 
|-------------------------------|| 
|-------------------------------|| 
|-----------------------------o-|| 
|-----------------------------o-|| 
|-------------------------------|| 
|-0-0-0-0-4-0-0-0-0-0-0-0-3-0---|| 
  s s s s s s s s s s s s e e 
 
|-----------------------|-------------------------| 
|-----------------------|-------------------------| 
|-----------------------|-------------------------| 
|-----------------------|-------------------------| 
|-----------------------|-------------------------| 
|---0-2-2-0-0-0-0-2-2-0-|-0-0-0-2-2-0-0-0-0-2-2-0-| 
  E e s s e s s e s s e   s s e s s e s s e s s e 
 
|---------------------------------|---------------------------------| 
|---------------------------------|---------------------------------| 
|---------------------------------|---------------------------------| 
|---------------------------------|---------------------------------| 
|-5-6-6-6-6-6-6-6-6-6-6-6-6-6-6-6-|-6-6-6-6-6-6-6-6-6-7-7-7-7-7-7-7-| 
|-3-4-4-4-4-4-4-4-4-4-4-4-4-4-4-4-|-4-4-4-4-4-4-4-4-4-5-5-5-5-5-5-5-| 
  s s s s s s s s s s s s s s s s   s s s s s s s s s s s s s s s s 
 
|-----------------------|-----------------------| 
|-----------------------|-----------------------| 
|-----------------------|-----------------------| 
|-----------------------|-----------------------| 
|-----------------------|-----------------------| 
|-0-0-2-2-0-0-0-0-2-2-0-|-0-0-2-2-0-0-0-0-2-2-0-| 
  e e s s e s s e s s e   e e s s e s s e s s e 
 
|---------------------------------|---------------------------------| 
|---------------------------------|---------------------------------| 
|---------------------------------|---------------------------------| 
|---------------------------------|---------------------------------| 
|-5-6-6-6-6-6-6-6-6-6-6-6-6-6-6-6-|-6-6-6-6-6-6-6-6-6-7-7-7-7-7-7-7-| 
|-3-4-4-4-4-4-4-4-4-4-4-4-4-4-4-4-|-4-4-4-4-4-4-4-4-4-5-5-5-5-5-5-5-| 
  s s s s s s s s s s s s s s s s   s s s s s s s s s s s s s s s s 
 
|-------------------|---------|| 
|-------------------|---------|| 
|-------------------|---------|| 
|-5--7--6--8-----9--|---------|| 
|-3--5--4--6--8--7--|-2-------|| 
|-------------6-----|-0-------|| 
  q  q  q  q  q  q    e E Q H 
  {  3  }  {  3  } 
 
 
 
 
 
                     HERESY - PANTERA    GUITAR SOLO 
                     ------------------------------- 
 
         Guitar solo 
--------||-/5----------|-(5)--------|---------------|-------------| 
------X-||-------------|------------|---------------|-4-----------| 
--------||-------------|------------|-------4-3-2---|-------------| 
--------||-------------|------------|---2-3-------5-|-------------| 
--------||-------------|------------|---------------|-------------| 
--------||-------------|------------|---------------|-------------| 
  H Q q     w          +  w           Q e e e e e e   w 
            w/bar~~~~~~~~~~~~~~~~~                    vib~~~~~~~~ 
 
|-22--17-19-b17r19-17----|--------22-----------------|-b17r18----17-18-17-| 
|---------------------20-|-b19r20----17-b15r17-15-17-|--------------------| 
|------------------------|---------------------------|--------------------| 
|------------------------|---------------------------|--------------------| 
|------------------------|---------------------------|--------------------| 
|------------------------|---------------------------|--------------------| 
| q   e  e  e+  e  e  e    e+  e  e  e  e+  e  e  e       h.     e  e  e 
|           ^              ^            ^              ^         {  3  } 
|        bend down w/bar(b) & release(r) 
|-19---------------------|---------------------------|--------------------| 
|-----19-20-b18r20-19----|---------------------------|--------------------| 
|---------------------21-|-b19r21--------------------|-b19r20----19-20-19-| 
|------------------------|--------21-22-b21r22-21-22-|--------------------| 
|------------------------|---------------------------|--------------------| 
|------------------------|---------------------------|--------------------| 
  q   e  e  e+  e  e  e    e+  e  e  e  e+  e  e  e       h.     e  e  e 
            ^              ^            ^              ^         {  3  } 
         bend down w/bar(b) & release(r) 
 
|--------|--------|---------|----------------|------------| 
|-18-----|-12-----|-(12)----|----------------|-4----------| 
|--------|--------|---------|--------4-3-2---|------------| 
|--------|--------|---------|----2-3-------5-|------------| 
|--------|--------|---------|----------------|------------| 
|--------|--------|---------|----------------|------------| 
| w        w      +  w        Q  e e e e e e   w 
|          grad. dive w/bar                    vib.~~~~~~~ 
|--------|--------|---------| 
|--------|--------|---------| 
|--------|-12-----|-(12)----| 
|-20-----|--------|---------| 
|--------|--------|---------| 
|--------|--------|---------| 
  w        w      +  w 
           grad. dive w/bar 
 
|-22-20-19-20-19-22-20-19-17-19-17-------|-17----------------------------------| 
|----------------------------------20-19-|----20-19-20-19-17-20-19-17-17-------| 
|----------------------------------------|-------------------------------19-17-| 
|----------------------------------------|-------------------------------------| 
|----------------------------------------|-------------------------------------| 
|----------------------------------------|-------------------------------------| 
| e  e  e  e  e  e  e  e  e  s  s  s  s  | e  e  e  e  e  e  e  e  e  e  e  e 
| {  3  }  {  3  }  {  3  }              | {  3  }  {  3  }  {  3  }  {  3  } 
|----------------------------------------|----------------------------------------| 
|-20-19-17-19-17----19-17----17----------|----------------------------------------| 
|----------------19-------19----19-17-16-|-19-17-16-17-16----17-16----16----------| 
|----------------------------------------|----------------19-------19----17-17-16-| 
|----------------------------------------|----------------------------------------| 
|----------------------------------------|----------------------------------------| 
  e  e  e  e  e  e  e  e  e  s  s  s  s    e  e  e  e  e  e  e  e  e  s  s  s  s 
  {  3  }  {  3  }  {  3  }                {  3  }  {  3  }  {  3  } 
 
|----------------------------------------|------------------------------|| 
|-17-------------------------------------|------------------------------|| 
|----19-17-19-17-16-19-17-16-17-16-------|-16---------------------------|| 
|----------------------------------19-17-|----19-17-19-17-16-17-14b17---|| 
|----------------------------------------|------------------------------|| 
|----------------------------------------|------------------------------|| 
| e  e  e  e  e  e  e  e  e  s  s  s  s  | e  e  e  s  s  s  s     h    || 
| {  3  }  {  3  }  {  3  }              | {  3  }                      || 
|----------------------------------------|------------------------------|| 
|----------------------------------------|------------------------------|| 
|----------------------------------------|------------------------------|| 
|-19-17-16-17-16----17-16----16----------|------------------------------|| 
|----------------19-------19----19-17-15-|-19-17-15-17-15-14-15-12b15---|| 
|----------------------------------------|------------------------------|| 
  e  e  e  e  e  e  e  e  e  s  s  s  s    e  e  e  s  s  s  s     h 
  {  3  }  {  3  }  {  3  }                {  3  }

5.CEMETERY GATES

e------------------|-----------------|----------------|------0-----------
B----------2-------|------0--0-------|------0--0------|----2-----2-------
G--------2---2-----|----4------4-----|----4------4----|--4---------4-----
D------2-----------|--2--------------|--2----------0--|------------------
A----4----------0--|-----------------|----------------|------------------
E--2---------------|--------------0--|----------------|------------------

e------------------|-----------------|----------------|---------0--------
B----------2-------|------0--0-------|------0--0------|--2--------2------
G--------2---2-----|----4------4-----|----4------4----|----4--------4----
D------2-----------|--2--------------|--2----------0--|------0--------0--
A----4----------0--|-----------------|----------------|------------------
E--2---------------|--------------0--|----------------|------------------

   "Reverend           Reverend          is this some conspiricy..."
e------------------|-----------------|----------------|------0-----------
B----------2-------|------0--0-------|------0--0------|----2-----2-------
G--------2---2-----|----4------4-----|----4------4----|--4---------4-----
D------2-----------|--2--------------|--2----------0--|------------------
A----4----------0--|-----------------|----------------|------------------
E--2---------------|--------------0--|----------------|------------------

   "Crucified    for   no  sins               An image, beneath me..."
e------------------|-----------------|----------------|------0-----------
B----------2-------|------0--0-------|------0--0------|----2-----2-------
G--------2---2-----|----4------4-----|----4------4----|--4---------4-----
D------2-----------|--2--------------|--2----------0--|--------------0---
A----4----------0--|-----------------|----------------|------------------
E--2---------------|--------------0--|----------------|------------------

 "What is with..."
e------------------|-----------------|----------------|------0-----------
B----------2-------|------0--0-------|------0--0------|----2-----2-------
G--------2---2-----|----4------4-----|----4------4----|--4---------4-----
D------2-----------|--2--------------|--2----------0--|------------------
A----4----------0--|-----------------|----------------|------------------
E--2---------------|--------------0--|----------------|------------------

 "I'm  a man..."
e------------------|-----------------|----------------|-----0^^^\------0------
B----------2-------|------0--0-------|------0--0------|-----3-\-5------5-\-7--
G--------2---2-----|----4------4-----|----4------4----|--4--4-\-6------6-\-7--
D------2-----------|--2--------------|--2----------0--|--------------0--------
A----4----------0--|-----------------|----------------|-----------------------
E--2---------------|--------------0--|----------------|-----------------------

1st Guitar Solo
|-----------------|------------
|-----------------|------------
|---9--(9)~~~--8--|~~~--7------
|-----------------|------------
|-----------------|------------
|-----------------|------------


|-------------------------|-----------------|-------------------|-----
|---------10-----(10)-----|---9-----(9)-----|---12-----(12)-----|-----
|-----x----------------6--|--------------9--|----------------8--|-----
|--x----------------------|-----------------|-------------------|-----
|-------------------------|-----------------|-------------------|-----
|-------------------------|-----------------|-------------------|-----


-----------|-------|---------------------------|----------------------
-15--------|-------|---------------------------|----------------------
--------7--|~~~--\\|----------------4-----(4)--|---(4)-----(4)--6-----
-----------|-------|------------4--------------|----------------------
-----------|-------|--------x------------------|----------------------
-----------|-------|-----x---------------------|----------------------


---|-----------------|--------------------------|---------------------
---|---------5--(5)--|--(5)~~~---5---(5)---(5)--|---(5)---(5)~~~------
\4p|--2--------------|--------------------------|---------------------
---|-----2-----------|--------------------------|---------------------
---|-----------------|--------------------------|---------------------
---|-----------------|--------------------------|---------------------

         
|-----------------|---------------|-----------------------------------
|-----------------|--12--(12)/15--|--(15)\12--15/17--(17)p14--17------
|---------6--(6)--|---------------|-----------------------------------
|-----x-----------|---------------|-----------------------------------
|--x--------------|---------------|-----------------------------------
|-----------------|---------------|-----------------------------------

                                                     
-----|-----------------------------------------
p15--|--(15)p12--15/17--(17)p14--17--17~~~~~~--
-----|-----------------------------------------
-----|-----------------------------------------
-----|-----------------------------------------
-----|-----------------------------------------



1:33
Riff 1
e----------------------------------
B----------------------------------
G----------------------------------
D--2--2-2-2-2---------------9------
A--0--0-0-0-0--7-6-7--8-7-8---7-8--
E----------------------------------

e-------------------------------------------
B-------------------------------------------
G-------------------------------------------
D--2--2-2-2-2-------------------------------
A--0--0-0-0-0--7-6-7--8-6-7---6-------------
E---------------------------8---7~~---------

Repeat Riff 1 two more times, then on the third time play Riff 2

Riff 2
e----------------------------------
B----------------------------------
G----------------------------------
D--2--2-2-2-2---------------9------
A--0--0-0-0-0--7-6-7--8-7-8---7-8--
E----------------------------------

e-------------------------------------------
B-------------------------------------------
G-------------------------------------------
D--2--2-2-2-2-----------------2--3----------
A--0--0-0-0-0--7-6-7--8-6-7---0--1----------
E-------------------------------------------

Riff 3
e-------------------------------------------
B-------------------------------------------
G-------------------------------------------
D---------2-2-2--4-4-4--5-------------------
A--4-4-4--0-0-0--2-2-2--3--2--3-------------
E--2-2-2-------------------0--1-------------

Repeat Riff 3 one more time dragging the last two notes out a little, play it again normal,
then play it a final time playing the last note again.

Now comes the softer part of the song. Play this three times:
 
 "Reverend..."
e------------------|-----------------|----------------|------0-----------
B----------2-------|------0--0-------|------0--0------|----2-----2-------
G--------2---2-----|----4------4-----|----4------4----|--4---------4-----
D------2-----------|--2--------------|--2----------0--|------------------
A----4----------0--|-----------------|----------------|------------------
E--2---------------|--------------0--|----------------|------------------

On the fourth time, play this: (with pick)
 "I watch..."
e------------------|-----------------|----------------
B----------2-------|------0--0-------|------0--0------
G--------2---2-----|----4------4-----|----4------4----
D------2-----------|--2--------------|--2----------0--
A----4----------0--|-----------------|----------------
E--2---------------|--------------0--|----------------

Slide the pick down the neck and play:

I cant figure it out.

Then at 3:02, play:

Riff 1
e----------------------------------
B----------------------------------
G----------------------------------
D--2--2-2-2-2---------------9------
A--0--0-0-0-0--7-6-7--8-7-8---7-8--
E----------------------------------

e-------------------------------------------
B-------------------------------------------
G-------------------------------------------
D--2--2-2-2-2-------------------------------
A--0--0-0-0-0--7-6-7--8-6-7---6-------------
E---------------------------8---7~~---------

Then:

Riff 2
e----------------------------------
B----------------------------------
G----------------------------------
D--2--2-2-2-2---------------9------
A--0--0-0-0-0--7-6-7--8-7-8---7-8--
E----------------------------------

e-------------------------------------------
B-------------------------------------------
G-------------------------------------------
D--2--2-2-2-2-----------------2--3----------
A--0--0-0-0-0--7-6-7--8-6-7---0--1----------
E-------------------------------------------

Riff 3
e-------------------------------------------
B-------------------------------------------
G-------------------------------------------
D---------2-2-2--4-4-4--5-------------------
A--4-4-4--0-0-0--2-2-2--3--2--3-------------
E--2-2-2-------------------0--1-------------

Repeat Riff 3 one more time dragging the last two notes out a little,
play it again normal, then play it a final time playing the last note
again. Then play:

  Sometimes when...
e------------------|-----------------|----------------|------0-----------
B----------2-------|------0--0-------|------0--0------|----2-----2-------
G--------2---2-----|----4------4-----|----4------4----|--4---------4-----
D------2-----------|--2--------------|--2----------0--|------------------
A----4----------0--|-----------------|----------------|------------------
E--2---------------|--------------0--|----------------|------------------

Play three more times, then:

e------------------|-----------------|----------------
B----------2-------|------0--0-------|------0--0------
G--------2---2-----|----4------4-----|----4------4----
D------2-----------|--2--------------|--2----------0--
A----4----------0--|-----------------|----------------
E--2---------------|--------------0--|----------------

Slide the pick down the neck, then play:

I cant figure it out

Then at 4:25, play:

Riff 1
e----------------------------------
B----------------------------------
G----------------------------------
D--2--2-2-2-2---------------9------
A--0--0-0-0-0--7-6-7--8-7-8---7-8--
E----------------------------------

e-------------------------------------------
B-------------------------------------------
G-------------------------------------------
D--2--2-2-2-2-------------------------------
A--0--0-0-0-0--7-6-7--8-6-7---6-------------
E---------------------------8---7~~---------

e----------------------------------
B----------------------------------
G----------------------------------
D---------------9------------------
A--7-6-7--8-7-8---7-8--------------
E----------------------------------

e-------------------------------------------
B-------------------------------------------
G-------------------------------------------
D--2--2-2-2-2-------------------------------
A--0--0-0-0-0--7-6-7--8-6-7---6-------------
E---------------------------8---7~~---------

e----------------------------------
B----------------------------------
G----------------------------------
D--2--2-2-2-2---------------9------
A--0--0-0-0-0--7-6-7--8-7-8---7-8--
E----------------------------------

e---------------------------------------------------------
B---------------------------------------------------------
G---------------------------------------------------------
D--2--2-2-2-2---------5--------5--------5--------5--------
A--0--0-0-0-0--7-6-7--3--2--3--3--2--3--3--2--3--3--2--3--
E------------------------0--1-----0--1-----0--1-----0--1--

Now here's the second solo:

4:52
------------------------|-----5-----5--4------
---2-----2--5/7\5--3p2--|~~~-----2------------
------4-----------------|---------------------
------------------------|---------------------
------------------------|---------------------
------------------------|---------------------

|----12--------9---|-------|--12-----10--(10)~~~--10p9--|------9------
|--------9-----10--|--5/9--|------9---------------------|--12---------
|/9---------9------|-------|----------------------------|-------------
|------------------|-------|----------------------------|-------------
|------------------|-------|----------------------------|-------------
|------------------|-------|----------------------------|-------------

                                                     Full   Full
------------|----------------------|--------7-----7-------------------
10~~~--(10)\|/10--9--8--7--6--5h6--|--7~~~-----7------7~~~---(7)------
------------|----------------------|----------------------------------
------------|----------------------|----------------------------------
------------|----------------------|----------------------------------
------------|----------------------|----------------------------------

             Full   Tap                              Tap
----------7-----------------------------|----7h9h10---12p10p9p7h9-----
~~~--(7)------7------8p(7)--(7)p(5)~~~--|/9---------------------------
----------------------------------------|-----------------------------
----------------------------------------|-----------------------------
----------------------------------------|-----------------------------
----------------------------------------|-----------------------------

     Tap                    Tap     Tap           Tap     Tap
h10---12/14--(14)p12p10--|---14p10---14/16p14p12---15p12---15/17------
-------------------------|--------------------------------------------
-------------------------|--------------------------------------------
-------------------------|--------------------------------------------
-------------------------|--------------------------------------------
-------------------------|--------------------------------------------

(17)p16p14--14--19/21--17------17--|------19--16------16--------------
---------------------------19------|--19----------17------17~~~-------
-----------------------------------|----------------------------------
-----------------------------------|----------------------------------
-----------------------------------|-----------------------------7----
-----------------------------------|----------------------------------

---|--------------------------------------------------------|---------
---|--------------------------------------------------------|---------
---|-----------------------------------------9--10--11--12--|---------
---|---------------6--7--8--9--8--9--10--11-----------------|---------
7--|--7--8--9--10-------------------------------------------|--x------
---|--------------------------------------------------------|---------

                  P.SFull                Full                Full
------------------|-----------14------------------14------------------
------------------|-------14------17p14-------14------17p14-----------
---6--------6----\|---16------------------16------------------16------
x--------x--------|---------------------------------------------------
------x-----------|---------------------------------------------------
------------------|---------------------------------------------------

                  Full                    Full     Full     Full
----14--|----------------------14--------------14-------14-------|----
14------|--17p14-------14--14------17p14---17-------17-------17--|----
--------|----------16--------------------------------------------|----
--------|--------------------------------------------------------|----
--------|--------------------------------------------------------|----
--------|--------------------------------------------------------|----

21p14--21p14--21p14--21p14--20--20p14--20--20p14--20p14--|--19h20-----
---------------------------------------------------------|------------
---------------------------------------------------------|------------
---------------------------------------------------------|------------
---------------------------------------------------------|------------
---------------------------------------------------------|------------

p19p17------19h20p19p17------------------------14--16--|--17--16------
--------19---------------19--19--19--19~~~/17----------|--------------
-------------------------------------------------------|--------------
-------------------------------------------------------|--------------
-------------------------------------------------------|--------------
-------------------------------------------------------|--------------

14------14--17h19p17p14--14h17p14h17p14--14--14-----------------------
----17-------------------------------------------19p17p14--17p14------
----------------------------------------------------------------------
----------------------------------------------------------------------
----------------------------------------------------------------------
----------------------------------------------------------------------

|---------------------------------------------------------------------
|--14h15p14h15p14------14---------------------------------------------
|------------------17------17p14--16p14------14--------14h16p14-------
|----------------------------------------16------1/16-----------------
|---------------------------------------------------------------------
|---------------------------------------------------------------------

w/ bar w/ bar        w/ bar
-------------------------------------------------|--------------------
-------------------------------------------------|--------------------
-\(14)\----13p11\10-\---11p10p9--11p1p9--10p9p8--|--10p9p8------------
-------------------------------------------------|--------------------
-------------------------------------------------|--------------------
-------------------------------------------------|--------------------

w/ bar   w/ barw/ bar      P.dive w/ bar
------------------------------------||--------------------------------
------------------------------------||--------------------------------
-/9p(7)-/9----/6------------\\------||--------------------------------
------------------------x-----------||--------------------------------
---------------------x--------------||--------------------------------
------------------------------------||--------------------------------

In the background, another guitar is playing:

e------------------|-----------------|----------------|------0-----------
B----------2-------|------0--0-------|------0--0------|----2-----2-------
G--------2---2-----|----4------4-----|----4------4----|--4---------4-----
D------2-----------|--2--------------|--2----------0--|------------------
A----4----------0--|-----------------|----------------|------------------
E--2---------------|--------------0--|----------------|------------------

Until 5:14, then comes:

Riff 3
e-------------------------------------------
B-------------------------------------------
G-------------------------------------------
D---------2-2-2--4-4-4--5-------------------
A--4-4-4--0-0-0--2-2-2--3--2--3-------------
E--2-2-2-------------------0--1-------------

Repeat 7 more times, then on the 8th time, play:

e-------------------------------------------
B-------------------------------------------
G-------------------------------------------
D---------2-2-2--4-4-4--5--------5----------
A--4-4-4--0-0-0--2-2-2--3--2--3--3--2--3----
E--2-2-2-------------------0--1-----0--1----

Then:

Riff 1
e----------------------------------
B----------------------------------
G----------------------------------
D--2--2-2-2-2---------------9------
A--0--0-0-0-0--7-6-7--8-7-8---7-8--
E----------------------------------

e-------------------------------------------
B-------------------------------------------
G-------------------------------------------
D--2--2-2-2-2-------------------------------
A--0--0-0-0-0--7-6-7--8-6-7---6-------------
E---------------------------8---7~~---------

e----------------------------------
B----------------------------------
G----------------------------------
D---------------9------------------
A--7-6-7--8-7-8---7-8--------------
E----------------------------------

e-------------------------------------------
B-------------------------------------------
G-------------------------------------------
D--2--2-2-2-2-------------------------------
A--0--0-0-0-0--7-6-7--8-6-7---6-------------
E---------------------------8---7~~---------

e----------------------------------
B----------------------------------
G----------------------------------
D--2--2-2-2-2---------------9------
A--0--0-0-0-0--7-6-7--8-7-8---7-8--
E----------------------------------

e---------------------------------------
B---------------------------------------
G---------------------------------------
D--2--2-2-2-2---------5--------5--------
A--0--0-0-0-0--7-6-7--3--2--3--3--2--3--
E------------------------0--1-----0--1--

Then:

6:14
e----------------------------------
B----------------------------------
G----------------------------------
D--2--2-2-2-2----------------------
A--0--0-0-0-0--7-6-7~~~~~~---------
E----------------------------------

e-------------------------------------------
B-------------------------------------------
G-------------------------------------------
D--2--2-2-2-2------------9~~----------------
A--0--0-0-0-0--7-6-7--8---------------------
E-------------------------------------------

Repeat till end

6.DOMINATION

RIFF 1(a):  		  E5D5E5          E5D5E5          E5D5E5          G5A5G5 
e -----------------------------------------------------------------------------
b -----------------------------------------------------------------------------
g -----------------------------------------------------------------------------
d ----------------9-7-9-----------9-7-9-----------9-7-9------------------------
a ----------------7-5-7-----------7-5-7-----------7-5-7-----------5-7-5--------
E --------0---------------0---------------0---------------0-------3-5-3--------
COUNT:    1 & 2 & 3 & 4 & 1 & 2 & 3 & 4 & 1 & 2 & 3 & 4 & 1 & 2 & 3 & 4 &
RIFF 1(b):		  E5D5E5          E5D5E5          E5D5E5          G5A5G5       
e -----------------------------------------------------------------------------
b -----------------------------------------------------------------------------
g -----------------------------------------------------------------------------
d ----------------9-7-9-----------9-7-9-----------9-7-9------------------------
a ----------------7-5-7-----------7-5-7-----------7-5-7-----------5-7-5--------
E --------0-0-0-----------0-0-0-----------0-0-0-----------0-0-0---3-5-3--------
COUNT:    1 & 2 & 3 & 4 & 1 & 2 & 3 & 4 & 1 & 2 & 3 & 4 & 1 & 2 & 3 & 4 &
RIFF 1(c):		  E5D5E5          E5D5E5          E5D5E5          G5A5G5
e -----------------------------------------------------------------------------
b -----------------------------------------------------------------------------
g -----------------------------------------------------------------------------
d ----------------9-7-9-----------9-7-9-----------9-7-9------------------------
a ----------------7-5-7-----------7-5-7-----------7-5-7-----------5-7-5--------
E --------0---0-----------0---0-----------0---0-----------0---0---3-5-3--------
COUNT:    1 & 2 & 3 & 4 & 1 & 2 & 3 & 4 & 1 & 2 & 3 & 4 & 1 & 2 & 3 & 4 &
RIFF 2(a):  [6/4]                       RIFF 2(b):  [3/4]
	     B5    C5    Db5   D5                 B5C5Db5D5Eb5E5
e -----------------------------------------------------------------------------
b -----------------------------------------------------------------------------
g -----------------------------------------------------------------------------
d -----------4-4-4-5-5-5-6-6-6-7-------------------4-5-6-7-8-9-----------------
a -----------2-2-2-3-3-3-4-4-4-5-------------------2-3-4-5-6-7-----------------
E -----------------------------------------------------------------------------
COUNT:       1 & 2 & 3 & 4 & 5 & 6 &               1 & 2 & 3 & 
RIFF 2(c):  [6/4]                               [4/4]
	     B5    C5    Db5   D5                 A5
e -----------------------------------------|-----------------------------------
b -----------------------------------------|-----------------------------------
g -----------------------------------------|-----------------------------------
d -----------4-4-4-5-5-5-6-6-6-7-7-7-------|------7----------------------------
a -----------2-2-2-3-3-3-4-4-4-5-5-5-------|------7----------------------------
E -----------------------------------------|------5----------------------------
COUNT:       1 & 2 & 3 & 4 & 5 & 6 &              1 & 2 & 3 & 4 &
RIFF 3(a):                                          RIFF 3(b):
		E5              E5                              E5    E5  E5
e --------------------------------------------------|--------------------------
b --------------------------------------------------|--------------------------
g --------------------------------------------------|--------------------------
d --------------------------------------------------|--------------------------
a --------------2---------------2-------------------|-----------2-----2---2----
E ----------00000-----------00000-------------------|-------00000-00000-000----
COUNT :     1 & 2 & 3 & 4 & 1 & 2 & 3 & 4 &                 1 & 2 & 3 & 4 &
RIFF 4:	  B5  Bb5A5Ab5G5Gb5
e -----------------------------------------------------------------------------
b -----------------------------------------------------------------------------
g -----------------------------------------------------------------------------
d -----------------------------------------------------------------------------
a --------9---8---7-6-5-4------------------------------------------------------
E --------7---6---5-4-3-2------------------------------------------------------
COUNT:    1 & 2 & 3 & 4 & RIFF 5(a):
	  C5              G5      A5              E5              D5
e -----------------------------------------------------------------------------
b -----------------------------------------------------------------------------
g -----------------------------------------------------------------------------
d --------5---------------------------------------9---------------7------------
a --------3---------------5-------7---------------7---------------5------------
E ------------------------3-------5-------00000--0--------00000--0-------------
COUNT:    1 & 2 & 3 & 4 & 1 & 2 & 3 & 4 & 1 & 2 & 3 & 4 & 1 & 2 & 3 & 4 &
			  RIFF 5(b):
	       E5              C5              G5      F5              E5
e -----------------------|-----------------------------------------------------
b -----------------------|-----------------------------------------------------
g -----------------------|-----------------------------------------------------
d -------------9---------|-----5---------------------------------------9-------
a -------------7---------|-----3---------------5-------3---------------7-------
E -----00000--0----------|---------------------3-------1-------00000--0--------
COUNT: 1 & 2 & 3 & 4 &         1 & 2 & 3 & 4 & 1 & 2 & 3 & 4 & 1 & 2 & 3 & 4 &
		  D5              B5
e -----------------------------------------------------------------------------
b -----------------------------------------------------------------------------
g -----------------------------------------------------------------------------
d-----------------7---------------4--------------------------------------------
a ----------------5---------------2--------------------------------------------
E --------00000--0--------00000--0---------------------------------------------
COUNT:    1 & 2 & 3 & 4 & 1 & 2 & 3 & 4 &RIFF 6:	     E5
e -----------------------------------------------------------------------------
b -----------------------------------------------------------------------------
g -----------------------------------------------------------------------------
d -----------------------------------------------------------------------------
a -----------2-----x4----------------------------------------------------------
E -------0000000---------------------------------------------------------------
COUNT:   1 & 2 & 3 & 4 &RIFF 7:
e -----------------------------------------------------------------------------
b -----------------------------------------------------------------------------
g -----------------------------------------------------------------------------
d -------17--------------15--------------14------------------------------------
a -----------------------------------------------------------------------------
E -------15--------------13--------------12------------------------------------
COUNT:   1 & 2 & 3 & 4 & 1 & 2 & 3 & 4 & 1 & 2 & 3 & 4 & 1 & 2 & 3 & 4 &
e -----------------------------------------------------------------------------
b -----------------------------------------------------------------------------
g -----------------------------------------------------------------------------
d -------17--------------15--------------12------------------------------------
a -----------------------------------------------------------------------------
E -------15--------------13--------------10------------------------------------
COUNT:   1 & 2 & 3 & 4 & 1 & 2 & 3 & 4 & 1 & 2 & 3 & 4 & 1 & 2 & 3 & 4 &RIFF 8:
	 E5



for the hollow echo sound 4 beats before solo starts you either hit all harmonics 
on the 12th fret or on the 7th fret, either way you still hit them all while bending
the strings on the tremolo bar


guitar solo


|-----13p12-13-16-13p12-13p12----12-13p12--------------------------------------
|-----------------------------15-----------------------------------------------
|------------------------------------------------------------------------------
|------------------------------------------------------------------------------
|------------------------------------------------------------------------------
|------------------------------------------------------------------------------

|-13p12----12------------------------------|-----------------------|
|-------15----15-13-12----13-12----12------|-----------------------|
|----------------------14-------14----13---|-(13)~----9~-----------|
|------------------------------------------|------------------9-10-|
|------------------------------------------|-----------------------|
|------------------------------------------|--------0-------0------|
 
|------------------|------------------------------------------------------------|
|------------------|----------------------------------------------------------1-|
|-9-10-------------|----------------------------------13-12-15-------13-12-15---|
|------------------|----12----14-12-15-13----13-12-15----------12-15------------|
|--------6-----/---|-13----15-------------13------------------------------------|
|------------------|------------------------------------------------------------|
 
|-------13----------------13-------13----15-18-15----15----15-19-15----22-|
|-12-15----------14-12-15----15-12----17----------17----17----------17----|
|----------12-15----------------------------------------------------------|
|-------------------------------------------------------------------------|
|-------------------------------------------------------------------------|
|-------------------------------------------------------------------------|
  
|-22-22-22-22-22-18----22-22-22-22-22-18----22-22-22-22-22-18----22-22-22-22-22-18----|
|-------------------20-------------------20-------------------20-------------------20-|
|-------------------------------------------------------------------------------------|
|-------------------------------------------------------------------------------------|
|-------------------------------------------------------------------------------------|
|-------------------------------------------------------------------------------------|
  
|-21-21-21-21-18----21-21-21-21-18----21-21-21-21-18----21-21-21-21-18----||
|----------------20----------------20----------------20----------------20-||
|-------------------------------------------------------------------------||
|-------------------------------------------------------------------------||
|-------------------------------------------------------------------------||
|-------------------------------------------------------------------------||
  
|-22b24-----------22b24--|-22~-------------|-19-20-17-19-15-17-14-15-12~-------
|-22b24-----------22b24--|-22~-------------|-19-20-17-19-15-17-13-15-12~-------
|------------------------|-----------------|-----------------------------------
|------------------------|-----------------|-----------------------------------
|------------------------|-----------------|-----------------------------------
|------------------------|-----------------|-----------------------------------
   
|-14-15----14-15---------------|-17-16-15-14-15-14-13-14-13-12----12-|
|-13-15-17-13-15-17b19---------|-17-16-15-13-15-13-12-13-12----15-12-|
|-------16-------16b18---------|----------------------------14-12----|
|------------------------------|-------------------------------------|
|----------------------------x-|-------------------------------------|
|------------------------------|-------------------------------------|
  

|-(12)------~~----|-----------------|-----------------||
|-----------------|-----x----/------|-0---------------||
|-tremolo bend----|-----------------|-----0-----------||
|-----------------|--tremolo bend---|-----------------||
|-----------------|-----------------|---------3~~-----||
|-----------------|-----------------|-----------------||
	bend the tremelo bar upwards	    
|-------------------------------------------------|
|-------------------------------------------------|
|-------------------------------------5-7-9-5-7-9-|
|-------------4-5-7-4-5-7-5-7-9-5-7-9-------------|
|-3-5-7-3-5-7-------------------------------------|
|-------------------------------------------------|
  
|-------------------------------------------------------------------|
|-7-8-10-7-8-10-8-10-11-8-10-11-12-14-15-12-14-15-14-15-17-15-17-18-|
|-------------------------------------------------------------------|
|-------------------------------------------------------------------|
|-------------------------------------------------------------------|
|-------------------------------------------------------------------|
  
|-------------------15-17-19-15-17-19-17-19-20-17-19-20-19-20-22-19-20-22-|
|-15-17-19-15-17-19-------------------------------------------------------|
|-------------------------------------------------------------------------|
|-------------------------------------------------------------------------|
|-------------------------------------------------------------------------|
|-------------------------------------------------------------------------                      
            /
|-22----24x/---------------------------------------------------------------------
|--------------------------------------------------------------------------
|--------------------------------------------------------------------------
|--------------------------------------------------------------------------
|--------------------------------------------------------------------------
|--------------------------------------------------------------------------
	bend the tremolo bar all the way down till u get the note
 
e -----------------------------------------------------------------------------
b -----------------------------------------------------------------------------
g -----------------------------------------------------------------------------
d -----------------------------------------------------------------------------
a -------2-2-2---2-2-2---2-2-2---2-2-2-------2-2-2--2-2-2--2-2-2---------------
E -------0-0-0---0-0-0---0-0-0---0-0-0-------0-0-0--0-0-0--0-0-0---------------
COUNT:   1   &   2   &   3   &   4   &   1   &   2   &   3   &   4   &RIFF 9(a)
	 F5  E5  F5  E5  F5  E5  F5  E5   
e -----------------------------------------------------------------------------
b -----------------------------------------------------------------------------
g -----------------------------------------------------------------------------
d -----------------------------------------------------------------------------
a -------3-3-2-2-3-3-2-2-3-3-2-2-3-3-2-2-----2-2-2---2-2-2---2-2-2-------------
E -------1-1-0-0-1-1-0-0-1-1-0-0-1-1-0-0-----0-0-0---0-0-0---0-0-0-------------
COUNT:   1   &   2   &   3   &   4   &   1   &   2   &   3   &   4   &RIFF 9(b)
	 E5  F5  E5  F5  E5  F5  E5  F5/G5    E5
e -----------------------------------------------------------------------------
b -----------------------------------------------------------------------------
g -----------------------------------------------------------------------------
d -----------------------------------------------------------------------------
a -------2-2-3-3-2-2-3-3-2-2-3-3-2-2-3/5-----2-2-2---2-2-2---2-2-2-------------
E -------0-0-1-1-0-0-1-1-0-0-1-1-0-0-1/3-----0-0-0---0-0-0---0-0-0-------------
COUNT:   1   &   2   &   3   &   4   &   1   &   2   &   3   &   4   &


7.SHATTERED

Triplet feel                End triplet feel
1||--------------------------||-----------------|-------------------------||
2||--------------------------||-----------------|-------------------------||
3||--------------------------||-----------------|-------------------------||
4||--------------------------||-9-7-9-----2--0--|-2-----------------------||
5||-444444444444444444444444-||-7-5-7-----2--0--|-2-------22-2-2-2-2-22-2-||
6||--------------------------||-----------0-----|-0-------00-0-0-0-0-00-0-||

                                        Verse
1||-----------------|-----------------||------------------|------------------||
2||-----------------|-----------------||------------------|------------------||
3||----2-4-5-4-2----|-----------------||-6--6-7-6---------|-6--6-7-6---------||
4||-234-4-4-4-4-4~--|----2-4-5-4-2----||-6--6-6-6--647646-|-6--6-6-6---------||
5||-----------------|-2340-2-3-2-04---||-4444444444-------|-4444444444444444-||
6||-----------------|-012---------2---||------------------|------------------||

            Let ring                      Triplets               Chorus
1||-------------0---||------------------||---------------------||-----------------|
2||------------0----||------------------||---------------------||-----------------|
3||-----------1-----||-6--6-7--6--6-7---||---------------------||----4-6-7-6-4----|
4||-2--------2------||-6--6-6--6--6-6---||-4-----------4-------||-456-6-6-6-6-6~--|
5||-2-------2-------||-4444444444444444-||-2222222222222-------||-----------------|
6||-0---------------||------------------||---------------------||-----------------|

                                      With wierd effect      Last ending
1||-----------------||--------------||-----------|---------||-------------------||
2||-----------------||--------------||-----------|---------||-------------------||
3||-----------------||--------------||-5---------|---------||-------------------||
4||----4-6-7-6-4----||--------------||-5---------|-4-------||-------------------||
5||-4562-4-5-4-26---||--4-----4-----||-3-----320-|-4-------||---22-33-44-55-66--||
6||-234---------4---||-02-----2-----||-----------|-2-------||-----3--4--5--6--7-||

   Solo
1||------------------|------------------|------------------|-----------------|
2||------------------|------------------|------------------|-----------------|
3||-6------6---------|-6---6---6---6----|-6------6---------|-6---6-----------|
4||-6------6---------|-6---6---6---6----|-6------6---------|-6---6---4--5--6-|
5||-4-444444--444444-|-4--44--44--44--4-|-4-444444--444444-|-4--44-442--3--4-|
6||------------------|------------------|------------------|-----------------|


1||------------------|------------------|------------------|------------------||
2||------------------|------------------|------------------|------------------||
3||-8------8---------|-8---8---8---8----|-8------8---------|-8---8------------||
4||-8------8---------|-8---8---8---8----|-8------8---------|-8---8---10--9--8-||
5||-6-666666--666666-|-6--66--66--66--6-|-6-666666--666666-|-6--66-66-8--7--6-||
6||------------------|------------------|------------------|------------------||

   Triplet feel                End triplet feel
1||--------------------------||-------------------|-----x-x------------------||
2||--------------------------||-------------------|-----x-x------------------||
3||--------------------------||-------------------|--------------------------||
4||--------------------------||-11-9-11-----------|--------------------------||
5||-666666666666666666666666-||--9-7--9-----4--2--|-4--------44-4-4-4-4-44-4-||
6||--------------------------||-------------2--0--|-2--------22-2-2-2-2-22-2-||

   Ending                                      Chord under end solo
1||-----------------|------------------------|-------||
2||-----------------|------------------------|-------||
3||-----------------|------------------------|-------||
4||-----------------|------------------------|-4-----||
5||----5-7-----4-6--|----2-4-----1-3-4-3-1---|-4-----||
6||-567-7---456-6---|-234-4---123-3-3-3-3-3--|-2-----||

8.CLASH WITH REALITY

After cool drum part

1||------------------|-----------------|-----------------|-----------------|
2||------------------|-----------------|-----------------|-----------------|
3||------------------|-----------------|-----------------|-----------------|
4||------------------|-----------------|-----------------|-----------------|
5||------------------|-----------------|-5-4-2-------5-4-|-2-------4-5-4-2-|
6||-2-4~--2-4~--2-4~-|---2-4~--2-5-4-2-|-------2~--------|---3~------------|


1||------------------|-----------------|-----------------|------------------||
2||------------------|-----------------|-----------------|------------------||
3||------------------|-----------------|-6-4-------------|------------------||
4||------------------|-----------------|-----6-4~----6-4-|--------A.H-------||
5||------------------|-----------------|-----------------|-6-5~---<4>b5r4-2-||
6||-2-4~--2-4~--2-4~-|---2-4~--2-5-4-2-|-----------------|------------------||

   2nd Ending
1||-------------||-----------------|-----------------|----------------|-------------
2||-------------||-----------------|-----------------|----------------|-------------
3||-------7--7--||-----------------|-----------------|----------------|-------------
4||-------7--7--||-----------------|-----------------|----------------|-------------
5||-6-5~--5--5--||-----------------|-----------------|-554-2------554-|-2-----445-4-
6||-------------||-444-2/4~--2-444-|-2/4~--2-445-4-2-|-------2~-------|---3~--------
                   ***         ***           *** *     *** *      ***   *     *** * 

1||------------------|-----------------|-----------------|-----------------||
2||------------------|-----------------|-----------------|-----------------||
3||------------------|-----------------|-6-4-------------|---------7---7---||
4||------------------|-----------------|-----6-4~----6-4-|---------7---7---||
5||------------------|-----------------|-----------------|-6-5~----5---5---||
6||-44442/4~--2-4444-|-2/4~--2-445-4-2-|-----------------|-----------------||
    ****        ****           *** * *

1||-----|----|-----------------|-----------------|-----|----|-----------------|
2||-----|----|-----------------|-----------------|-----|----|-----------------|
3||-----|----|-----------------|---------7---7---|-----|----|-6-4-------------|
4||-6---|----|-7-6-4-------7-6-|-4-------7---7---|-6---|----|-----6-4~----6-4-|
5||-6---|----|-5-4-2-4-----5-4-|-2-5-----5---5---|-6---|----|-----------------|
6||-4---|----|-------2---------|---3-------------|-4---|----|-----------------|

            
1||-----------------|----------------|-----------------||-----------------|
2||-----------------|----------------|-----------------||-----------------|
3||-----------------|---------(4)----|(6)---(4)---(5)--||-----------------|
4||--------------(4)|---(6)----------|-----------------||-----------------|
5||-6-5~---(6)------|----------------|-----------------||-4/6---4/6---4/6-|
6||-----------------|----------------|-----------------||-2/4---2/4---2/4-|


1||------------------|-----------------||-----------------|-----------------||
2||------------------|-----------------||-----------------|-----------------||
3||------------------|-----------------||-----------------|-7---7---7---7---||
4||------------------|-----------------||-7---------------|-7---7---7---7---||
5||---4/6---4/6---4/-|/6---4/6---4/6---||-7---------------|-5---5---5---5---||
6||---2/4---2/4---2/-|/4---2/4---2/4---||-5---------------|-----------------||


1||-----------------|-----------------|-----------------|-----------------||
2||-----------------|-----------------|-----------------|-----------------||
3||-----------------|-----------------|-----------------|-----------------||
4||-----------------|-----------------|-----------------|-----------------||
5||-6/8-------------|-----------------|-6/8---6/8---6/8-|---6/8---6/8-----||
6||-4/6-6-6-6-6-6-6-|-6-6-6-6-6-6-6-6-|-4/6---4/6---4/6-|---4/6---4/6-----||
        * * * * * *   * * * * * * * *

1||-----------------|-----------------|-----------------|-----------------||
2||-----------------|-----------------|-----------------|-----------------||
3||-----------------|-----------------|-----------------|-----------------||
4||-4/6-------------|-----------------|-----------------|---------2-------||
5||-2/4-4-4-4-4-4-4-|-4-4-4-4-4-4-4-4-|-2h4-4-2h4-4-2h4-|-4-2h4-4---5~----||
6||-----------------|-----------------|-----------------|-----------------||
        * * * * * *   * * * * * * * *
   
1||-----------------|-----------------|-----------------|-----------------|
2||-----------------|-----------------|-----------------|-----------------|
3||---------12-\----|---------11-\----|---------12-\----|-----------------|
4||---------12-\----|---------11-\----|---------12-\----|-----------------|
5||---------10-\----|----------9-\----|---------10-\----|-----5---7---5---|
6||-0-0-------------|-0-0-----------0-|-0-0-------------|---7---7---7---7-|


1||--------------|---------------|--------------|-----------------||----------------
2||--------------|---------------|--------------|-----------------||----------------
3||-------12-\---|-------11-\----|-------10-\---|-----------------||----------------
4||-------12-\---|-------11-\----|-------10-\---|-----------------||-----5-------7--
5||-------10-\---|--------9-\----|--------8-\---|-----1---3---1---||-23333---35555--
6||-0-0----------|-0-0---------0-|-0-0----------|---3---3---3---3-||----------------


1||-------------------|------------------|------------------|-----------------|
2||-------------------|------------------|------------------|-----------------|
3||---------12-\----9-|--------11-\----9-|--------12-\----9-|-----------------|
4||---------12-\----9-|--------11-\----9-|--------12-\----9-|-----------------|
5||---------10-\----7-|---------9-\----7-|--------10-\----7-|-----5---7---5---|
6||-00000000----------|--000000----------|--000000----------|---7---7---7---7-|


1||-------------------|------------------|------------------|-----------------||
2||-------------------|------------------|------------------|-----------------||
3||---------12-\----9-|--------11-\----9-|--------10-\----9-|-----------------||
4||---------12-\----9-|--------11-\----9-|--------10-\----9-|-----------------||
5||---------10-\----7-|---------9-\----7-|---------8-\----7-|-----1---3---1---||
6||-00000000----------|--000000----------|--000000----------|---3---3---3---3-||


1||-----|-------------------|-------------------|
2||-----|-------------------|-------------------|
3||-9---|-------------------|-------------------|
4||-9---|-------------------|-------------------|
5||-7---|-3--3--3--5--5--5--|-3--3--3--5--5--5--|
6||-----|-1--1--1--3--3--3--|-1--1--1--3--3--3--|


1||-----------------|----------------|----------------|-----------------|
2||-----------------|----------------|----------------|-----------------|
3||-----------------|----------------|----------------|-----------------|
4||-----------------|----------------|----------------|-----------------|
5||---------6\----2-|--------4\----2-|--------6\----2-|---3-------5-----|
6||-0-0000003\----0-|--0000003\----0-|--0000003\----0-|---1-------3-----|


1||-----------------|----------------|-----------------|-----------------||
2||-----------------|----------------|-----------------|-----------------||
3||-----------------|----------------|-----------------|-----------------||
4||-----------------|----------------|-----------------|-----------------||
5||---------6\----2-|--------4\----2-|-5-----5-----5---|---7---7---8---8-||
6||-000000003\----0-|--0000003\----0-|-3-3-3-3-3-3-3-3-|-5-5-5-5-6-6-6-6-||


1||-----------------|----------------|-----------------|------------------|
2||-----------------|----------------|-----------------|------------------|
3||-----------------|----------------|-----------------|------------------|
4||-----------------|----------------|-----------------|---8-------10-----|
5||-2-------6\------|-2-------4\-----|-2-------6\------|---9-------11-----|
6||-0-0-0-0-3\------|-0-0-0-0-3\-----|-0-0-0-0-3\------|---6--------8-----|


1||-----------------|----------------|-----------------|------------------|
2||-----------------|----------------|-----------------|------------------|
3||-----------------|----------------|-----------------|------------------|
4||-----------------|----------------|-----------------|------------------|
5||-2-------6\------|-2-------4\-----|-5-----5-----5---|------------------|
6||-0-0-0-0-3\------|-0-0-0-0-3\-----|-3-3-3-3-3-3-3-3-|-5555555566666666-|


1||-----------------|----------------|----------------|-----------------|
2||-----------------|----------------|----------------|-----------------|
3||-----------------|----------------|----------------|-----------------|
4||-----------------|----------------|----------------|-----------------|
5||---------6\----2-|--------4\----2-|--------6\----2-|---3-------5-----|
6||-0-0-00003\----0-|--0-00003\----0-|--0-00003\----0-|---1-------3-----|


1||-----------------|----------------|-----------------|------------------|------||
2||-----------------|----------------|-----------------|------------------|------||
3||-----------------|----------------|-----------------|------------------|------||
4||-----------------|----------------|-----------------|------------------|------||
5||---------6\----2-|--------4\----2-|-5-----5-----5---|------------------|-2----||
6||-0-0-00003\----0-|--0-00003\----0-|-3-3-3-3-3-3-3-3-|-5555556666665555-|-0----||

9.MEDICINE MAN

Tuning  low to high: D A D G B E

Intro and Chorus 
|--------------------------------|
|--------------------------------|
|--------------------------------|
|-0---------------3-0------------|
|-0-------------2-3-0------------|
|-0-0-0-0-0-0-0-2-3-0-0-0-0-0----|

 End of Chorus 
|---------------------------------|
|---------------------------------|
|---------------------------------|
|-0-----------------3--3-5--------|
|-0---------------2-3--3-5--------|
|-0-0-0-0-0-0-0-0-2-3--3-5--------|

Lead Fill 

|---------------------------------------------------|
|---------------------------------------------------|
|---5-7-8-5h7p5---5---------------------------------|
|---------------8---7-8-5h7p5---5-------------------|
|-----------------------------8---8h10p8/6-8-5~~~~--|
|---------------------------------------------------|

 FILL2
|-------------------|
|-------------------|
|-------------------|
|-------------------|
|-------2---3-------|
|-0-2-3---3---------|

After FILL2
|-----------------------|
|-----------------------|
|-----------------------|
|-12--10--8---8--5-3----|
|-12--10--8---8--5-3----|
|-12--10--8---8--5-3----|

Verse FILL2 at the end 

|------------------------------|---------------------------------------|
|--2--------2------------------|---------------------------------------|
|--1--------2------------------|---------------------------------------|
|------------------------------|---------------------------------------|
|------------------------------|--------------------2-2----------------|
|------------------------------|--------------0-2-3-----3~~~~~---------|

10.MESSAGE IN BLOOD

intro:
------------------------------------------------------------------
------------------------------------------------------------------
------------------------------------------------------------------
------------------------------------------------------------------
-65-65-65-65-65-54-43-32------------------------------------------
---6--6--6--6--6--5--4--3-1-111-111-1-111-111-1-111-111-1-111-111-

------------------------------------------------------------------
------------------------------------------------------------------
------------------------------------------------------------------
--------------------------------------------------------------5\--
-----------------32-23-32-23-32-------------------21-12-21-12-----
-3313313313313331--4--4--4--4--41-3313313313313331--3--3--3--3----

------------------------------------------------------------------
------------------------------------------------------------------
--------------------------------------------------------------6\--
------------------------------------------------------------------
-----------------32-23-32-23-32-------------------21-12-21-12-----
-3313313313313331--4--4--4--4--41-3313313313313331--3--3--3--3----

                                       vs (rex)
------------------------------|-------|---------------------------
------------------------------|-------|---------------------------
------------------------------|-------|---------------------------
-----4------------------------|-1~----|---------------------------
-3333-----01234321----4---2-2-|-3~-0~-|-3-----3-------------------
------3333--------2222-111-4-4|----2~-|--3-2-1-3-2-1-...----------

(when dime comes in) (after solo) (rpt)                 (back to intro)
--------------------|------------------|------------------|---------
--------------------|------------------|------------------|---------
--------------------|------------------|------------------|---------
--1h4---------------|------------------|------------------|---------
-3----1h4-0h3-------|----1-3h4p3-1-1---|----3-5h6p5-3-3---|---------
-----3---2---1-11---|-331-3-------3-12-|-553-5-------5-34-|---------

11.SLEEP

Don't Know

12.ART OF SHREDDING

E||------|------|------|------|----------------------|------------------|
B||------|------|------|------|----------------------|------------------|
G||------|------|------|------|----------------------|------------------|
D||------|------|------|------|--2-----2--1----------|------------------|
A||------|------|------|------|--2-----2--1----------|------------------|
E||------|------|------|------|--0--0----------------|------------------|


                                                                       
-------------------||------------------------|------------------------|
-------------------||------------------------|------------------------|
-------------------||*-----------------------|------------------------|
-------------------||*----------4----2-------|------------------------|
--9/---------------||---------------------5--|----4--2-----0--3-------|
-------------------||---0--2-----------------|----------3--------4~---|


                                                                               
-----------------------|-------------------------||---------------------------|
-----------------------|-------------------------||---------------------------|
-----------------------|------------------------*||*--------------------------|
----------4b---2b------|------------------------*||*--4-----4-----2-----2-----|
--------------------5--|----4--2-----0--3--------||------2-----2-----2-----2--|
--0--2-----------------|----------3--------4~----||---------------------------|


                                                           
-----------------------------||---------------------------|
-----------------------------||---------------------------|
----------------------------*||*--------------------------|
----------------------------*||*--------------------------|
--5-5-4--5-5-4--5--4--2--0---||---4-----4-----2-----2-----|
-----------------------------||------2-----2-----2-----2--|


                                                           
-----------------------------||---------------------------|
-----------------------------||---------------------------|
----------------------------*||*--------------------------|
----------------------------*||*--4-----4-----2-----2-----|
-----------------------------||------2-----2-----2-----2--|
--5-5-4--5-5-4--5--4--2--0---||---------------------------|


                                                           
-----------------------------||---------------------------|
-----------------------------||---------------------------|
----------------------------*||---------------------------|
----------------------------*||--6-----6-----7-----7------|
--5-5-4--5-5-4--5--4--2--0---||-----4-----4-----4-----4-4-|
-----------------------------||---------------------------|


                                                                               
----------------------------------|---------------------|---------------------|
----------------------------------|---------------------|---------------------|
----------------------------------|---------------------|---------------------|
--6-6-----6-6-----7-7-----7-7-----|--6------6------6----|--6--------6----6----|
------4-4-----4-4-----4-4-----4-4-|--4------4------4----|--4--------4----4----|
----------------------------------|---------------------|---------------------|


                                                        
|---------------------------|--------------------------|
|---------------------------|--------------------------|
|*--------------------------|--------------------------|
|*--------------3-----------|-----5--------------8/-7--|
|---------5-----1--------7--|-----3--------8-----6/-5--|
|---0--0--3--0-----0--0--5--|--0-----0--0--6--0--------|


                                                      
--------------------------|--------------------------|
--------------------------|--------------------------|
--------------------------|--------------------------|
--------------3-----------|-----5--------------8/-7--|
--------5-----1--------7--|-----3--------8-----6/-5--|
--0--0--3--0-----0--0--5--|--0-----0--0--6--0--------|


                                                        
--------------------------|---------------------------||
--------------------------|---------------------------||
--------------------------|--------------------------*||
--------------3-----------|-----5--------------8/-7--*||
--------5-----1--------7--|-----3--------8-----6/-5---||
--0--0--3--0-----0--0--5--|--0-----0--0--6--0---------||


                                                                             
--------------------------|--------------------------|----------------------|
--------------------------|--------------------------|----------------------|
--------------------------|--------------------------|----------------------|
--------------3-----------|-----5--------------------|--3------3--4------6--|
--------5-----1--------7--|-----3-----8/-7--7/-6--6--|--1------1--2------4--|
--0--0--3--0-----0--0--5--|--0-----0--6/-5--5/-4--4--|----------------------|


                                                                            
--------------------||--------------------------|--------------------------|
--------------------||--------------------------|--------------------------|
--------------------||*-------------------------|--------------------------|
--3-----------------||*-------------------------|--------------------------|
--1--------5--------||---2----------------------|--------------------------|
-----------3--------||---0----0--0--0--0--0--0--|--0--0--0--0--0--0--0--0--|


                                                                               
--------------------------|-------------------------|-------------------------|
--------------------------|-------------------------|-------------------------|
--------------------------|-------------------------|-------------------------|
--------------------------|-------------------------|-------------------------|
--4/-6--------------------|-----------6--------6----|--2----------------------|
--2/-4--4--4--4--4--4--4--|--4--4--4--4--4--4--4----|--0----0--0--0--0--0--0--|


                                                      
--------------------------|--------------------------|
--------------------------|--------------------------|
--------------------------|--------------------------|
--------------------------|--3--------3/-4--------4--|
--------------------------|--1--1--1--1/-2--2--2--2--|
--0--0--0--0--0--0--0--0--|--------------------------|


                                                        
---------------------------||--------------------------|
---------------------------||--------------------------|
--------------------------*||--------------------------|
--3--------3/-4--------4--*||--------------3-----------|
--1--1--1--1/-2--2--2--2---||--------5-----1--------7--|
---------------------------||--0--0--3--0-----0--0--5--|


                                                      
--------------------------|--------------------------|
--------------------------|--------------------------|
--------------------------|--------------------------|
-----5--------------8/-7--|--------------3-----------|
-----3--------8-----6/-5--|--------5-----1--------7--|
--0-----0--0--6--0--------|--0--0--3--0-----0--0--5--|


                                                      
--------------------------|--------------------------|
--------------------------|--------------------------|
--------------------------|--------------------------|
-----5--------------8/-7--|--------------3-----------|
-----3--------8-----6/-5--|--------5-----1--------7--|
--0-----0--0--6--0--------|--0--0--3--0-----0--0--5--|


                                                                       
--------------------------|----------------------|--------------------|
--------------------------|----------------------|--------------------|
--------------------------|----------------------|--------------------|
-----5--------------8/-7--|--3------3--4------6--|--3-----------------|
-----3--------8-----6/-5--|--1------1--2------4--|--1--------5--------|
--0-----0--0--6--0--------|----------------------|-----------3--------|


                                                       
|--------------------------|--------------------------|
|--------------------------|--------------------------|
|*-------------------------|--------------------------|
|*-------------------------|--------------------------|
|---2----------------------|--------------------------|
|---0----0--0--0--0--0--0--|--0--0--0--0--0--0--0--0--|


                                                                               
--------------------------|-------------------------|-------------------------|
--------------------------|-------------------------|-------------------------|
--------------------------|-------------------------|-------------------------|
--------------------------|-------------------------|-------------------------|
--4/-6--------------------|-----------6--------6----|--2----------------------|
--2/-4--4--4--4--4--4--4--|--4--4--4--4--4--4--4----|--0----0--0--0--0--0--0--|


                                                      
--------------------------|--------------------------|
--------------------------|--------------------------|
--------------------------|--------------------------|
--------------------------|--3--------3/-4--------4--|
--------------------------|--1--1--1--1/-2--2--2--2--|
--0--0--0--0--0--0--0--0--|--------------------------|


                                                                               
---------------------------||------------------------|------------------------|
---------------------------||------------------------|------------------------|
--------------------------*||------------------------|------------------------|
--3--------3/-4--------4--*||------------------------|------------------------|
--1--1--1--1/-2--2--2--2---||--7-------7-------7-----|----7----------------5--|
---------------------------||-----6-------6-------5--|-------6----5--6--7-----|


                                                                             
|-------------------------|------------------------|------------------------|
|-------------------------|------------------------|------------------------|
|*------------------------|------------------------|------------------------|
|*------------------------|------------------------|--9/-8----9/-8----9/-8--|
|---7-------7-------7-----|----7----------------7--|--7/-6----7/-6----7/-6--|
|------6-------6-------5--|-------6----5--6--7-----|------------------------|


                                                            
----------------------------------|------------------------|
----------------------------------|------------------------|
----------------------------------|------------------------|
----------------------------------|--9/-8----9/-8----9/-8--|
--6-6-6-6-6-6-6-6-6-6-6-6-6-6-6-6-|--7/-6----7/-6----7/-6--|
----------------------------------|------------------------|


                                                               
-----------------------------------||-------------------------|
-----------------------------------||-------------------------|
----------------------------------*||*------------------------|
----------------------------------*||*--3h-2----3h-2----3-----|
--5-5-5-5-5-5-5-5-5-5-5-5-5-5-5-5--||---1h-0----1h-0----1--2--|
-----------------------------------||----------------------0--|


                                                                           
------------------------|------------------------|------------------------|
------------------------|------------------------|------------------------|
------------------------|------------------------|------------------------|
------------------------|--3h-2----3h-2----3-----|------------------------|
------2--2--2--2--2--2--|--1h-0----1h-0----1--3--|------3--3--3--3--3--3--|
------0--0--0--0--0--0--|---------------------1--|------1--1--1--1--1--1--|


                                                                           
------------------------|------------------------|------------------------|
------------------------|------------------------|------------------------|
------------------------|------------------------|------------------------|
------------------------|------------------------|------------------------|
--3h-2----3h-2----3/-5--|------5--5--5--5--5--4--|----4--4--3----3--3--3--|
--1h-0----1h-0----1/-3--|------3--3--3--3--3--2--|----2--2--1----1--1--1--|


                                                                                
------------------------||--------------------------|--------------------------|
------------------------||--------------------------|--------------------------|
-----------------------*||--------------------------|--------------------------|
-----------------------*||--------------------------|--------------------------|
--x----3----x----5--6---||--6--------6/-7-----------|-----6/-7-----4-----4-----|
--x----1----x----3--4---||--4--4--4--4/-5--4--4--4--|--4--4/-5--0--2--0--2--0--|


                                                      
--------------------------|--------------------------|
--------------------------|--------------------------|
--------------------------|--------------------------|
--------------------------|--------------------------|
--6--------6/-7-----------|-----6/-7-----3-----4-----|
--4--4--4--4/-5--4--4--4--|--4--4/-5--0--1--0--2--0--|


                                                                              
----------------------------------|----------------------|-------------------|
----------------------------------|----------------------|-------------------|
----------------------------------|----------------------|-------------------|
--------------9-9-8-8-7-7-6-6-5-5-|--0-------------------|-------------------|
--4-4-3-3-2-2-7-7-6-6-5-5-4-4-3-3-|--0----2----3----5----|--7----------------|
--2-2-1-1-0-0---------------------|-------0----1----3----|--5----------------|


                                                                               
----------------------|------------------------------|------------------------|
----------------------|------------------------------|------------------------|
----------------------|------------------------------|------------------------|
--0-------------------|------------------------------|--7----9----10----12----|
--0----2----3----5----|--7--2-7-2-5-6--7--2-7-2-5-6--|--5----7----8-----10----|
-------0----1----3----|--5--0-5-0-3-4--5--0-5-0-3-4--|------------------------|


                                                                   
--------------------|----------------------|----------------------|
--------------------|----------------------|----------------------|
--------------------|----------------------|----------------------|
--14----------------|--7-------------------|--4----5----7----8----|
--12----------------|--5----2----3----5----|--2----3----5----6----|
--------------------|-------0----1----3----|----------------------|


                                                                       
------------------------|------------------------|-------------------||
------------------------|------------------------|-------------------||
--9-------9-------9-----|----9----------------7--|--9----------------||
-----9-------8-------7--|-------8----7--8--9-----|--9----------------||
------------------------|------------------------|--7----------------||
------------------------|------------------------|--0----------------||

I'm sure Dimebag's a god up there.
12 comments total. Showing first comments.
0 reply
SgtSparkles wrote on March 2 2005, 12:00 am

in your art of shredding section you forgot some very important palm mutes but listening to the record it was easy to find out what was wrong

0 reply
Josher.K wrote on May 18 2006, 09:12 pm

... Then post on THAT SONG! Fuck! ... Nice tab but I think u copied a powertab.

0 reply
AngusYoung II wrote on May 24 2006, 03:43 am

Legends Never Die (1966 - 2004 R.I.P Darrell "Dimebag" Abbott)

I want to post or [tab]
guest
You may want to rate the tab now too:
select rating
Please do not post tabs as comments. Select "correction" instead!