Oops, an error
Loading. Please wait.

Cowboys From Hell Tab

ver2
ver2
More versions @911Tabs.com
83,817 views 36 this week
12 commentsread comments
1 2 3 4 5
accurate
x 17
Autoscroll
+/-
esc
set tempo
stop
Contributor
WARNING: You are trying to view
                                    content from Ultimate-Guitar.com
                                    in an unauthorized application,
                                    which is prohibited.

                                    Please use an official Ultimate
                                    Guitar Tabs application for iPhone,
                                    iPad or Android to access legitimate
                                    chords, guitar, bass, and drum tabs
                                    from Ultimate-Guitar.com database.

                                    Type "ultimate guitar tabs" in Apple
                                    App Store's or Android Market's
                                    search to find the application.
                                                                                             


				   Tabbed by Colin Andrews
				http://www.myspace.com/dogbiscuit


				Cowboys From Hell: The Album
				(c) Atlantic Records 1990

		[/[/[/[/[/[//[/[/[/[/[/[/[/[/[/[/[/[/[/[/[/[/[/[/[/[/[/[/[/[/[//[/[/
					TRACK LISTING



				1.  Cowboys From Hell
				2.  Primal Concrete Sledge
				3.  Psycho Holiday
				4.  Heresy
				5.  Cemetery Gates
				6.  Domination
				7.  Shattered
				8.  Clash with Reality	
				9.  Medicine Man
				10. Message in Blood
				11. The Sleep
				12. The Art of Shredding
		
		[/[/[/[/[/[//[/[/[/[/[/[/[/[/[/[/[/[/[/[/[/[/[/[/[/[/[/[/[/[/[//[/[/



			*******************************************************
					Tablature Notation


					Duration Legend
					---------------
					W - whole
					H - half
					Q - quarter
					E - 8th
					S - 16th
					T - 32nd
					X - 64th
					. - note dotted
					|-n-|  - n-tuplets
					
					
					Tablature Legend
					----------------
					L - tied note
					x - dead note
					g - grace note
					(n) - ghost note
					> - accentuded note
					NH - natural harmonic
					AH - artificial harmonic
					TH - tapped harmonic
					SH - semi harmonic
					PH - pitch harmonic
					h - hammer on
					p - pull off
					b - bend
					br - bendRelease
					pb - preBend
					pbr - preBendRelease
					brb - bendReleaseBend
					\n/ - tremolo bar dip
					\n - tremolo bar dive
					-/n - tremolo bar Release up
					/n\ - tremolo bar inverted dip
					/n - tremolo bar return
					-\n - tremolo bar Release down
					S - shift slide
					s - legato slide
					/ -  slide into from below or out of upwards
					\ -  slide into from above or out of downwards
					~ - vibrato
					W - wide vibrato
					tr - trill
					TP - tremolo picking
					T - tapping
					S - slap
					P - pop
					< - fade in
					^ - brush up
					v - brush down

			*******************************************************


			------------------------------------------------------
					1. COWBOYS FOM HELL
			------------------------------------------------------
     |-3-|                                                     
     S S S S S S S S S      S S S S S S S S S S S S S S S S  3x
E||--------------------||------------------------------------||
B||--------------------||------------------------------------||
G||--------------------||*----------------------------------*||
D||--x-x-x-------------||*----------------------------------*||
A||--x-x-x-------------||------------------------------------||
E||--x-x-x-0-0-0-0-0-0-||---0-0-0-0-0-0-0-0-0-0-0-0-0-0-0-0--||


   S S S S S S S S S S S S S  S E   3x  S S S S S S S S S  S S S Q     
------------------------------------||--------------------------------|
------------------------------------||--------------------------------|
*-------------------------------7--*||--------------------------------|
*----5---5-7-5-7-5-8-5-7-5-8h-9----*||----5---5-7-5-7-5-8p-7-5--------|
---7---7----------------------------||--7---7------------------7-L----|
------------------------------------||--------------------------------|


    S S S S S S S S S S S S S S E     S S S S S S S S S S S S S S E   
|----------------------------------|---------------------------------|
|----------------------------------|---------------------------------|
|*---------------------------------|---------------------------------|
|*---------------------------------|---------------------------------|
|-----------5---5---------------5--|----------5---5---------------5--|
|---0-3-0-3-5-3-5-3-6-3-5-3-6-7----|--0-3-0-3-5-3-5-3-6-3-5-3-6-7----|


  S S S S S S S S S S S S S S E     S S S S S S S S S S S S Q       
---------------------------------|--------------------------------||
---------------------------------|--------------------------------||
---------------------------------|-------------------------------*||
---------------------------------|-------------------------------*||
----------5---5---------------5--|----------5---5-----------------||
--0-3-0-3-5-3-5-3-6-3-5-3-6-7----|--0-3-0-3-5-3-5-3-6-5-3-0-------||


                           |--3--|       
   S S S S S S S S S S S S S  S  S E   3x
---------------------------------------||
---------------------------------------||
*-------------------------------------*||
*----------------------------------0--*||
---------------------------0h-1h-2-----||
---0-0---0---0---0---0---0-------------||


                  |--3--|    |--3--|     
  S S S S S S S S S  S  S E  S  S  S E   
----------------------------------------|
----------------------------------------|
----------------------------------------|
--------------------------0----------0--|
------------------0h-1h-2----0h-1h-2----|
--0-0---0---0---0-----------------------|


                            |--3--|     
    S S S S S S S S S S S S S  S  S E   
|--------------------------------------|
|--------------------------------------|
|*-------------------------------------|
|*----------------------------------0--|
|---------------------------0h-1h-2----|
|---0-0---0---0---0---0---0------------|


                  |--3--|     |--3--|        
  S S S S S S S S S  S  S S S S  S  S S S    
-------------------------------------------||
-------------------------------------------||
------------------------------------------*||
------------------------------------------*||
------------------0h-1p-0-----0h-1p-0------||
--0-0---0---0---0---------3-3---------3-1--||


                                                              |--3--|     
   S S S S S S S S S S S S S S S S    S S S S S S S S S S S S S  S  S E   
-----------------------------------|-------------------------------------|
-----------------------------------|-------------------------------------|
*----------------------------------|-------------------------------------|
*----------------------------------|----------------------------------0--|
-----------------------------------|--------------------------0h-1h-2----|
---0-0---0---0---0---0---0-0-0-0---|--0-0---0---0---0---0---0------------|


                                                     |--3--|     |--3--|        
  S S S S S S S S S S S S S S S S    S S S S S S S S S  S  S S S S  S  S S S    
----------------------------------|-------------------------------------------||
----------------------------------|-------------------------------------------||
----------------------------------|------------------------------------------*||
----------------------------------|------------------------------------------*||
----------------------------------|------------------0h-1p-0-----0h-1p-0------||
--0-0---0---0---0---0---0-0-0-0---|--0-0---0---0---0---------3-3---------3-1--||


  S S S S S S S S S S S S S E.     S S S S S S S S S E.  E  E   
--------------------------------|------------------------------|
--------------------------------|------------------------------|
--------------------------------|------------------------------|
--------------------------------|------------------------------|
--5-5-5-5-5-5-5-5-5-5-5-6---6---|--5-5-5-5-5-5-5-5-5-8---7--6--|
--3-3-3-3-3-3-3-3-3-3-3-4---4---|--3-3-3-3-3-3-3-3-3-6---5--4--|


  S S S S S S S S S S S S S S S S    S S S S S S S S S S S S Q     
----------------------------------|-------------------------------|
----------------------------------|-------------------------------|
----------------------------------|-------------------------------|
----------------------------------|-------------------------------|
----------------------------------|-------------------------------|
--0-0---0---0---0---0---0-0-0-0---|--0-0---0---0---0-6-5-3-0------|


  S S S S S S S S S S S S S S E     S S S S S S S S S S S S S S E   
---------------------------------|---------------------------------|
---------------------------------|---------------------------------|
---------------------------------|---------------------------------|
---------------------------------|---------------------------------|
----------5---5---------------5--|----------5---5---------------5--|
--0-3-0-3-5-3-5-3-6-3-5-3-6-7----|--0-3-0-3-5-3-5-3-6-3-5-3-6-7----|


  S S S S S S S S S S S S S S E     S S S S S S S S S S S S Q     
---------------------------------|-------------------------------|
---------------------------------|-------------------------------|
---------------------------------|-------------------------------|
---------------------------------|-------------------------------|
----------5---5---------------5--|----------5---5----------------|
--0-3-0-3-5-3-5-3-6-3-5-3-6-7----|--0-3-0-3-5-3-5-3-6-5-3-0------|


  S S S S S S S S S S S S S S E     S S S S S S S S S S S S S S E   
---------------------------------|---------------------------------|
---------------------------------|---------------------------------|
---------------------------------|---------------------------------|
---------------------------------|---------------------------------|
----------5---5---------------5--|----------5---5---------------5--|
--0-3-0-3-5-3-5-3-6-3-5-3-6-7----|--0-3-0-3-5-3-5-3-6-3-5-3-6-7----|


  S S S S S S S S S S S S S S E     S S S S S S S S S S S S Q     
---------------------------------|-------------------------------|
---------------------------------|-------------------------------|
---------------------------------|-------------------------------|
---------------------------------|-------------------------------|
----------5---5---------------5--|----------5---5----------------|
--0-3-0-3-5-3-5-3-6-3-5-3-6-7----|--0-3-0-3-5-3-5-3-6-5-3-0------|


                          |--3--|                       |--3--|    |--3--|     
  S S S S S S S S S S S S S  S  S E     S S S S S S S S S  S  S E  S  S  S E   
-------------------------------------|----------------------------------------|
-------------------------------------|----------------------------------------|
-------------------------------------|----------------------------------------|
----------------------------------0--|--------------------------0----------0--|
--------------------------0h-1h-2----|------------------0h-1h-2----0h-1h-2----|
--0-0---0---0---0---0---0------------|--0-0---0---0---0-----------------------|


                          |--3--|     
  S S S S S S S S S S S S S  S  S E   
-------------------------------------|
-------------------------------------|
-------------------------------------|
----------------------------------0--|
--------------------------0h-1h-2----|
--0-0---0---0---0---0---0------------|


                  |--3--|     |--3--|      
  S S S S S S S S S  S  S S S S  S  S S S  
------------------------------------------|
------------------------------------------|
------------------------------------------|
------------------------------------------|
------------------0h-1p-0-----0h-1p-0-----|
--0-0---0---0---0---------3-3---------3-1-|


                          |--3--|     
  S S S S S S S S S S S S S  S  S E   
-------------------------------------|
-------------------------------------|
-------------------------------------|
----------------------------------0--|
--------------------------0h-1h-2----|
--0-0---0---0---0---0---0------------|


                  |--3--|     |--3--|                                           
  S S S S S S S S S  S  S S S S  S  S S S      S S S S S S S S S S S S S S S S  
------------------------------------------||-----------------------------------|
------------------------------------------||-----------------------------------|
------------------------------------------||*----------------------------------|
------------------------------------------||*----------------------------------|
------------------0h-1p-0-----0h-1p-0-----||-----------------------------------|
--0-0---0---0---0---------3-3---------3-1-||---0-0---0---0---0---0---0-0-0-0---|


                          |--3--|                                        
  S S S S S S S S S S S S S  S  S E     S S S S S S S S S S S S S S S S  
-------------------------------------|----------------------------------|
-------------------------------------|----------------------------------|
-------------------------------------|----------------------------------|
----------------------------------0--|----------------------------------|
--------------------------0h-1h-2----|----------------------------------|
--0-0---0---0---0---0---0------------|--0-0---0---0---0---0---0-0-0-0---|


                  |--3--|     |--3--|                                         
  S S S S S S S S S  S  S S S S  S  S S S      S S S S S S S S S S S S S E.   
-------------------------------------------||--------------------------------|
-------------------------------------------||--------------------------------|
------------------------------------------*||--------------------------------|
------------------------------------------*||--------------------------------|
------------------0h-1p-0-----0h-1p-0------||--5-5-5-5-5-5-5-5-5-5-5-6---6---|
--0-0---0---0---0---------3-3---------3-1--||--3-3-3-3-3-3-3-3-3-3-3-4---4---|


  S S S S S S S S S E.  E  E     S S S S S S S S S S S S S S S S  
------------------------------|----------------------------------|
------------------------------|----------------------------------|
------------------------------|----------------------------------|
------------------------------|----------------------------------|
--5-5-5-5-5-5-5-5-5-8---7--6--|----------------------------------|
--3-3-3-3-3-3-3-3-3-6---5--4--|--0-0---0---0---0---0---0-0-0-0---|


  S S S S S S S S S  S S S Q       S S S S S S S S S S S S S S E   
--------------------------------|---------------------------------|
--------------------------------|---------------------------------|
--------------------------------|---------------------------------|
--------------------------------|---------------------------------|
------------------1p-0----------|----------5---5---------------5--|
--0-0---0---0---0------3-0------|--0-3-0-3-5-3-5-3-6-3-5-3-6-7----|


  S S S S S S S S S S S S S S E     S S S S S S S S S S S S S S E   
---------------------------------|---------------------------------|
---------------------------------|---------------------------------|
---------------------------------|---------------------------------|
---------------------------------|---------------------------------|
----------5---5---------------5--|----------5---5---------------5--|
--0-3-0-3-5-3-5-3-6-3-5-3-6-7----|--0-3-0-3-5-3-5-3-6-3-5-3-6-7----|


  S S S S S S S S S S S S Q       S S S S S S S S S S S S S S E   
-------------------------------|---------------------------------|
-------------------------------|---------------------------------|
-------------------------------|---------------------------------|
-------------------------------|---------------------------------|
----------5---5----------------|----------5---5---------------5--|
--0-3-0-3-5-3-5-3-6-5-3-0------|--0-3-0-3-5-3-5-3-6-3-5-3-6-7----|


  S S S S S S S S S S S S S S E     S S S S S S S S S S S S S S E   
---------------------------------|---------------------------------|
---------------------------------|---------------------------------|
---------------------------------|---------------------------------|
---------------------------------|---------------------------------|
----------5---5---------------5--|----------5---5---------------5--|
--0-3-0-3-5-3-5-3-6-3-5-3-6-7----|--0-3-0-3-5-3-5-3-6-3-5-3-6-7----|


  S S S S S S S S S E.  E  E     E  E  Q    H           E  E  Q    H         
------------------------------|----------------------|----------------------|
------------------------------|----------------------|----------------------|
------------------------------|----------------------|----------------------|
------------------------------|----------------------|--------5----L--------|
----------5---5-----5---4--3--|--------2----L--------|--3--3--3----L--------|
--0-3-0-3-5-3-5-3---3---2--1--|--0--0--0----L--------|----------------------|


  E  E  Q    H           E  E  Q    S E.  E  E     E  H.           E   
----------------------|-------------------------|---------------------|
----------------------|--------3----------------|---------------------|
--------2----L--------|--------2----------------|---------------------|
--------2----L--------|--------4----------------|---------------------|
--4--4--4----L--------|--5--5--5------8---7--5--|-----2------------L--|
----------------------|---------------6---5--3--|-----0------------L--|


  E  H.           E     E  H.           E     E  E  Q    S E.  E  E   
---------------------|---------------------|-------------------------|
---------------------|---------------------|-----3--L----------------|
---------------------|-----2------------L--|-----2--L----------------|
-----5------------L--|-----2------------L--|-----4--L----------------|
-----3------------L--|-----4------------L--|-----5--L------8---7--5--|
---------------------|---------------------|---------------6---5--3--|


  E  E  Q    H           E  E  Q    H           E  E  Q    H         
----------------------|----------------------|----------------------|
----------------------|----------------------|----------------------|
----------------------|----------------------|--------2----L--------|
----------------------|--------5----L--------|--------2----L--------|
--------2----L--------|--3--3--3----L--------|--4--4--4----L--------|
--0--0--0----L--------|----------------------|----------------------|


  E  E  Q    S E.  E  E     E  H.           E     E  H.           E   
-------------------------|---------------------|---------------------|
--------3----------------|---------------------|---------------------|
--------2----------------|---------------------|---------------------|
--------4----------------|---------------------|-----5------------L--|
--5--5--5------8---7--5--|-----2------------L--|-----3------------L--|
---------------6---5--3--|-----0------------L--|---------------------|


  E  H.           E     E  E  Q    S E.  E  E   
---------------------|-------------------------|
---------------------|-----3--L----------------|
-----2------------L--|-----2--L----------------|
-----2------------L--|-----4--L----------------|
-----4------------L--|-----5--L------8---7--5--|
---------------------|---------------6---5--3--|


  S  S S S S  S S S S  S   S   S E  S S  
----------------------------------------|
----------------------------------------|
----------------------------------------|
-------------------------<>5br-L-L------|
--7p-5-----7p-5-----7p-5----------------|
-------0-0------0-0-----------------0-0-|


  S  S S S S  S S S S  S   S   S E  S S  
----------------------------------------|
----------------------------------------|
----------------------------------------|
-------------------------<>7br-L-L------|
--7p-5-----7p-5-----7p-5----------------|
-------0-0------0-0-----------------0-0-|


  S  S S S S  S S S S  S   S   S E  S S  
----------------------------------------|
----------------------------------------|
----------------------------------------|
-------------------------<>5br-L-L------|
--7p-5-----7p-5-----7p-5----------------|
-------0-0------0-0-----------------0-0-|


     S     S    S    S    S    S    S   S    S   S   S   S   S   S   E   
------------------------------------------------------------------------|
------------------------------------------------------------------------|
--<>14p-<>12------<>12-<>11------<>11-<>9------<>9-<>7-----<>7-<>6------|
-------------<>14-----------<>12----------<>11---------<>9---------<>7--|
------------------------------------------------------------------------|
------------------------------------------------------------------------|


  S  S S S S  S S S S  S   S   S E  S S  
----------------------------------------|
----------------------------------------|
----------------------------------------|
-------------------------<>5br-L-L------|
--7p-5-----7p-5-----7p-5----------------|
-------0-0------0-0-----------------0-0-|


  S  S S S S  S S S S  S   S   S E  S S  
----------------------------------------|
----------------------------------------|
----------------------------------------|
-------------------------<>7br-L-L------|
--7p-5-----7p-5-----7p-5----------------|
-------0-0------0-0-----------------0-0-|


  S  S S S S  S S S S  S   S   S E  S S  
----------------------------------------|
----------------------------------------|
----------------------------------------|
-------------------------<>5br-L-L------|
--7p-5-----7p-5-----7p-5----------------|
-------0-0------0-0-----------------0-0-|


     S     S    S    S    S    S    S    S    S    S    S    S    S   S    E   
--<>17p-<>15------<>15-<>14------<>14-<>12------<>12-<>10------<>10-<>9-------|
-------------<>17-----------<>15-----------<>14-----------<>12----------<>10--|
------------------------------------------------------------------------------|
------------------------------------------------------------------------------|
------------------------------------------------------------------------------|
------------------------------------------------------------------------------|


  E  E  Q    Q.     E     W                   W                 
-----------------------|-------------------|-------------------|
--L--------------------|-------------------|-------------------|
-----------------------|-------------------|-------------------|
-------------x---------|-------------------|-------------------|
-----------------------|-------------------|-------------------|
-----------------------|-------------------|-------------------|


  H        S S S S Q         S S S S S S S S S S S S S S E   
------------------------||----------------------------------|
------------------------||----------------------------------|
------------------------||*---------------------------------|
-----------8-7-5--------||*---------------------------------|
-----------------7-L----||-----------5---5---------------5--|
------------------------||---0-3-0-3-5-3-5-3-6-3-5-3-6-7----|


  S S S S S S S S S S S S S S E     S S S S S S S S S S S S S S E   
---------------------------------|---------------------------------|
---------------------------------|---------------------------------|
---------------------------------|---------------------------------|
---------------------------------|---------------------------------|
----------5---5---------------5--|----------5---5---------------5--|
--0-3-0-3-5-3-5-3-6-3-5-3-6-7----|--0-3-0-3-5-3-5-3-6-3-5-3-6-7----|


  S S S S S S S S S S S S Q         S S S S S S S S S S S S S S E   
--------------------------------||---------------------------------|
--------------------------------||---------------------------------|
-------------------------------*||---------------------------------|
-------------------------------*||---------------------------------|
----------5---5-----------------||----------5---5---------------5--|
--0-3-0-3-5-3-5-3-6-5-3-0-------||--0-3-0-3-5-3-5-3-6-3-5-3-6-7----|


  S S S S S S S S S S S S Q       S  S S S S  S S S S  S   S   S E  S S  
-------------------------------|----------------------------------------|
-------------------------------|----------------------------------------|
-------------------------------|----------------------------------------|
-------------------------------|-------------------------<>5br-L-L------|
----------5---5----------------|--7p-5-----7p-5-----7p-5----------------|
--0-3-0-3-5-3-5-3-6-5-3-0------|-------0-0------0-0-----------------0-0-|


  S  S S S S  S S S S  S   S   S E  S S  
----------------------------------------|
----------------------------------------|
----------------------------------------|
-------------------------<>7br-L-L------|
--7p-5-----7p-5-----7p-5----------------|
-------0-0------0-0-----------------0-0-|


  S  S S S S  S S S S  S   S   S E  S S  
----------------------------------------|
----------------------------------------|
----------------------------------------|
-------------------------<>5br-L-L------|
--7p-5-----7p-5-----7p-5----------------|
-------0-0------0-0-----------------0-0-|


     S    S    S    S    S    S    S   S    S   S   S   S   S   S   E   
-----------------------------------------------------------------------|
-----------------------------------------------------------------------|
--<>14-<>12------<>12-<>11------<>11-<>9------<>9-<>7-----<>7-<>6------|
------------<>14-----------<>12----------<>11---------<>9---------<>7--|
-----------------------------------------------------------------------|
-----------------------------------------------------------------------|


  S  S S S S  S S S S  S   S   S E  S S  
----------------------------------------|
----------------------------------------|
----------------------------------------|
-------------------------<>5br-L-L------|
--7p-5-----7p-5-----7p-5----------------|
-------0-0------0-0-----------------0-0-|


  S  S S S S  S S S S  S   S   S E  S S  
----------------------------------------|
----------------------------------------|
----------------------------------------|
-------------------------<>7br-L-L------|
--7p-5-----7p-5-----7p-5----------------|
-------0-0------0-0-----------------0-0-|


  S  S S S S  S S S S  S   S   S E  S S  
----------------------------------------|
----------------------------------------|
----------------------------------------|
-------------------------<>5br-L-L------|
--7p-5-----7p-5-----7p-5----------------|
-------0-0------0-0-----------------0-0-|


     S     S    S    S    S    S    S    S    S    S    S    S    S   S    E   
--<>17p-<>15------<>15-<>14------<>14-<>12------<>12-<>10------<>10-<>9-------|
-------------<>17-----------<>15-----------<>14-----------<>12----------<>10--|
------------------------------------------------------------------------------|
------------------------------------------------------------------------------|
------------------------------------------------------------------------------|
------------------------------------------------------------------------------|


                    |--3--|           
  S S S S S S E  E  S  S  S S S S S   
------------------------------------||
------------------------------------||
------------------------------------||
----------------------------------2-||
--------------------0h-1p-0-------2-||
--0-0-0-0---0---------------3---3-0-||

						$$$$
					******************
		!!!!!!!!!!!!!!!!!!!!!!!!!!!!!!!!!!!!!!!!!!!!!!!!!!!!!!!!!!!!!!!!!!!!!!
						SOLO
		!!!!!!!!!!!!!!!!!!!!!!!!!!!!!!!!!!!!!!!!!!!!!!!!!!!!!!!!!!!!!!!!!!!!!!
					******************
						$$$$


  W                   W                   Q    Q     Q    Q     
-------------------|-------------------|-----------------------|
-------------------|-------------------|-----------------------|
-------------------|-------------------|-----------------------|
-------------------|-------------------|-----------------------|
-------------------|-------------------|-------7~----L----L----|
-------------------|-------------------|-----------------------|


  S S S S Q     H           Q     Q     Q    Q     
-------------------------|------------------------|
-------------------------|------------------------|
-------------------------|------------------------|
--8---8---8~----L--------|--L----14~----L----L----|
----7---7----------------|------------------------|
-------------------------|------------------------|


   S  S  S  S  S  S    E  Q    Q     
------------------------------------|
------------------------------------|
--15----15----15----<>15--L----L----|
-----14----14----14-----------------|
------------------------------------|
------------------------------------|


   |--3--|  |--3--|  |--3--|  |--3--|  |--3--|  |--3--|  |--3--|  |--3--|  
   S  S  S  S  S  S  S  S  S  S  S  S  S  S  S  S  S  S  S  S  S  S  S  S  
--------------------------------------------------------------------------|
--------------------------------------------------------------------------|
--------------------------------------------------------11-12-15-11-12-15-|
--------------------------------------11-12-15-11-12-15-------------------|
--------------------11-12-15-11-12-15-------------------------------------|
--11-12-15-11-12-15-------------------------------------------------------|


   |--3--|  |--3--|                            |---3---|  |---3--|          
   S  S  S  S  S  S  T  T  T   T   T  T  T  T  S   S   S  S   S  S   E  E   
--------------------11-12-15p-12p-11-12-11-12-15p-12p-11-15p-12-15br-L--L--|
--11-12-15-11-12-15--------------------------------------------------------|
---------------------------------------------------------------------------|
---------------------------------------------------------------------------|
---------------------------------------------------------------------------|
---------------------------------------------------------------------------|


  |---3---|   |---3---|  |--3--|                                                
  E   E   E   S   S   S  S  S  S  T   T   T  T  T  T  T   T   T  T  T  T  T   T 
-----12--14--17p-14p-12-14-12-14-17p-14p-12-14-12-14-17p-14p-12-14-12-14-17p-14p
--------------------------------------------------------------------------------
--------------------------------------------------------------------------------
--------------------------------------------------------------------------------
--------------------------------------------------------------------------------
--------------------------------------------------------------------------------


   |---3---|   |---3---|            |---3---|            |---3---|             |
   S   S   S   S   S   S  T  T  T   S   S   S  T  T  S   S   S   S  T  T   T   S
--12h-15h-19p-15p-12h-15-20p-L-15p-12h-15p-12-----------------------------------
----------------------------------------------20p-L-15p-12h-15p-12--------------
-------------------------------------------------------------------20-20p-15p-12
--------------------------------------------------------------------------------
--------------------------------------------------------------------------------
--------------------------------------------------------------------------------


  |---3--|   |---3--|                                                   
  S  S   S   S   S  S  Q    E  E  Q        S  S  S  S  Q     Q    Q     
---------------------------------------|-------------------------------|
---------------------------------------|-------------------------------|
---------------------------------------|--15----15----15~----L----L----|
--L-15p-12h-15p-12-14~-L----L--L--5----|-----14----14------------------|
---------------------------------------|-------------------------------|
---------------------------------------|-------------------------------|


  E   S   S Q     S  E.     E  E      E   S  S  S  S  E   Q    E   E   
-----------------15---------------|------18----18----18b--L-----------|
-----15br-L-L-------15br~---L--8--|--17-----17----17------------------|
----------------------------------|----------------------------7--14--|
----------------------------------|-----------------------------------|
----------------------------------|-----------------------------------|
----------------------------------|-----------------------------------|


   |--3--|  |--3--|  |--3--|  |--3--|  |--3--|  |--3--|  |--3--|  |--3--|  
   S  S  S  S  S  S  S  S  S  S  S  S  S  S  S  S  S  S  S  S  S  S  S  S  
--------------------------------------------------------------------------|
--12----------------12----------------12----------------12----------------|
-----15-14-12-14-15----15-14-12-14-15----15-14-12-14-15----15-14-12-14-15-|
--------------------------------------------------------------------------|
--------------------------------------------------------------------------|
--------------------------------------------------------------------------|


   E.    S  E   E   S   E.    E   E   
-----------------------------14b--L--|
--12b---12b-L------------------------|
--12b---12b-L------------------------|
---------------14--12h-14~-----------|
-------------------------------------|
-------------------------------------|


                                        |----3---|        
   S  S  S  S  S  S  S  S  S  S  S   S  S    S   S  E     
--12-14-------12-14-------12-14-----12-------------------|
--------15b-L-------15b-L-------15b----14br-14p-12-------|
---------------------------------------------------14b~--|
---------------------------------------------------------|
---------------------------------------------------------|
---------------------------------------------------------|


  Q     S  S  S  S S  S  S  X  T. S  X  T. S  T  T     Q     Q    H         
-------------15---------19-------20-------21-------|--22b----L-------------|
-------11-12----12-L-15----15-17----17-19----18-19-|-----------------------|
--L------------------------------------------------|-----------------------|
---------------------------------------------------|-----------------------|
---------------------------------------------------|-----------------------|
---------------------------------------------------|-----------------------|


			------------------------------------------------------
					2. PRIMAL CONCRETE SLEDGE
			------------------------------------------------------
     W                   W                   W                 
E||-------------------|-------------------|-------------------|
B||-------------------|-------------------|-------------------|
G||-------------------|-------------------|-------------------|
D||-------------------|-------------------|-------------------|
A||-------------------|-------------------|-------------------|
D||-------------------|-------------------|-------------------|


  W                   S S S S S S S S S S S S S S S S  
-------------------|----------------------------------|
-------------------|----------------------------------|
-------------------|----------------------------------|
-------------------|----------------------------------|
-------------------|--0-0---0-0---0-0---0-0---0-0---0-|
-------------------|--0-0---0-0---0-0---0-0---0-0---0-|


  S S S S S S S S S S S S S S S S    S S S S S S S S S S S S S S S S  
----------------------------------|----------------------------------|
----------------------------------|----------------------------------|
----------------------------------|----------------------------------|
----------------------------------|----------------------------------|
--0---0-0---0-0---0-0---0-0---0-0-|----0-0---0-0---0-0---0-0---0-0---|
--0---0-0---0-0---0-0---0-0---0-0-|----0-0---0-0---0-0---0-0---0-0---|


  S S S S S S S S S S S S Q       E  E  S E.  E.  S E  E   
-------------------------------|--------------------------|
-------------------------------|--------------------------|
-------------------------------|--------------------------|
-------------------------------|--------------------------|
--0-0---0-0---0-0---0-0--------|--0--5--L-6---3---4-L--1--|
--0-0---0-0---0-0---0-0--------|--0--5--L-6---3---4-L--1--|


  E  E  S E.  E.  S E  E     E  E  S E.  E.  S E  E     E  E  S E.  E  E  Q     
--------------------------|--------------------------|-------------------------|
--------------------------|--------------------------|-------------------------|
--------------------------|--------------------------|-------------------------|
--------------------------|--------------------------|-------------------------|
--0--7--L-6---3---4-L--1--|--0--5--L-6---3---4-L--1--|--0--7--L-6---1----------|
--0--7--L-6---3---4-L--1--|--0--5--L-6---3---4-L--1--|--0--7--L-6---1----------|


  S S S S S S S S S S S S S S S S    S S S S S S S S S S S S S S S S  
----------------------------------|----------------------------------|
----------------------------------|----------------------------------|
----------------------------------|----------------------------------|
----------------------------------|----------------------------------|
--0-0---0-0---0-0---0-0---0-0---0-|--0---0-0---0-0---0-0---0-0---0-0-|
--0-0---0-0---0-0---0-0---0-0---0-|--0---0-0---0-0---0-0---0-0---0-0-|


  S S S S S S S S S S S S S S S S    S S S S S S S S S S S S S S S S  
----------------------------------|----------------------------------|
----------------------------------|----------------------------------|
----------------------------------|----------------------------------|
----------------------------------|----------------------------------|
----0-0---0-0---0-0---0-0---0-0---|--0-0---0-0---0-0---0-0---0-0---0-|
----0-0---0-0---0-0---0-0---0-0---|--0-0---0-0---0-0---0-0---0-0---0-|


  S S S S S S S S S S S S S S S S    S S S S S S S S S S S S S S S S  
----------------------------------|----------------------------------|
----------------------------------|----------------------------------|
----------------------------------|----------------------------------|
----------------------------------|----------------------------------|
--0---0-0---0-0---0-0---0-0---0-0-|----0-0---0-0---0-0---0-0---0-0---|
--0---0-0---0-0---0-0---0-0---0-0-|----0-0---0-0---0-0---0-0---0-0---|


  S S S S S S S S S S S S S S S S    S S S S S S S S S S S S Q     
----------------------------------|-------------------------------|
----------------------------------|-------------------------------|
----------------------------------|-------------------------------|
----------------------------------|-------------------------------|
--0-0---0-0---0-0---0-0---0-0---0-|--0---0-0---0-0---0-0---0-L----|
--0-0---0-0---0-0---0-0---0-0---0-|--0---0-0---0-0---0-0---0-L----|


  E  E  S E.  E.  S E  E     E  E  S E.  E.  S E  E   
--------------------------|--------------------------|
--------------------------|--------------------------|
--------------------------|--------------------------|
--------------------------|--------------------------|
--0--5--L-6---3---4-L--1--|--0--7--L-6---3---4-L--1--|
--0--5--L-6---3---4-L--1--|--0--7--L-6---3---4-L--1--|


  E  E  S E.  E.  S E  E     E  E  S E.  E.  S E  E  E     E  E  Q     
--------------------------|-----------------------------|-------------|
--------------------------|-----------------------------|-------------|
--------------------------|-----------------------------|-------------|
--------------------------|-----------------------------|-------------|
--0--5--L-6---3---4-L--1--|--0--7--L-6---5---4-L--3--2--|--1----------|
--0--5--L-6---3---4-L--1--|--0--7--L-6---5---4-L--3--2--|--1----------|


  S S S S S S S S S S S S S S S S    S S S S S S S S S S S S S S S S  
----------------------------------|----------------------------------|
----------------------------------|----------------------------------|
----------------------------------|----------------------------------|
----------------------------------|----------------------------------|
--0-0---0-0---0-0---0-0---0-0---0-|--0---0-0---0-0---0-0---0-0---0-0-|
--0-0---0-0---0-0---0-0---0-0---0-|--0---0-0---0-0---0-0---0-0---0-0-|


  S S S S S S S S S S S S S S S S    S S S S S S S S S S S S S S S S  
----------------------------------|----------------------------------|
----------------------------------|----------------------------------|
----------------------------------|----------------------------------|
----------------------------------|----------------------------------|
----0-0---0-0---0-0---0-0---0-0---|--0-0---0-0---0-0---0-0---0-0---0-|
----0-0---0-0---0-0---0-0---0-0---|--0-0---0-0---0-0---0-0---0-0---0-|


  S S S S S S S S S S S S S S S S    S S S S S S S S S S S S S S S S  
----------------------------------|----------------------------------|
----------------------------------|----------------------------------|
----------------------------------|----------------------------------|
----------------------------------|----------------------------------|
--0---0-0---0-0---0-0---0-0---0-0-|----0-0---0-0---0-0---0-0---0-0---|
--0---0-0---0-0---0-0---0-0---0-0-|----0-0---0-0---0-0---0-0---0-0---|


  S S S S S S S S S S S S S S S S    S S S S S S S S S S S S Q     
----------------------------------|-------------------------------|
----------------------------------|-------------------------------|
----------------------------------|-------------------------------|
----------------------------------|-------------------------------|
--0-0---0-0---0-0---0-0---0-0---0-|--0---0-0---0-0---0-0---0-L----|
--0-0---0-0---0-0---0-0---0-0---0-|--0---0-0---0-0---0-0---0-L----|


  E  E  S E.  E.  S E  E     E  E  S E.  E.  S E  E   
--------------------------|--------------------------|
--------------------------|--------------------------|
--------------------------|--------------------------|
--------------------------|--------------------------|
--0--5--L-6---3---4-L--1--|--0--7--L-6---3---4-L--1--|
--0--5--L-6---3---4-L--1--|--0--7--L-6---3---4-L--1--|


  E  E  S E.  E.  S E  E     E  E  S E.  E.  S E  E  E     E  E  Q     
--------------------------|-----------------------------|-------------|
--------------------------|-----------------------------|-------------|
--------------------------|-----------------------------|-------------|
--------------------------|-----------------------------|-------------|
--0--5--L-6---3---4-L--1--|--0--7--L-6---5---4-L--3--2--|--1----------|
--0--5--L-6---3---4-L--1--|--0--7--L-6---5---4-L--3--2--|--1----------|


  S S S S S T T S S E  S S E  S S    S  T  T S S S  T  T S S E  S S E  S S  
----------------------------------|----------------------------------------|
----------------------------------|----------------------------------------|
----------------------------------|----------------------------------------|
--4-5-3-4-L-5-4---4---------------|--5h-6p-5-4-5-4h-5p-4---4---------------|
----------------6-----------------|----------------------6-----------------|
--------------------0--0-0-0--0-0-|--------------------------0--0-0-0--0-0-|


  S  T  T S S S  T  T S S E  S S E  S S  
----------------------------------------|
----------------------------------------|
----------------------------------------|
--4h-5p-4---4-4h-5p-4---4---------------|
----------6-----------6-----------------|
--------------------------0--0-0-0--0-0-|


  S  T  T S S  T  T S S  T  T S S  T  T S S  T  T E   
-----------------------------------------------------|
-----------------------------------------------------|
-----------------------------------------------------|
--5h-6p-5-4-5h-6p-5-4-5h-6p-5-4-5h-6p-5-4-6h-7p-6-5--|
-----------------------------------------------------|
-----------------------------------------------------|


  S S S S S T T S S E  S S E  S S    S  T  T S S S  T  T S S E  S S E  S S  
----------------------------------|----------------------------------------|
----------------------------------|----------------------------------------|
----------------------------------|----------------------------------------|
--4-5-3-4-L-5-4---4---------------|--5h-6p-5-4-5-4h-5p-4---4---------------|
----------------6-----------------|----------------------6-----------------|
--------------------0--0-0-0--0-0-|--------------------------0--0-0-0--0-0-|


  S  T  T S S S  T  T S S E  S S E  S S  
----------------------------------------|
----------------------------------------|
----------------------------------------|
--4h-5p-4---4-4h-5p-4---4---------------|
----------6-----------6-----------------|
--------------------------0--0-0-0--0-0-|


  S  T  T S S  T  T S S  T  T S S  T  T S S  T  T E   
-----------------------------------------------------|
-----------------------------------------------------|
-----------------------------------------------------|
--5h-6p-5-4-5h-6p-5-4-5h-6p-5-4-5h-6p-5-4-6h-7p-6-5--|
-----------------------------------------------------|
-----------------------------------------------------|


  E  E  E  E  E  E  E  E     E  E  E  E  E  E  E  E   
--------------------------|--------------------------|
--------------------------|--------------------------|
--------------------------|--------------------------|
--------------------------|--------------------------|
--5-----5--6-----5--------|--5-----5-----5-----------|
--0--0--0--0--0--0--0--0--|--0--0--0--0--0--0--0--0--|


  E  E  E  E  E  E  E  E     E  E  Q    E  E  E  E   
--------------------------|-------------------------|
--------------------------|-------------------------|
--------------------------|-------------------------|
--------------------------|-------------------------|
--5-----5--6-----5--------|-----1-------1-----1-----|
--0--0--0--0--0--0--0--0--|--0--1-------1-----1-----|


  E  E  E  S S E  E  E  E     E  E  E  S S E  E  E  E   
---------------------------|---------------------------|
---------------------------|---------------------------|
---------------------------|---------------------------|
---------------------------|---------------------------|
--0-----0--0-0----0--------|--0-----0--0-0----0--------|
--0--0--0--0-0-0--0--0--0--|--0--0--0--0-0-0--0--0--0--|


  E  E  E  S S E  E  E  E     E  S S E  S S E  S S E  S S  
---------------------------|------------------------------|
---------------------------|------------------------------|
---------------------------|------------------------------|
---------------------------|------------------------------|
--0-----0--0-0----0--------|-----1-1-1--1-1-1--1-1-1--1-1-|
--0--0--0--0-0-0--0--0--0--|--0--1-1-1--1-1-1--1-1-1--1-1-|


  E  E  E  S S E  E  E  E     E  E  E  S S E  E  E  E   
---------------------------|---------------------------|
---------------------------|---------------------------|
---------------------------|---------------------------|
---------------------------|---------------------------|
--0-----0--0-0----0--------|--0-----0--0-0----0--------|
--0--0--0--0-0-0--0--0--0--|--0--0--0--0-0-0--0--0--0--|


  E  E  E  S S E  E  E  E     E  S S E  S S E  S S E  S S    W                 
---------------------------|------------------------------|-------------------|
---------------------------|------------------------------|-------------------|
---------------------------|------------------------------|-------------------|
---------------------------|------------------------------|-------------------|
--0-----0--0-0----0--------|-----1-1-1--1-1-1--1-1-1--1-1-|--0----------------|
--0--0--0--0-0-0--0--0--0--|--0--1-1-1--1-1-1--1-1-1--1-1-|--0----------------|


  W                   E  E  E  E  E  E  E  E     E  E  S E.  E.  S E  E   
-------------------|--------------------------|--------------------------|
-------------------|--------------------------|--------------------------|
-------------------|--------------------------|--------------------------|
-------------------|--------------------------|--------------------------|
--L----------------|--0--1--1--1--1--1--1--1--|--1--1--L-3---4---5-L--6--|
--L----------------|--0--1--1--1--1--1--1--1--|--1--1--L-3---4---5-L--6--|


  S E.  E.  S E  E  E     S S S S S S S S S S S S S S S S  
-----------------------|----------------------------------|
-----------------------|----------------------------------|
-----------------------|----------------------------------|
-----------------------|----------------------------------|
--L-7---6---5-L--3--1--|--0-0---0-0---0-0---0-0---0-0---0-|
--L-7---6---5-L--3--1--|--0-0---0-0---0-0---0-0---0-0---0-|


  S S S S S S S S S S S S S S S S    S S S S S S S S S S S S S S S S  
----------------------------------|----------------------------------|
----------------------------------|----------------------------------|
----------------------------------|----------------------------------|
----------------------------------|----------------------------------|
--0---0-0---0-0---0-0---0-0---0-0-|----0-0---0-0---0-0---0-0---0-0---|
--0---0-0---0-0---0-0---0-0---0-0-|----0-0---0-0---0-0---0-0---0-0---|


  W                   E  E  S E.  E.  S E  E     E  E  S E.  E.  S E  E   
-------------------|--------------------------|--------------------------|
-------------------|--------------------------|--------------------------|
-------------------|--------------------------|--------------------------|
-------------------|--------------------------|--------------------------|
--0----------------|--0--5--L-6---3---4-L--1--|--0--7--L-6---3---4-L--1--|
--0----------------|--0--5--L-6---3---4-L--1--|--0--7--L-6---3---4-L--1--|


  E  E  S E.  E.  S E  E     E  E  S E.  E.  S E  E  E   
--------------------------|-----------------------------|
--------------------------|-----------------------------|
--------------------------|-----------------------------|
--------------------------|-----------------------------|
--0--5--L-6---3---4-L--1--|--0--7--L-6---5---4-L--3--1--|
--0--5--L-6---3---4-L--1--|--0--7--L-6---5---4-L--3--1--|


  E  E  S E.  E.  S E  E     E  E  S E.  E.  S E  E   
--------------------------|--------------------------|
--------------------------|--------------------------|
--------------------------|--------------------------|
--------------------------|--------------------------|
--0--5--L-6---3---4-L--1--|--0--7--L-6---3---4-L--1--|
--0--5--L-6---3---4-L--1--|--0--7--L-6---3---4-L--1--|


  E  E  S E.  E.  S E  E     E  E  S E.  E.  S E  E  E   
--------------------------|-----------------------------|
--------------------------|-----------------------------|
--------------------------|-----------------------------|
--------------------------|-----------------------------|
--0--5--L-6---3---4-L--1--|--0--7--L-6---5---4-L--3--2--|
--0--5--L-6---3---4-L--1--|--0--7--L-6---5---4-L--3--2--|


  E  E  Q    H          
----------------------||
----------------------||
----------------------||
----------------------||
--1-------------------||
--1-------------------||


			------------------------------------------------------
					3. PSYCHO HOLIDAY
			------------------------------------------------------

                         |-3-|             |-3-|              
     W                   S S S S S S S S S S S S S S S S S S  
E||-------------------|--------------------------------------|
B||-------------------|--------------------------------------|
G||-------------------|--------------------------------------|
D||-------------------|--------------------------------------|
A||-------------------|--------------------------------------|
E||-------------------|--2-2-2-2-2-2-2-2-2-2-2-2-2-2-2-2-2-2-|


  |-3-|             |-3-|                |-3-|             |-3-|              
  S S S S S S S S S S S S S S S S S S    S S S S S S S S S S S S S S S S S S  
--------------------------------------|--------------------------------------|
--------------------------------------|--------------------------------------|
--------------------------------------|--------------------------------------|
--------------------------------------|--------------------------------------|
--------------------------------------|--------------------------------------|
--2-2-2-2-2-2-2-2-2-2-2-2-2-2-2-2-2-2-|--2-2-2-2-2-2-2-2-2-2-2-2-2-2-2-2-2-2-|


  |-3-|             |-3-|                |-3-|                      
  S S S S S S S S S S S S S S S S S S    S S S S S S S E  H         
--------------------------------------|----------------------------|
--------------------------------------|----------------------------|
--------------------------------------|----------------3--L--------|
--------------------------------------|----------------3--L--------|
--------------------------------------|----------------------------|
--2-2-2-2-2-2-2-2-2-2-2-2-2-2-2-2-2-2-|--4-4-4-4-4-4-4-------------|


  |-3-|                        |-3-|                      
  S S S S S S S E  H           S S S S S S S E  H         
----------------------------|----------------------------|
----------------------------|----------------------------|
----------------2--L--------|----------------1--L--------|
----------------2--L--------|----------------1--L--------|
----------------------------|----------------------------|
--4-4-4-4-4-4-4-------------|--4-4-4-4-4-4-4-------------|


  |-3-|                        |-3-|                      
  S S S S S S S E  H           S S S S S S S E  H         
----------------------------|----------------------------|
----------------------------|----------------------------|
----------------0--L--------|----------------3--L--------|
----------------0--L--------|----------------3--L--------|
----------------------------|----------------------------|
--4-4-4-4-4-4-4-------------|--4-4-4-4-4-4-4-------------|


  |-3-|                        |-3-|                      
  S S S S S S S E  H           S S S S S S S E  H         
----------------------------|----------------------------|
----------------------------|----------------------------|
----------------2--L--------|----------------1--L--------|
----------------2--L--------|----------------1--L--------|
----------------------------|----------------------------|
--4-4-4-4-4-4-4-------------|--4-4-4-4-4-4-4-------------|


    NH                                                         
                         |-6-| |-6-|       |-6-| |-6-|         
    H.           Q       S S S S S S S E.  S S S S S S S S E   
----------------------|---------------------------------------|
----------------------|---------------------------------------|
--<>5-----------------|------------------------------------7--|
----------------------|--6-4---------------6-4-------------7--|
----------------------|------6-5-4-5-----------6-5-4-5--------|
----------------------|--------------7-4---------------7-4----|


  |-6-| |-6-|       |-6-| |-6-|           |-6-| |-6-|       |-6-| |-6-|         
  S S S S S S S E.  S S S S S S S S E     S S S S S S S E.  S S S S S S S S E   
---------------------------------------|---------------------------------------|
---------------------------------------|---------------------------------------|
------------------------------------7--|------------------------------------7--|
--6-4---------------6-4-------------7--|--6-4---------------6-4-------------7--|
------6-5-4-5-----------6-5-4-5--------|------6-5-4-5-----------6-5-4-5--------|
--------------7-4---------------7-4----|--------------7-4---------------7-4----|


  |-6-| |-6-|       |-6-| |-6-|                                
  S S S S S S S E.  S S S S S S S S E  E     W                 
------------------------------------------|-------------------|
------------------------------------------|-------------------|
------------------------------------7-----|-------------------|
--6-4---------------6-4-------------7-----|-------------------|
------6-5-4-5-----------6-5-4-5-----------|-------------------|
--------------7-4---------------7-4-------|-------------------|


  |-3-|             |-3-|                |-3-|             |-3-|              
  S S S S S S S S S S S S S S S S S S    S S S S S S S S S S S S S S S S S S  
--------------------------------------|--------------------------------------|
--------------------------------------|--------------------------------------|
--------------------------------------|--------------------------------------|
--------------------------------------|--------------------------------------|
--------------------------------------|--------------------------------------|
--0-0-0-0-0-0-0-0-0-0-0-0-0-0-0-0-0-0-|--0-0-0-0-0-0-0-0-0-0-0-0-0-0-0-0-0-0-|


  |-3-|             |-3-|                |-3-|             |-3-|              
  S S S S S S S S S S S S S S S S S S    S S S S S S S S S S S S S S S S S S  
--------------------------------------|--------------------------------------|
--------------------------------------|--------------------------------------|
--------------------------------------|--------------------------------------|
--------------------------------------|--------------------------------------|
--------------------------------------|--------------------------------------|
--0-0-0-0-0-0-0-0-0-0-0-0-0-0-0-0-0-0-|--0-0-0-0-0-0-0-0-0-0-0-0-0-0-0-0-0-0-|


  |-3-|             |-3-|                |-3-|             |-3-|              
  S S S S S S S S S S S S S S S S S S    S S S S S S S S S S S S S S S S S S  
--------------------------------------|--------------------------------------|
--------------------------------------|--------------------------------------|
--------------------------------------|--------------------------------------|
--------------------------------------|--------------------------------------|
--------------------------------------|--------------------------------------|
--0-0-0-0-0-0-0-0-0-0-0-0-0-0-0-0-0-0-|--0-0-0-0-0-0-0-0-0-0-0-0-0-0-0-0-0-0-|


  |-3-|             |-3-|                |-3-|             |-3-|              
  S S S S S S S S S S S S S S S S S S    S S S S S S S S S S S S S S S S S S  
--------------------------------------|--------------------------------------|
--------------------------------------|--------------------------------------|
--------------------------------------|--------------------------------------|
--------------------------------------|--------------------------------------|
--------------------------------------|--------------------------------------|
--0-0-0-0-0-0-0-0-0-0-0-0-0-0-0-0-0-0-|--0-0-0-0-0-0-0-0-0-0-0-0-0-0-0-0-0-0-|


  |-6-| |-6-|       |-6-| |-6-|           |-3-|             |-3-|              
  S S S S S S S E.  S S S S S S S S E     S S S S S S S S S S S S S S S S S S  
---------------------------------------|--------------------------------------|
---------------------------------------|--------------------------------------|
------------------------------------7--|--------------------------------------|
--6-4---------------6-4-------------7--|--------------------------------------|
------6-5-4-5-----------6-5-4-5--------|--------------------------------------|
--------------7-4---------------7-4----|--0-0-0-0-0-0-0-0-0-0-0-0-0-0-0-0-0-0-|


  |-3-|             |-3-|                |-6-| |-6-|       |-6-| |-6-|         
  S S S S S S S S S S S S S S S S S S    S S S S S S S E.  S S S S S S S S E   
--------------------------------------|---------------------------------------|
--------------------------------------|---------------------------------------|
--------------------------------------|------------------------------------7--|
--------------------------------------|--6-4---------------6-4-------------7--|
--------------------------------------|------6-5-4-5-----------6-5-4-5--------|
--0-0-0-0-0-0-0-0-0-0-0-0-0-0-0-0-0-0-|--------------7-4---------------7-4----|


  |-6-| |-6-|       |-6-| |-6-|           |-6-| |-6-|       |-6-| |-6-|         
  S S S S S S S E.  S S S S S S S S E     S S S S S S S E.  S S S S S S S S E   
---------------------------------------|---------------------------------------|
---------------------------------------|---------------------------------------|
------------------------------------7--|------------------------------------7--|
--6-4---------------6-4-------------7--|--6-4---------------6-4-------------7--|
------6-5-4-5-----------6-5-4-5--------|------6-5-4-5-----------6-5-4-5--------|
--------------7-4---------------7-4----|--------------7-4---------------7-4----|


  |-6-| |-6-|          |--3--|  |--3--|                                  
  S S S S S S S E.     E  E  E  E  E  E  E  E  Q       W                 
--------------------|-------------------------------|-------------------|
--------------------|-------------------------------|-------------------|
--------------------|--------7--------7--7----------|--3----------------|
--6-4---------------|--------7--------7--7----------|--3----------------|
------6-5-4-5-------|-------------------------------|-------------------|
--------------7-4---|--0--0-----0--0----------------|-------------------|


  W                   W                   W                   W                 
-------------------|-------------------|-------------------|-------------------|
-------------------|-------------------|-------------------|-------------------|
--2----------------|--1----------------|--0----------------|--3----------------|
--2----------------|--1----------------|--0----------------|--3----------------|
-------------------|-------------------|-------------------|-------------------|
-------------------|-------------------|-------------------|-------------------|


  W                   W                     W                    
-------------------|-------------------|--<>6pbr----------------|
-------------------|-------------------|------------------------|
--2----------------|--1----------------|------------------------|
--2----------------|--1----------------|------------------------|
-------------------|-------------------|------------------------|
-------------------|-------------------|------------------------|


  |-3-|             |-3-|                |-3-|             |-3-|              
  S S S S S S S S S S S S S S S S S S    S S S S S S S S S S S S S S S S S S  
--------------------------------------|--------------------------------------|
--------------------------------------|--------------------------------------|
--------------------------------------|--------------------------------------|
--------------------------------------|--------------------------------------|
--------------------------------------|--------------------------------------|
--0-0-0-0-0-0-0-0-0-0-0-0-0-0-0-0-0-0-|--0-0-0-0-0-0-0-0-0-0-0-0-0-0-0-0-0-0-|


  |-3-|             |-3-|                |-3-|             |-3-|              
  S S S S S S S S S S S S S S S S S S    S S S S S S S S S S S S S S S S S S  
--------------------------------------|--------------------------------------|
--------------------------------------|--------------------------------------|
--------------------------------------|--------------------------------------|
--------------------------------------|--------------------------------------|
--------------------------------------|--------------------------------------|
--0-0-0-0-0-0-0-0-0-0-0-0-0-0-0-0-0-0-|--0-0-0-0-0-0-0-0-0-0-0-0-0-0-0-0-0-0-|


  |-3-|             |-3-|                |-3-|             |-3-|              
  S S S S S S S S S S S S S S S S S S    S S S S S S S S S S S S S S S S S S  
--------------------------------------|--------------------------------------|
--------------------------------------|--------------------------------------|
--------------------------------------|--------------------------------------|
--------------------------------------|--------------------------------------|
--------------------------------------|--------------------------------------|
--0-0-0-0-0-0-0-0-0-0-0-0-0-0-0-0-0-0-|--0-0-0-0-0-0-0-0-0-0-0-0-0-0-0-0-0-0-|


  |-3-|             |-3-|                |-3-|             |-3-|              
  S S S S S S S S S S S S S S S S S S    S S S S S S S S S S S S S S S S S S  
--------------------------------------|--------------------------------------|
--------------------------------------|--------------------------------------|
--------------------------------------|--------------------------------------|
--------------------------------------|--------------------------------------|
--------------------------------------|--------------------------------------|
--0-0-0-0-0-0-0-0-0-0-0-0-0-0-0-0-0-0-|--0-0-0-0-0-0-0-0-0-0-0-0-0-0-0-0-0-0-|


  |-6-| |-6-|       |-6-| |-6-|           |-3-|             |-3-|              
  S S S S S S S E.  S S S S S S S S E     S S S S S S S S S S S S S S S S S S  
---------------------------------------|--------------------------------------|
---------------------------------------|--------------------------------------|
------------------------------------7--|--------------------------------------|
--6-4---------------6-4-------------7--|--------------------------------------|
------6-5-4-5-----------6-5-4-5--------|--------------------------------------|
--------------7-4---------------7-4----|--0-0-0-0-0-0-0-0-0-0-0-0-0-0-0-0-0-0-|


  |-3-|             |-3-|                |-6-| |-6-|       |-6-| |-6-|         
  S S S S S S S S S S S S S S S S S S    S S S S S S S E.  S S S S S S S S E   
--------------------------------------|---------------------------------------|
--------------------------------------|---------------------------------------|
--------------------------------------|------------------------------------7--|
--------------------------------------|--6-4---------------6-4-------------7--|
--------------------------------------|------6-5-4-5-----------6-5-4-5--------|
--0-0-0-0-0-0-0-0-0-0-0-0-0-0-0-0-0-0-|--------------7-4---------------7-4----|


  |-6-| |-6-|       |-6-| |-6-|           |-6-| |-6-|       |-6-| |-6-|         
  S S S S S S S E.  S S S S S S S S E     S S S S S S S E.  S S S S S S S S E   
---------------------------------------|---------------------------------------|
---------------------------------------|---------------------------------------|
------------------------------------7--|------------------------------------7--|
--6-4---------------6-4-------------7--|--6-4---------------6-4-------------7--|
------6-5-4-5-----------6-5-4-5--------|------6-5-4-5-----------6-5-4-5--------|
--------------7-4---------------7-4----|--------------7-4---------------7-4----|


  |-6-| |-6-|          |--3--|  |--3--|                                  
  S S S S S S S E.     E  E  E  E  E  E  E  E  Q       W                 
--------------------|-------------------------------|-------------------|
--------------------|-------------------------------|-------------------|
--------------------|--------7--------7--7----------|--3----------------|
--6-4---------------|--------7--------7--7----------|--3----------------|
------6-5-4-5-------|-------------------------------|-------------------|
--------------7-4---|--0--0-----0--0----------------|-------------------|


  W                   W                   W                   W                 
-------------------|-------------------|-------------------|-------------------|
-------------------|-------------------|-------------------|-------------------|
--2----------------|--1----------------|--0----------------|--3----------------|
--2----------------|--1----------------|--0----------------|--3----------------|
-------------------|-------------------|-------------------|-------------------|
-------------------|-------------------|-------------------|-------------------|


                                          |-6-| |-6-|                 
  W                   W                   S S S S S S E  E  H         
-------------------|-------------------|-----------------------------|
-------------------|-------------------|-----------------------------|
--2----------------|--1----------------|-----------------------------|
--2----------------|--1----------------|--6-4------------------------|
-------------------|-------------------|------6-5-4------------------|
-------------------|-------------------|------------7-4--------------|


  S  S S S   Q     S  S S S   Q        S  S S S   Q     S   E.   E  E   
---------0----------------0---------|---------0-3g3b------5g5b---L-----|
-------0---3g3b---------0---2g2b----|-------0--------------------------|
--0h-1-------------0h-1-------------|--0h-1----------------------------|
------------------------------------|----------------------------------|
------------------------------------|----------------------------------|
------------------------------------|----------------------------------|


   S   S  S  S     Q      S   S  S  S     Q      
------------12---------------------12-----------|
---------12----15g15b-----------12----14g14b----|
--12h-13-----------------12h-13-----------------|
------------------------------------------------|
------------------------------------------------|
------------------------------------------------|


   S   S  S  S     Q     E   S  S Q     
------------12-15g15b-------15---------|
---------12--------------------14-L----|
--12h-13-------------------------------|
---------------------------------------|
---------------------------------------|
---------------------------------------|


   |--6--|  |--6--|  |--6--|  |--6--|  |--6--|  |--6--|  |--6--|  |--6--|  
   S  S  S  S  S  S  S  S  S  S  S  S  S  S  S  S  S  S  S  S  S  S  S  S  
--------------------------------------------------------15-17----15-17----|
--------------------15-17----15-17----15-17-18-15-17-18-------18-------18-|
--15-17-18-15-17-18-------18-------18-------------------------------------|
--------------------------------------------------------------------------|
--------------------------------------------------------------------------|
--------------------------------------------------------------------------|


   7  7  7  7  7  7  7                       |-----7-----|  7  7         
   S  S  S  S  S  S  S  T  T  T  T  S  T  T  S  S  S  S  S  S  S S E  S  
--15-17-18-17-17-18-17-18-17-18-17-15-15-17-18-17-15----15-19b-L-L-x--x-|
-----------------------------------------------------18------------x--x-|
-------------------------------------------------------------------x--x-|
-------------------------------------------------------------------x--x-|
-------------------------------------------------------------------x--x-|
-------------------------------------------------------------------x--x-|


            |--6--|  |--6--|  |-----7-----|  |-----7-----|  7  7  7  7  
  E   S  S  S  S  S  S  S  S  S  S  S  S  S  S  S  S  S  S  S  S  S  S  
--x-----18-22-18----17-------------------18-22-18----------------------|
--x--20----------20----20-18----18----20----------20-20-18-18----18----|
--x--------------------------19----19-------------------------19----19-|
--x--------------------------------------------------------------------|
--x--------------------------------------------------------------------|
--x--------------------------------------------------------------------|


                           |-----7-----|  7  7 --- |--6--|  6  6         
   T  T  T  T  T  T  T  T  S  S  S  S  S  S  S  S  S  S  S  S  S  Q      
------------------------------------------------------------------------|
-----18----20-18----18-22----18----18-----------------------------------|
--18----18-------19-------19----18----18----18----18--------------------|
-----------------------------------------20----18----18----17----17~----|
--------------------------------------------------------20----20--------|
------------------------------------------------------------------------|


   S   S  S  S     Q      S   S  S  S     Q      
------------12---------------------12-----------|
---------12----15g15b-----------12----14g14b----|
--12h-13-----------------12h-13-----------------|
------------------------------------------------|
------------------------------------------------|
------------------------------------------------|


   S   S  S  S     Q     E   Q       E   
------------12-15g15b-------17b~--------|
---------12-------------------------17--|
--12h-13--------------------------------|
----------------------------------------|
----------------------------------------|
----------------------------------------|


   |--6--|  |--6--|  |--6--|  |--6--|  |-----7-----|  7  7 --- |--6--|  6  6  
   S  S  S  S  S  S  S  S  S  S  S  S  S  S  S  S  S  S  S  S  S  S  S  S  S  
-----19-------18----22-17-------17-------19-------18-------17-------18-------|
--20----19-20----20-------19-20----19-20----19-20----19-20----19-20----19-20-|
-----------------------------------------------------------------------------|
-----------------------------------------------------------------------------|
-----------------------------------------------------------------------------|
-----------------------------------------------------------------------------|


   |--6--|  |--6--|  |--6--|  |--6--|            
   S  S  S  S  S  S  S  S  S  S  S  S  Q.        
--19-------18-------17-------18-------18b~------|
-----19-20----19-20----19-------19--------------|
--------------------------19-------19-----------|
------------------------------------------------|
------------------------------------------------|
------------------------------------------------|


         |--3--|  |-----7-----|  |-----7-----|  7  7  7  7                      
   S  S  S  S  S  S  S  S  S  S  S  S  S  S  S  S  S  S  S  T  T  T  T  T  T  T 
--15-17-18-17-18-17-18-17-15-17-15----------15-17-15-17-15----------------------
-----------------------------------18-18-17----------------18-18-17-15-17-15-14-
--------------------------------------------------------------------------------
--------------------------------------------------------------------------------
--------------------------------------------------------------------------------
--------------------------------------------------------------------------------


                           |--3--|           |------3-----|        
   T  T  T  T  T  T  T  T  S  S  S  S   S    Q    Q       Q        
------------------------------------------------------------------|
--16-15-14-15-18-17-15-14-15-14-------<>6pbr-L--------------------|
--------------------------------17-16-------------6pbr----6pbr----|
------------------------------------------------------------------|
------------------------------------------------------------------|
------------------------------------------------------------------|


   H             H               E   Q.       H             
--13pbr~--------13pbr~--------|----------------------------|
------------------------------|-----11b------11pbr~--------|
------------------------------|----------------------------|
------------------------------|----------------------------|
------------------------------|----------------------------|
------------------------------|----------------------------|


                    |-----3----|    
  E   Q.      Q     E   E      E    
-------------------17--20----------|
-----20b------L------------20g20b--|
-----------------------------------|
-----------------------------------|
-----------------------------------|
-----------------------------------|


   |-----3----|    |---3---|   |---3---|                                      
   E   E      E    E   E   E   E   E   E   Q        E   Q.      Q    E   E    
--17--18----------17-----------------------------|----------------------24b--|
----------20g20b------19--20--17-----------------|-----22b------L------------|
----------------------------------18-------------|---------------------------|
--------------------------------------19---------|---------------------------|
-------------------------------------------------|---------------------------|
------------------------------------------17~----|---------------------------|


                           |-3-|             |-3-|              
  H         H              S S S S S S S S S S S S S S S S S S  
--L--------24pbr--------|--------------------------------------|
------------------------|--------------------------------------|
------------------------|--------------------------------------|
------------------------|--------------------------------------|
------------------------|--------------------------------------|
------------------------|--0-0-0-0-0-0-0-0-0-0-0-0-0-0-0-0-0-0-|


  |-3-|             |-3-|                |-3-|             |-3-|              
  S S S S S S S S S S S S S S S S S S    S S S S S S S S S S S S S S S S S S  
--------------------------------------|--------------------------------------|
--------------------------------------|--------------------------------------|
--------------------------------------|--------------------------------------|
--------------------------------------|--------------------------------------|
--------------------------------------|--------------------------------------|
--0-0-0-0-0-0-0-0-0-0-0-0-0-0-0-0-0-0-|--0-0-0-0-0-0-0-0-0-0-0-0-0-0-0-0-0-0-|


  |-3-|             |-3-|                |-3-|             |-3-|              
  S S S S S S S S S S S S S S S S S S    S S S S S S S S S S S S S S S S S S  
--------------------------------------|--------------------------------------|
--------------------------------------|--------------------------------------|
--------------------------------------|--------------------------------------|
--------------------------------------|--------------------------------------|
--------------------------------------|--------------------------------------|
--0-0-0-0-0-0-0-0-0-0-0-0-0-0-0-0-0-0-|--0-0-0-0-0-0-0-0-0-0-0-0-0-0-0-0-0-0-|


  |-3-|             |-3-|                |-3-|             |-3-|              
  S S S S S S S S S S S S S S S S S S    S S S S S S S S S S S S S S S S S S  
--------------------------------------|--------------------------------------|
--------------------------------------|--------------------------------------|
--------------------------------------|--------------------------------------|
--------------------------------------|--------------------------------------|
--------------------------------------|--------------------------------------|
--0-0-0-0-0-0-0-0-0-0-0-0-0-0-0-0-0-0-|--0-0-0-0-0-0-0-0-0-0-0-0-0-0-0-0-0-0-|


  |-3-|             |-3-|                |-6-| |-6-|       |-6-| |-6-|         
  S S S S S S S S S S S S S S S S S S    S S S S S S S E.  S S S S S S S S E   
--------------------------------------|---------------------------------------|
--------------------------------------|---------------------------------------|
--------------------------------------|------------------------------------7--|
--------------------------------------|--6-4---------------6-4-------------7--|
--------------------------------------|------6-5-4-5-----------6-5-4-5--------|
--0-0-0-0-0-0-0-0-0-0-0-0-0-0-0-0-0-0-|--------------7-4---------------7-4----|


  |-3-|             |-3-|                |-3-|             |-3-|              
  S S S S S S S S S S S S S S S S S S    S S S S S S S S S S S S S S S S S S  
--------------------------------------|--------------------------------------|
--------------------------------------|--------------------------------------|
--------------------------------------|--------------------------------------|
--------------------------------------|--------------------------------------|
--------------------------------------|--------------------------------------|
--0-0-0-0-0-0-0-0-0-0-0-0-0-0-0-0-0-0-|--0-0-0-0-0-0-0-0-0-0-0-0-0-0-0-0-0-0-|


  |-6-| |-6-|       |-6-| |-6-|           |-6-| |-6-|       |-6-| |-6-|         
  S S S S S S S E.  S S S S S S S S E     S S S S S S S E.  S S S S S S S S E   
---------------------------------------|---------------------------------------|
---------------------------------------|---------------------------------------|
------------------------------------7--|------------------------------------7--|
--6-4---------------6-4-------------7--|--6-4---------------6-4-------------7--|
------6-5-4-5-----------6-5-4-5--------|------6-5-4-5-----------6-5-4-5--------|
--------------7-4---------------7-4----|--------------7-4---------------7-4----|


  |-6-| |-6-|       |-6-| |-6-|           |-6-| |-6-|        
  S S S S S S S E.  S S S S S S S S E     S S S S S S S E.   
---------------------------------------|--------------------|
---------------------------------------|--------------------|
------------------------------------7--|--------------------|
--6-4---------------6-4-------------7--|--6-4---------------|
------6-5-4-5-----------6-5-4-5--------|------6-5-4-5-------|
--------------7-4---------------7-4----|--------------7-4---|


  |--3--|  |--3--|                                                      
  E  E  E  E  E  E  E  E  Q       W                   W                 
-------------------------------|-------------------|-------------------|
-------------------------------|-------------------|-------------------|
--------7--------7--7----------|--3----------------|--2----------------|
--------7--------7--7----------|--3----------------|--2----------------|
-------------------------------|-------------------|-------------------|
--0--0-----0--0----------------|-------------------|-------------------|


  W                   W                   W                   W                 
-------------------|-------------------|-------------------|-------------------|
-------------------|-------------------|-------------------|-------------------|
--1----------------|--0----------------|--3----------------|--2----------------|
--1----------------|--0----------------|--3----------------|--2----------------|
-------------------|-------------------|-------------------|-------------------|
-------------------|-------------------|-------------------|-------------------|


  W                     W                      W                    
-------------------|--<>6pbr----------------|----------------------|
-------------------|------------------------|--9pbr----------------|
--1----------------|------------------------|----------------------|
--1----------------|------------------------|--6pbr----------------|
-------------------|------------------------|----------------------|
-------------------|------------------------|----------------------|


  W                      W                        E.    S E    E  H         
----------------------|----------------------|-----------------------------|
--8pbr----------------|--7pbr----------------|---------------<>2--L--------|
----------------------|----------------------|--<>2---<>3-L----------------|
--5pbr----------------|--4pbr----------------|-----------------------------|
----------------------|----------------------|-----------------------------|
----------------------|----------------------|-----------------------------|


  W                      W                      W                    
----------------------|----------------------|----------------------|
--9pbr----------------|--8pbr----------------|--7pbr----------------|
----------------------|----------------------|----------------------|
--6pbr----------------|--5pbr----------------|--4pbr----------------|
----------------------|----------------------|----------------------|
----------------------|----------------------|----------------------|


   Q     Q    H           S S S S S S S S S S S S S S S S  
--15b------------------|----------------------------------|
-----------------------|----------------------------------|
-----------------------|----------------------------------|
-----------------------|----------------------------------|
-----------------------|--8-------8-------8-----8-------8-|
-----------------------|--6-6-6-6-6-6-6-6-6-6-6-6-6-6-6-6-|


  S S S S S S S S S S S S S S S S    S S S S S S S S S S S S S S S S  
----------------------------------|----------------------------------|
----------------------------------|----------------------------------|
----------------------------------|----------------------------------|
----------------------------------|----------------------------------|
--7-------7-------7-----7-------7-|--6-------6-------6-----6-------6-|
--5-5-5-5-5-5-5-5-5-5-5-5-5-5-5-5-|--4-4-4-4-4-4-4-4-4-4-4-4-4-4-4-4-|


  S S S S S S S S S S S S S S S S    S S S S S S S S S S S S S S S S  
----------------------------------|----------------------------------|
----------------------------------|----------------------------------|
----------------------------------|----------------------------------|
----------------------------------|----------------------------------|
--5-------------------------------|--8-------8-------8-----8-------8-|
--3-3-3-3-3-3-3-3-3-3-3-3-3-3-3-3-|--6-6-6-6-6-6-6-6-6-6-6-6-6-6-6-6-|


  S S S S S S S S S S S S S S S S    S S S S S S S S S S S S S S S S  
----------------------------------|----------------------------------|
----------------------------------|----------------------------------|
----------------------------------|----------------------------------|
----------------------------------|----------------------------------|
--7-------7-------7-----7-------7-|--6-------6-------6-----6-------6-|
--5-5-5-5-5-5-5-5-5-5-5-5-5-5-5-5-|--4-4-4-4-4-4-4-4-4-4-4-4-4-4-4-4-|


  E  E  S E.  E  E  S E.     S S S S S S S S S S S S S S S S  
--------------------------|----------------------------------|
--------------------------|----------------------------------|
--------------------------|----------------------------------|
--------------------------|----------------------------------|
--5--5--5-3---5--5--5-4---|--8-------8-------8-----8-------8-|
--3--3--3-1---3--3--3-2---|--6-6-6-6-6-6-6-6-6-6-6-6-6-6-6-6-|


  S S S S S S S S S S S S S S S S    S S S S S S S S S S S S S S S S  
----------------------------------|----------------------------------|
----------------------------------|----------------------------------|
----------------------------------|----------------------------------|
----------------------------------|----------------------------------|
--7-------7-------7-----7-------7-|--6-------6-------6-----6-------6-|
--5-5-5-5-5-5-5-5-5-5-5-5-5-5-5-5-|--4-4-4-4-4-4-4-4-4-4-4-4-4-4-4-4-|


  S S S S S S S S S S S S S S S S    S S S S S S S S S S S S S S S S  
----------------------------------|----------------------------------|
----------------------------------|----------------------------------|
----------------------------------|----------------------------------|
----------------------------------|----------------------------------|
--5-------------------------------|--8-------8-------8-----8-------8-|
--3-3-3-3-3-3-3-3-3-3-3-3-3-3-3-3-|--6-6-6-6-6-6-6-6-6-6-6-6-6-6-6-6-|


  S S S S S S S S S S S S S S S S    S S S S S S S S S S S S S S S S  
----------------------------------|----------------------------------|
----------------------------------|----------------------------------|
----------------------------------|----------------------------------|
----------------------------------|----------------------------------|
--7-------7-------7-----7-------7-|--6-------6-------6-----6-------6-|
--5-5-5-5-5-5-5-5-5-5-5-5-5-5-5-5-|--4-4-4-4-4-4-4-4-4-4-4-4-4-4-4-4-|


  E  E  S E.  E  E  S E.     E  E  E  E  E  E  E  E   
--------------------------|--------------------------|
--------------------------|--------------------------|
--------------------------|--------------------------|
--------------------------|--5-----5-----5-----5-----|
--5--5--5-3---5--5--5-4---|--5-----5-----5-----5-----|
--3--3--3-1---3--3--3-2---|--3-----3-----3-----3-----|


            |------3------|                                          
  H         Q      Q      Q        E  E  Q    H                      
------------------18b----19b----|----------------------|-----------||
--------------------------------|----------------------|-----------||
-----------15b-----L------------|----------------------|-----------||
--8-----------------------------|--8--5----------------|-----------||
--8-----------------------------|--8--5----------------|-----------||
--6-----------------------------|--6--3----------------|-----------||


			------------------------------------------------------
					4. HERESY
			------------------------------------------------------



                       NH      NH   NH   NH  NH  NH   NH   NH               
     H        Q.       E       E    E    S   S   E    E    E    S   S   E   
E||-----------------------|------------------------------------------------|
B||-----------------------|------------------------------------------------|
G||-----------------------|------------------------------------------------|
D||-----------------------|------------------------------------------------|
A||-----------------------|------------------------------------------------|
E||------------------<>5--|--<>L--<>5--<>4-<>4-<>4--<>4--<>4--<>3-<>3-<>3--|


    E    E    S   S   E    S   S   E    E    E   
------------------------------------------------|
------------------------------------------------|
------------------------------------------------|
------------------------------------------------|
------------------------------------------------|
--<>3--<>3--<>3-<>3-<>3--<>2-<>2-<>2--<>2--<>5--|


    NH   NH   NH  NH  NH   NH   NH               
    E    E    S   S   E    E    E    S   S   E   
------------------------------------------------|
------------------------------------------------|
------------------------------------------------|
------------------------------------------------|
------------------------------------------------|
--<>L--<>5--<>4-<>4-<>4--<>4--<>4--<>3-<>3-<>3--|


    E    E    S   S   E    S   S   E    E    E   
------------------------------------------------|
------------------------------------------------|
------------------------------------------------|
------------------------------------------------|
------------------------------------------------|
--<>3--<>3--<>3-<>3-<>3--<>2-<>2-<>2--<>2--<>5--|


    NH   NH   NH  NH  NH   NH   NH               
    E    E    S   S   E    E    E    S   S   E   
------------------------------------------------|
------------------------------------------------|
------------------------------------------------|
------------------------------------------------|
------------------------------------------------|
--<>L--<>5--<>4-<>4-<>4--<>4--<>4--<>3-<>3-<>3--|


    E    E    S   S   E    S   S   E    E    E   
------------------------------------------------|
------------------------------------------------|
------------------------------------------------|
------------------------------------------------|
------------------------------------------------|
--<>3--<>3--<>3-<>3-<>3--<>2-<>2-<>2--<>2--<>5--|


    NH   NH   NH  NH  NH   NH   NH               
    E    E    S   S   E    E    E    S   S   E   
------------------------------------------------|
------------------------------------------------|
------------------------------------------------|
------------------------------------------------|
------------------------------------------------|
--<>L--<>5--<>4-<>4-<>4--<>4--<>4--<>3-<>3-<>3--|


    E    E    S   S   E    S   S   E    E  E     E  E  S S E  S S E  S S E   
----------------------------------------------|-----------------------------|
----------------------------------------------|-----------------------------|
----------------------------------------------|-----------------------------|
----------------------------------------------|-----------------------------|
----------------------------------------------|-----------------------------|
--<>3--<>3--<>3-<>3-<>3--<>2-<>2-<>2--<>2--0--|-----0--2-2-0--0-0-0--2-2-0--|


  S S E  S S E  S S E  E  E     E  E  S S E  S S E  S S E   
-----------------------------|-----------------------------|
-----------------------------|-----------------------------|
-----------------------------|-----------------------------|
-----------------------------|-----------------------------|
-----------------------------|-----------------------------|
--0-0-0--4-4-0--0-0-0--3--0--|-----0--2-2-0--0-0-0--2-2-0--|


  S S S S S S S S S S S S E  E     E  E  S S E  S S E  S S E   
--------------------------------|-----------------------------|
--------------------------------|-----------------------------|
--------------------------------|-----------------------------|
--------------------------------|-----------------------------|
--------------------------------|-----------------------------|
--0-0-0-0-4-0-0-0-0-0-0-0-3--0--|-----0--2-2-0--0-0-0--2-2-0--|


  S S E  S S E  S S E  E  E     E  E  S S E  S S E  S S E   
-----------------------------|-----------------------------|
-----------------------------|-----------------------------|
-----------------------------|-----------------------------|
-----------------------------|-----------------------------|
-----------------------------|-----------------------------|
--0-0-0--4-4-0--0-0-0--3--0--|-----0--2-2-0--0-0-0--2-2-0--|


  S S E  Q    Q    E  E     E  E  S S E  S S E  S S E   
-------------------------|-----------------------------|
-------------------------|-----------------------------|
-------------------------|-----------------------------|
-------------------------|-----------------------------|
-------------------------|-----------------------------|
--0-0--------------3--0--|-----0--2-2-0--0-0-0--2-2-0--|


  S S E  S S E  S S E  E  E     E  E  S S E  S S E  S S E   
-----------------------------|-----------------------------|
-----------------------------|-----------------------------|
-----------------------------|-----------------------------|
-----------------------------|-----------------------------|
-----------------------------|-----------------------------|
--0-0-0--4-4-0--0-0-0--3--0--|-----0--2-2-0--0-0-0--2-2-0--|


  S S S S S S S S S S S S E  E     E  E  S S E  S S E  S S E   
--------------------------------|-----------------------------|
--------------------------------|-----------------------------|
--------------------------------|-----------------------------|
--------------------------------|-----------------------------|
--------------------------------|-----------------------------|
--0-0-0-0-4-0-0-0-0-0-0-0-3--0--|-----0--2-2-0--0-0-0--2-2-0--|


  S S E  S S E  S S E  E  E     E  E  S S E  S S E  S S E   
-----------------------------|-----------------------------|
-----------------------------|-----------------------------|
-----------------------------|-----------------------------|
-----------------------------|-----------------------------|
-----------------------------|-----------------------------|
--0-0-0--4-4-0--0-0-0--3--0--|-----0--2-2-0--0-0-0--2-2-0--|


  S S S S S S S S S S S S E  E     E  E  S S E  S S E  S S E   
--------------------------------|-----------------------------|
--------------------------------|-----------------------------|
--------------------------------|-----------------------------|
--------------------------------|-----------------------------|
--------------------------------|-----------------------------|
--0-0-0-0-4-0-0-0-0-0-0-0-3--0--|-----0--2-2-0--0-0-0--2-2-0--|


  S S E  S S E  S S E  E  E     E  E  S S E  S S E  S S E   
-----------------------------|-----------------------------|
-----------------------------|-----------------------------|
-----------------------------|-----------------------------|
-----------------------------|-----------------------------|
-----------------------------|-----------------------------|
--0-0-0--4-4-0--0-0-0--3--0--|-----0--2-2-0--0-0-0--2-2-0--|


  S S S S S S S S S S S S E  E     E  E  S S E  S S E  S S E   
--------------------------------|-----------------------------|
--------------------------------|-----------------------------|
--------------------------------|-----------------------------|
--------------------------------|-----------------------------|
--------------------------------|-----------------------------|
--0-0-0-0-4-0-0-0-0-0-0-0-3--0--|-----0--2-2-0--0-0-0--2-2-0--|


  S S E  S S E  S S E  E  E     E  E  S S E  S S E  S S E   
-----------------------------|-----------------------------|
-----------------------------|-----------------------------|
-----------------------------|-----------------------------|
-----------------------------|-----------------------------|
-----------------------------|-----------------------------|
--0-0-0--4-4-0--0-0-0--3--0--|-----0--2-2-0--0-0-0--2-2-0--|


  S S S S S S S S S S S S E  E     E  E  E  E  E  E  E  E   
--------------------------------|--------------------------|
--------------------------------|--------------------------|
--------------------------------|--------------------------|
--------------------------------|--------------------------|
--------------------------------|--------9-----8-----6--8--|
--0-0-0-0-4-0-0-0-0-0-0-0-3--0--|-----0--7--0--6--0--4--6--|


  E  E  E  E  E  E  E  E     E  E  E  E  E  E  E  E   
--------------------------|--------------------------|
--------------------------|--------------------------|
--------------------------|--------------------------|
--------------------------|--------------------------|
--9-----8-----5--6--7-----|--------9-----8-----6--8--|
--7--0--6--0--3--4--5--0--|-----0--7--0--6--0--4--6--|


  E  E  E  E  E  E  E  E     E  E  E  E  E  E  E  E   
--------------------------|--------------------------|
--------------------------|--------------------------|
--------------------------|--------------------------|
--------------------------|--------------------------|
--9-----8-----5--6--7-----|--------9-----8-----6--8--|
--7--0--6--0--3--4--5--0--|-----0--7--0--6--0--4--6--|


  E  E  E  E  E  E  E  E     E  E  E  E  E  E  E  E   
--------------------------|--------------------------|
--------------------------|--------------------------|
--------------------------|--------------------------|
--------------------------|--------------------------|
--9-----8-----5--6--7-----|--------9-----8-----6--8--|
--7--0--6--0--3--4--5--0--|-----0--7--0--6--0--4--6--|


              |----3----|                                
  E  E  E  E  Q    Q    Q       E  E  E  E  E  E  E  E   
-----------------------------|--------------------------|
-----------------------------|--------------------------|
-----------------------------|--------------------------|
--------------6---------6----|--------------------------|
--9-----8-----4----6----4----|--------------------------|
--7--0--6--0-------4---------|--0--0--0--0--0--0--0--0--|


  E  E  E  E  E  Q    E     E  E  E  E  E  E  E  E     E  E  E  E  E  Q    E   
-------------------------|--------------------------|-------------------------|
-------------------------|--------------------------|-------------------------|
-------------------------|--------------------------|-------------------------|
-------------------------|--------------------------|-------------------------|
-----------------5----6--|--------------------------|-----------------3----4--|
--0--0--0--0--0--3----4--|--0--0--0--0--0--0--0--0--|--0--0--0--0--0--1----2--|


  E  E  E  E  E  E  E  E     E  E  E  E  E  Q    E     E  E  E  E  E  E  E  E   
--------------------------|-------------------------|--------------------------|
--------------------------|-------------------------|--------------------------|
--------------------------|-------------------------|--------------------------|
--------------------------|-------------------------|--------------------------|
--------------------------|-----------------5----6--|--------------------------|
--0--0--0--0--0--0--0--0--|--0--0--0--0--0--3----4--|--0--0--0--0--0--0--0--0--|


              |----3----|                                
  E  E  E  E  Q    Q    Q       E  E  E  E  E  E  E  E   
-----------------------------|--------------------------|
-----------------------------|--------------------------|
-----------------------------|--------------------------|
--------------8---------8----|--------5--3--------5--3--|
--------------6----8----6----|--------3--1--------3--1--|
--0--0--0--0-------6---------|--0--0--------0--0--------|


              |----3----|                                
  E  E  E  E  Q    Q    Q       E  E  E  E  E  E  E  E   
-----------------------------|--------------------------|
-----------------------------|--------------------------|
-----------------------------|--------------------------|
--------5--3--6---------6----|--------5--3--------5--3--|
--------3--1--4----6----4----|--------3--1--------3--1--|
--0--0-------------4---------|--0--0--------0--0--------|


              |----3----|                                
  E  E  E  E  Q    Q    Q       E  E  E  E  E  E  E  E   
-----------------------------|--------------------------|
-----------------------------|--------------------------|
-----------------------------|--------------------------|
--------5--3--8---------8----|--------5--3--------5--3--|
--------3--1--6----8----6----|--------3--1--------3--1--|
--0--0-------------6---------|--0--0--------0--0--------|


              |----3----|                                
  E  E  E  E  Q    Q    Q       E  E  E  E  E  E  E  E   
-----------------------------|--------------------------|
-----------------------------|--------------------------|
-----------------------------|--------------------------|
--------5--3--6---------6----|--------5--3--------5--3--|
--------3--1--4----6----4----|--------3--1--------3--1--|
--0--0-------------4---------|--0--0--------0--0--------|


              |----3----|                                
  E  E  E  E  Q    Q    Q       E  E  E  E  E  E  E  E   
-----------------------------|--------------------------|
-----------------------------|--------------------------|
-----------------------------|--------------------------|
--------5--3-----------------|--------------------------|
--------3--1--6----7----8----|--------------------------|
--0--0--------4----5----6----|--0--0--0--0--0--0--0--0--|


  E  E  E  E  E  Q    E     E  E  E  E  E  E  E  E     E  E  E  E  E  Q    E   
-------------------------|--------------------------|-------------------------|
-------------------------|--------------------------|-------------------------|
-------------------------|--------------------------|-------------------------|
-------------------------|--------------------------|-------------------------|
-----------------5----6--|--------------------------|-----------------3----4--|
--0--0--0--0--0--3----4--|--0--0--0--0--0--0--0--0--|--0--0--0--0--0--1----2--|


  E  E  E  E  E  E  E  E     E  E  E  E  E  Q    E     W                 
--------------------------|-------------------------|-------------------|
--------------------------|-------------------------|-------------------|
--------------------------|-------------------------|-------------------|
--------------------------|-------------------------|-------------------|
--------------------------|-----------------5----6--|-------------------|
--0--0--0--0--0--0--0--0--|--0--0--0--0--0--3----4--|-------------------|


  E  E  E  E  E  Q    E     E  E  E  E  E  E  E  E     E  E  E  E  E  E  E  E   
-------------------------|--------------------------|--------------------------|
-------------------------|--------------------------|--------------------------|
-------------------------|--------------------------|--------------------------|
--------------4--2----5--|--6--6--6-----------------|-----------3--4--4--4--5--|
-----3-----3-----0----3--|--4--4--4--7--8--8--8--4--|--5--5--5--1--2--2--2--3--|
--------3----------------|-----------5--6--6--6--2--|--3--3--3-----------------|


  E  E  E  E  E  E  E  E     E  E  E  E  E  E  E  E   
--------------------------|--------------------------|
--------------------------|--------------------------|
--------------------------|--------------------------|
--6--6--6-----------------|-----------------------5--|
--4--4--4--7--8--8--6--4--|-----2-----2-----2-----3--|
-----------5--6--6--4--2--|--0--0--0--0--0--0--0-----|


  E  E  E  E  E  E  E  E     E  E  E  E  E  E  E  E   
--------------------------|--------------------------|
--------------------------|--------------------------|
--------------------------|--------------------------|
--6--6--6-----------------|-----------3--4--4--4--5--|
--4--4--4--7--8--8--8--4--|--5--5--5--1--2--2--2--3--|
-----------5--6--6--6--2--|--3--3--3-----------------|


  E  E  E  E  E  E  E  E     E  E  S S E  S S E  S S E   
--------------------------|-----------------------------|
--------------------------|-----------------------------|
--------------------------|-----------------------------|
--6--6--6-----------------|-----------------------------|
--4--4--4--7--8--8--4-----|-----------------------------|
-----------5--6--6--2--0--|-----0--2-2-0--0-0-0--2-2-0--|


  S S E  S S E  S S E  E  E     E  E  S S E  S S E  S S E   
-----------------------------|-----------------------------|
-----------------------------|-----------------------------|
-----------------------------|-----------------------------|
-----------------------------|-----------------------------|
-----------------------------|-----------------------------|
--0-0-0--4-4-0--0-0-0--3--0--|-----0--2-2-0--0-0-0--2-2-0--|


  S S S S S S S S S S S S E  E     E  E  S S E  S S E  S S E   
--------------------------------|-----------------------------|
--------------------------------|-----------------------------|
--------------------------------|-----------------------------|
--------------------------------|-----------------------------|
--------------------------------|-----------------------------|
--0-0-0-0-4-0-0-0-0-0-0-0-3--0--|-----0--2-2-0--0-0-0--2-2-0--|


  S S E  S S E  S S E  E  E     E  E  S S E  S S E  S S E   
-----------------------------|-----------------------------|
-----------------------------|-----------------------------|
-----------------------------|-----------------------------|
-----------------------------|-----------------------------|
-----------------------------|-----------------------------|
--0-0-0--4-4-0--0-0-0--3--0--|-----0--2-2-0--0-0-0--2-2-0--|


  S S S S S S S S S S S S E  E     E  E  E  E  E  E  E  E   
--------------------------------|--------------------------|
--------------------------------|--------------------------|
--------------------------------|--------------------------|
--------------------------------|--------------------------|
--------------------------------|--------9-----8-----6--8--|
--0-0-0-0-4-0-0-0-0-0-0-0-3--0--|-----0--7--0--6--0--4--6--|


  E  E  E  E  E  Q.        E  E  E  E  E  E  E  E     E  Q.     E  E  Q     
------------------------|--------------------------|-----------------------|
------------------------|--------------------------|-----------------------|
------------------------|--------------------------|-----------------------|
------------------------|--------------------------|-----------------------|
--9-----8-----6--8------|--------9-----8-----6--8--|--9--8------4--5-------|
--7--0--6--0--4--6------|--0--0--7--0--6--0--4--6--|--7--6------2--3-------|


  H           E  E  E  E  E  E  E  E     E  E  E  E  E  Q    E   
-----------|--------------------------|-------------------------|
-----------|--------------------------|-------------------------|
-----------|--------------------------|-------------------------|
-----------|--------------------------|-------------------------|
-----------|--------------------------|-----------------5----6--|
-----------|--0--0--0--0--0--0--0--0--|--0--0--0--0--0--3----4--|


  E  E  E  E  E  E  E  E     E  E  E  E  E  Q    E     E  E  E  E  E  E  E  E   
--------------------------|-------------------------|--------------------------|
--------------------------|-------------------------|--------------------------|
--------------------------|-------------------------|--------------------------|
--------------------------|-------------------------|--------------------------|
--------------------------|-----------------3----4--|--------------------------|
--0--0--0--0--0--0--0--0--|--0--0--0--0--0--1----2--|--0--0--0--0--0--0--0--0--|


  E  E  E  E  E  Q    E     E  E  E  E  E  E  E  E   
-------------------------|--------------------------|
-------------------------|--------------------------|
-------------------------|--------------------------|
-------------------------|--------------------------|
-----------------5----6--|--------------------------|
--0--0--0--0--0--3----4--|--0--0--0--0--0--0--0--0--|


              |----3----|                                
  E  E  E  E  Q    Q    Q       E  E  E  E  E  E  E  E   
-----------------------------|--------------------------|
-----------------------------|--------------------------|
-----------------------------|--------------------------|
--------------8---------8----|--------5--3--------5--3--|
--------------6----8----6----|--------3--1--------3--1--|
--0--0--0--0-------6---------|--0--0--------0--0--------|


              |----3----|                                
  E  E  E  E  Q    Q    Q       E  E  E  E  E  E  E  E   
-----------------------------|--------------------------|
-----------------------------|--------------------------|
-----------------------------|--------------------------|
--------5--3--6---------6----|--------5--3--------5--3--|
--------3--1--4----6----4----|--------3--1--------3--1--|
--0--0-------------4---------|--0--0--------0--0--------|


              |----3----|                                
  E  E  E  E  Q    Q    Q       E  E  E  E  E  E  E  E   
-----------------------------|--------------------------|
-----------------------------|--------------------------|
-----------------------------|--------------------------|
--------5--3--8---------8----|--------5--3--------5--3--|
--------3--1--6----8----6----|--------3--1--------3--1--|
--0--0-------------6---------|--0--0--------0--0--------|


              |----3----|                                
  E  E  E  E  Q    Q    Q       E  E  E  E  E  E  E  E   
-----------------------------|--------------------------|
-----------------------------|--------------------------|
-----------------------------|--------------------------|
--------5--3--6---------6----|--------5--3--------5--3--|
--------3--1--4----6----4----|--------3--1--------3--1--|
--0--0-------------4---------|--0--0--------0--0--------|


              |----3----|                                
  E  E  E  E  Q    Q    Q       E  E  E  E  E  E  E  E   
-----------------------------|--------------------------|
-----------------------------|--------------------------|
-----------------------------|--------------------------|
--------5--3-----------------|--------------------------|
--------3--1--6----7----8----|--------------------------|
--0--0--------4----5----6----|--0--0--0--0--0--0--0--0--|


  E  E  E  E  E  Q    E     E  E  E  E  E  E  E  E     E  E  E  E  E  Q    E   
-------------------------|--------------------------|-------------------------|
-------------------------|--------------------------|-------------------------|
-------------------------|--------------------------|-------------------------|
-------------------------|--------------------------|-------------------------|
-----------------5----6--|--------------------------|-----------------3----4--|
--0--0--0--0--0--3----4--|--0--0--0--0--0--0--0--0--|--0--0--0--0--0--1----2--|


  E  E  E  E  E  E  E  E     E  E  E  E  E  Q    E     W                 
--------------------------|-------------------------|-------------------|
--------------------------|-------------------------|-------------------|
--------------------------|-------------------------|-------------------|
--------------------------|-------------------------|-------------------|
--------------------------|-----------------5----6--|-------------------|
--0--0--0--0--0--0--0--0--|--0--0--0--0--0--3----4--|-------------------|


  E  E  E  E  E  Q    E     E  E  E  E  E  E  E  E     E  E  E  E  E  E  E  E   
-------------------------|--------------------------|--------------------------|
-------------------------|--------------------------|--------------------------|
-------------------------|--------------------------|--------------------------|
--------------4--2----5--|--6--6--6-----------------|-----------3--4--4--4--5--|
-----3-----3-----0----3--|--4--4--4--7--8--8--8--4--|--5--5--5--1--2--2--2--3--|
--------3----------------|-----------5--6--6--6--2--|--3--3--3-----------------|


  E  E  E  E  E  E  E  E     E  E  E  E  E  E  E  E   
--------------------------|--------------------------|
--------------------------|--------------------------|
--------------------------|--------------------------|
--6--6--6-----------------|-----------------------5--|
--4--4--4--7--8--8--6--4--|-----2-----2-----2-----3--|
-----------5--6--6--4--2--|--0--0--0--0--0--0--0-----|


  E  E  E  E  E  E  E  E     E  E  E  E  E  E  E  E   
--------------------------|--------------------------|
--------------------------|--------------------------|
--------------------------|--------------------------|
--6--6--6-----------------|-----------3--4--4--4--5--|
--4--4--4--7--8--8--8--4--|--5--5--5--1--2--2--2--3--|
-----------5--6--6--6--2--|--3--3--3-----------------|


  E  E  E  E  E  E  E  E     E  E  S S E  S S E  S S E   
--------------------------|-----------------------------|
--------------------------|-----------------------------|
--------------------------|-----------------------------|
--6--6--6-----------------|-----------------------------|
--4--4--4--7--8--8--4-----|-----------------------------|
-----------5--6--6--2--0--|-----0--2-2-0--0-0-0--2-2-0--|


  S S E  S S E  S S E  E  E     E  E  S S E  S S E  S S E   
-----------------------------|-----------------------------|
-----------------------------|-----------------------------|
-----------------------------|-----------------------------|
-----------------------------|-----------------------------|
-----------------------------|-----------------------------|
--0-0-0--4-4-0--0-0-0--3--0--|-----0--2-2-0--0-0-0--2-2-0--|


  S S S S S S S S S S S S E  E     E  E  S S E  S S E  S S E   
--------------------------------|-----------------------------|
--------------------------------|-----------------------------|
--------------------------------|-----------------------------|
--------------------------------|-----------------------------|
--------------------------------|-----------------------------|
--0-0-0-0-4-0-0-0-0-0-0-0-3--0--|-----0--2-2-0--0-0-0--2-2-0--|


  S S E  S S E  S S E  E  E     E  E  S S E  S S E  S S E   
-----------------------------|-----------------------------|
-----------------------------|-----------------------------|
-----------------------------|-----------------------------|
-----------------------------|-----------------------------|
-----------------------------|-----------------------------|
--0-0-0--4-4-0--0-0-0--3--0--|-----0--2-2-0--0-0-0--2-2-0--|


  S S S S S S S S S S S S E  E     W                   H         
--------------------------------|-------------------|-----------|
--------------------------------|-------------------|-----------|
--------------------------------|-------------------|-----------|
--------------------------------|-------------------|-----------|
--------------------------------|-------------------|-----------|
--0-0-0-0-4-0-0-0-0-0-0-0-3--0--|-------------------|-----------|


  E  E  E  E  E  E  Q       W                   E  E  E  E  E  E  Q     
-------------------------|-------------------|-------------------------|
-------------------------|-------------------|-------------------------|
-------------------------|-------------------|-------------------------|
-------------------------|-------------------|-------------------------|
-----------6--------4----|--2----------------|-----------6--------4----|
--0--0--0--4--0--0--2----|--0----------------|--0--0--0--4--0--0--2----|


  W                   E  E  E  E  E  E  Q       W                 
-------------------|-------------------------|-------------------|
-------------------|-------------------------|-------------------|
-------------------|-------------------------|-------------------|
--5----------------|-------------------------|-------------------|
--3----------------|-----------6--------4----|--2----------------|
-------------------|--0--0--0--4--0--0--2----|--0----------------|


  E  E  E  E  E  E  Q       Q    Q    E  E  Q       E  E  E  E  E  E  Q     
-------------------------|-----------------------|-------------------------|
-------------------------|-----------------------|-------------------------|
-------------------------|-----------------------|-------------------------|
-------------------------|--3----2---------------|-------------------------|
-----------6--------4----|--1----0----5--5--3----|-----------6--------4----|
--0--0--0--4--0--0--2----|------------3--3--1----|--0--0--0--4--0--0--2----|


  W                   E  E  E  E  E  E  Q       W                 
-------------------|-------------------------|-------------------|
-------------------|-------------------------|-------------------|
-------------------|-------------------------|-------------------|
-------------------|-------------------------|--5----------------|
--2----------------|-----------6--------4----|--3----------------|
--0----------------|--0--0--0--4--0--0--2----|-------------------|


  E  E  E  E  E  E  Q       W                   E  E  E  E  E  E  Q     
-------------------------|-------------------|-------------------------|
-------------------------|-------------------|-------------------------|
-------------------------|-------------------|-------------------------|
-------------------------|-------------------|-----------5--------4----|
-----------6--------4----|--2----------------|--0--0--0--3--0--0--2----|
--0--0--0--4--0--0--2----|--0----------------|-------------------------|


  Q    Q    E  E  Q       E  E  E  E  E  E  Q       W                 
-----------------------|-------------------------|-------------------|
-----------------------|-------------------------|-------------------|
-----------------------|-------------------------|-------------------|
--3----2---------------|-------------------------|-------------------|
--1----0----5--5--3----|-----------6--------4----|--2----------------|
------------3--3--1----|--0--0--0--4--0--0--2----|--0----------------|


  E  E  E  E  E  E  Q       W                   E  E  E  E  E  E  Q     
-------------------------|-------------------|-------------------------|
-------------------------|-------------------|-------------------------|
-------------------------|-------------------|-------------------------|
-------------------------|--5----------------|-------------------------|
-----------6--------4----|--3----------------|-----------6--------4----|
--0--0--0--4--0--0--2----|-------------------|--0--0--0--4--0--0--2----|


  W                   E  E  E  E  E  E  Q       Q    Q    E  E  Q     
-------------------|-------------------------|-----------------------|
-------------------|-------------------------|-----------------------|
-------------------|-------------------------|-----------------------|
-------------------|-----------5--------4----|--3----2---------------|
--2----------------|--0--0--0--3--0--0--2----|--1----0----5--5--3----|
--0----------------|-------------------------|------------3--3--1----|


  E  E  E  E  E  E  Q       W                   E  E  E  E  E  E  Q     
-------------------------|-------------------|-------------------------|
-------------------------|-------------------|-------------------------|
-------------------------|-------------------|-------------------------|
-------------------------|-------------------|-------------------------|
-----------6--------4----|--2----------------|-----------6--------4----|
--0--0--0--4--0--0--2----|--0----------------|--0--0--0--4--0--0--2----|


  W                   E  E  E  E  E  E  Q       W                 
-------------------|-------------------------|-------------------|
-------------------|-------------------------|-------------------|
-------------------|-------------------------|-------------------|
--5----------------|-------------------------|-------------------|
--3----------------|-----------6--------4----|--2----------------|
-------------------|--0--0--0--4--0--0--2----|--0----------------|


  E  E  E  E  E  E  Q       Q    Q    E  E  Q       E  E  E  E  E  E  E  E   
-------------------------|-----------------------|--------------------------|
-------------------------|-----------------------|--------------------------|
-------------------------|-----------------------|--------------------------|
-----------5--------4----|--3----2---------------|--------------------------|
--0--0--0--3--0--0--2----|--1----0----5--5--3----|--2--2--2--5--2--2--2--2--|
-------------------------|------------3--3--1----|--0--0--0--3--0--0--0--0--|


  E  E  E  E  E  E  E  E     E  E  E  E  E  E  E  E   
--------------------------|--------------------------|
--------------------------|--------------------------|
--------------------------|--------------------------|
--------------------------|--------------------------|
--2--5--2--2--2--2--2--2--|--2--2--2--5--2--2--2--2--|
--0--3--0--0--0--0--0--0--|--0--0--0--3--0--0--0--0--|


  E  E  E  E  E  E  E  E     E  E  E  E  E  E  E  E   
--------------------------|--------------------------|
--------------------------|--------------------------|
--------------------------|--------------------------|
--------------------------|--------------------------|
--2--5--2--2--2--2--2--2--|--2--2--2--5--2--2--2--2--|
--0--3--0--0--0--0--0--0--|--0--0--0--3--0--0--0--0--|


  E  E  E  E  E  E  E  E     E  E  E  E  E  E  E  E      Q    Q    E  E  Q     
--------------------------|--------------------------|------------------------|
--------------------------|--------------------------|------------------------|
--------------------------|--------------------------|------------------------|
--------------------------|--------------------------|------------------------|
--2--5--2--2--2--2--2--2--|--7--7--7--7--7--7--7--7--|--10----9----7--5--3----|
--0--3--0--0--0--0--0--0--|--5--5--5--5--5--5--5--5--|---8----7----5--3--1----|


  E  E  E  E  E  E  E  E     E  E  E  E  E  E  E  E   
--------------------------|--------------------------|
--------------------------|--------------------------|
--------------------------|--------------------------|
--------------------------|--------------------------|
--2--2--2--5--2--2--2--2--|--2--5--2--2--2--2--2--2--|
--0--0--0--3--0--0--0--0--|--0--3--0--0--0--0--0--0--|


  E  E  E  E  E  E  E  E     E  E  E  E  E  E  E  E   
--------------------------|--------------------------|
--------------------------|--------------------------|
--------------------------|--------------------------|
--------------------------|--------------------------|
--2--2--2--5--2--2--2--2--|--2--5--2--2--2--2--2--2--|
--0--0--0--3--0--0--0--0--|--0--3--0--0--0--0--0--0--|


  E  E  E  E  E  E  E  E     E  E  E  E  E  E  E  E   
--------------------------|--------------------------|
--------------------------|--------------------------|
--------------------------|--------------------------|
--------------------------|--------------------------|
--2--2--2--5--2--2--2--2--|--2--5--2--2--2--2--2--2--|
--0--0--0--3--0--0--0--0--|--0--3--0--0--0--0--0--0--|


  E  E  E  E  E  E  E  E      Q    Q    E  E  Q       E  E  E  E  E  E  E  E   
--------------------------|------------------------|--------------------------|
--------------------------|------------------------|--------------------------|
--------------------------|------------------------|--------------------------|
--------------------------|------------------------|--------------------------|
--7--7--7--7--7--7--7--7--|--10----9----7--5--3----|--4--2--2--5--2--2--4--2--|
--5--5--5--5--5--5--5--5--|---8----7----5--3--1----|--2--0--0--3--0--0--2--0--|


  E  E  E  E  E  E  E  E     E  E  E  E  E  E  E  E   
--------------------------|--------------------------|
--------------------------|--------------------------|
--------------------------|--------------------------|
--------------------------|--------------------------|
--2--5--2--2--4--4--4--4--|--4--2--2--5--2--2--4--2--|
--0--3--0--0--2--2--2--2--|--2--0--0--3--0--0--2--0--|


  E  E  E  E  E  E  E  E     E  E  E  E  E  E  E  E   
--------------------------|--------------------------|
--------------------------|--------------------------|
--------------------------|--------------------------|
--------------------------|--------------------------|
--2--5--2--2--4--4--4--4--|--4--2--2--5--2--2--4--2--|
--0--3--0--0--2--2--2--2--|--2--0--0--3--0--0--2--0--|


  E  E  E  E  E  E  E  E     E  E  E  E  E  E  E  E     E  Q    E  E  E  Q     
--------------------------|--------------------------|------------------------|
--------------------------|--------------------------|------------------------|
--------------------------|--------------------------|------------------------|
--------------------------|--5--4--2-----------5--4--|--2----------5--4--2----|
--2--5--2--2--4--4--4--4--|--3--2--0--4--L--2--3--2--|--0--4----2--3--2--0----|
--0--3--0--0--2--2--2--2--|-----------2--L--0--------|-----2----0-------------|


  E  E  E  E  E  E  E  E     E  E  E  E  E  E  E  E   
--------------------------|--------------------------|
--------------------------|--------------------------|
--------------------------|--------------------------|
--------------------------|--------------------------|
--4--2--2--5--2--2--4--2--|--2--5--2--2--4--4--4--4--|
--2--0--0--3--0--0--2--0--|--0--3--0--0--2--2--2--2--|


  E  E  E  E  E  E  E  E     E  E  E  E  E  E  E  E   
--------------------------|--------------------------|
--------------------------|--------------------------|
--------------------------|--------------------------|
--------------------------|--------------------------|
--4--2--2--5--2--2--4--2--|--2--5--2--2--4--4--4--4--|
--2--0--0--3--0--0--2--0--|--0--3--0--0--2--2--2--2--|


  E  E  E  E  E  E  E  E     E  E  E  E  E  E  E  E   
--------------------------|--------------------------|
--------------------------|--------------------------|
--------------------------|--------------------------|
--------------------------|--------------------------|
--4--2--2--5--2--2--4--2--|--2--5--2--2--4--4--4--4--|
--2--0--0--3--0--0--2--0--|--0--3--0--0--2--2--2--2--|


  E  E  E  E  E  E  E  E     E  Q    E  E  E  Q       E  E  E  E  E  E  E  E   
--------------------------|------------------------|--------------------------|
--------------------------|------------------------|--------------------------|
--------------------------|------------------------|--------------------------|
--5--4--2-----------5--4--|--2----------5--4--2----|--------------------------|
--3--2--0--4--L--2--3--2--|--0--4----2--3--2--0----|--4--2--2--5--2--2--4--2--|
-----------2--L--0--------|-----2----0-------------|--2--0--0--3--0--0--2--0--|


  E  E  E  E  E  E  E  E     E  E  E  E  E  E  E  E   
--------------------------|--------------------------|
--------------------------|--------------------------|
--------------------------|--------------------------|
--------------------------|--------------------------|
--2--5--2--2--4--4--4--4--|--4--2--2--5--2--2--4--2--|
--0--3--0--0--2--2--2--2--|--2--0--0--3--0--0--2--0--|


  E  E  E  E  E  E  E  E     E  E  E  E  E  E  E  E   
--------------------------|--------------------------|
--------------------------|--------------------------|
--------------------------|--------------------------|
--------------------------|--------------------------|
--2--5--2--2--4--4--4--4--|--4--2--2--5--2--2--4--2--|
--0--3--0--0--2--2--2--2--|--2--0--0--3--0--0--2--0--|


  E  E  E  E  E  E  E  E     E  E  E  E  E  E  E  E     E  Q    E  E  E  Q     
--------------------------|--------------------------|------------------------|
--------------------------|--------------------------|------------------------|
--------------------------|--------------------------|------------------------|
--------------------------|--5--4--2-----------5--4--|--2----------5--4--2----|
--2--5--2--2--4--4--4--4--|--3--2--0--4--L--2--3--2--|--0--4----2--3--2--0----|
--0--3--0--0--2--2--2--2--|-----------2--L--0--------|-----2----0-------------|


  E  E  E  E  E  E  E  E     E  E  E  E  E  E  E  E   
--------------------------|--------------------------|
--------------------------|--------------------------|
--------------------------|--------------------------|
--------------------------|--------------------------|
--4--2--2--5--2--2--4--2--|--2--5--2--2--4--4--4--4--|
--2--0--0--3--0--0--2--0--|--0--3--0--0--2--2--2--2--|


  E  E  E  E  E  E  E  E     E  E  E  E  E  E  E  E   
--------------------------|--------------------------|
--------------------------|--------------------------|
--------------------------|--------------------------|
--------------------------|--------------------------|
--4--2--2--5--2--2--4--2--|--2--5--2--2--4--4--4--4--|
--2--0--0--3--0--0--2--0--|--0--3--0--0--2--2--2--2--|


  E  E  E  E  E  E  E  E     E  E  E  E  E  E  E  E   
--------------------------|--------------------------|
--------------------------|--------------------------|
--------------------------|--------------------------|
--------------------------|--------------------------|
--4--2--2--5--2--2--4--2--|--2--5--2--2--4--4--4--4--|
--2--0--0--3--0--0--2--0--|--0--3--0--0--2--2--2--2--|


  E  E  E  E  E  E  E  E     E  Q    E  E  E  Q       E  E  E  E  E  E  E  E   
--------------------------|------------------------|--------------------------|
--------------------------|------------------------|--------------------------|
--------------------------|------------------------|--------------------------|
--5--4--2-----------5--4--|--2----------5--4--2----|--5--4--2-----------5--4--|
--3--2--0--4--L--2--3--2--|--0--4----2--3--2--0----|--3--2--0--4--L--2--3--2--|
-----------2--L--0--------|-----2----0-------------|-----------2--L--0--------|


  E  Q    E  E  E  Q       W                   E  E  S S E  S S E  S S E   
------------------------|-------------------|-----------------------------|
------------------------|-------------------|-----------------------------|
------------------------|-------------------|-----------------------------|
--2----------5--4--2----|-------------------|-----------------------------|
--0--4----2--3--2--0----|--5----------------|-----------------------------|
-----2----0-------------|--3----------------|-----0--2-2-0--0-0-0--2-2-0--|


  S S E  S S E  S S E  E  E     E  E  S S E  S S E  S S E   
-----------------------------|-----------------------------|
-----------------------------|-----------------------------|
-----------------------------|-----------------------------|
-----------------------------|-----------------------------|
-----------------------------|-----------------------------|
--0-0-0--4-4-0--0-0-0--3--0--|-----0--2-2-0--0-0-0--2-2-0--|


  S S S S S S S S S S S S E  E     E  E  S S E  S S E  S S E   
--------------------------------|-----------------------------|
--------------------------------|-----------------------------|
--------------------------------|-----------------------------|
--------------------------------|-----------------------------|
--------------------------------|-----------------------------|
--0-0-0-0-4-0-0-0-0-0-0-0-3--0--|-----0--2-2-0--0-0-0--2-2-0--|


  S S E  S S E  S S E  E  E     E  E  S S E  S S E  S S E   
-----------------------------|-----------------------------|
-----------------------------|-----------------------------|
-----------------------------|-----------------------------|
-----------------------------|-----------------------------|
-----------------------------|-----------------------------|
--0-0-0--4-4-0--0-0-0--3--0--|-----0--2-2-0--0-0-0--2-2-0--|


  S S S S S S S S S S S S E  E     E  E  S S E  S S E  S S E   
--------------------------------|-----------------------------|
--------------------------------|-----------------------------|
--------------------------------|-----------------------------|
--------------------------------|-----------------------------|
--------------------------------|-----------------------------|
--0-0-0-0-4-0-0-0-0-0-0-0-3--0--|-----0--2-2-0--0-0-0--2-2-0--|


  S S E  S S E  S S E  S S E     S S S S S S S S S S S S S S S S  
------------------------------|----------------------------------|
------------------------------|----------------------------------|
------------------------------|----------------------------------|
------------------------------|----------------------------------|
------------------------------|--5-6-6-6-6-6-6-6-6-6-6-6-6-6-6-6-|
--0-0-0--2-2-0--0-0-0--2-2-0--|--3-4-4-4-4-4-4-4-4-4-4-4-4-4-4-4-|


  S S S S S S S S S S S S S S S S    E  E  S S E  S S E  S S E   
----------------------------------|-----------------------------|
----------------------------------|-----------------------------|
----------------------------------|-----------------------------|
----------------------------------|-----------------------------|
--6-6-6-6-6-6-6-6-6-7-7-7-7-7-7-7-|-----------------------------|
--4-4-4-4-4-4-4-4-4-5-5-5-5-5-5-5-|--0--0--2-2-0--0-0-0--2-2-0--|


  E  E  S S E  S S E  S S E     S S S S S S S S S S S S S S S S  
-----------------------------|----------------------------------|
-----------------------------|----------------------------------|
-----------------------------|----------------------------------|
-----------------------------|----------------------------------|
-----------------------------|--5-6-6-6-6-6-6-6-6-6-6-6-6-6-6-6-|
--0--0--2-2-0--0-0-0--2-2-0--|--3-4-4-4-4-4-4-4-4-4-4-4-4-4-4-4-|


                                     |----3----|    |----3----|     
  S S S S S S S S S S S S S S S S    Q    Q    Q    Q    Q    Q     
----------------------------------|--------------------------------|
----------------------------------|--------------------------------|
----------------------------------|--------------------------------|
----------------------------------|--5----7----6----8---------9----|
--6-6-6-6-6-6-6-6-6-7-7-7-7-7-7-7-|--3----5----4----6----8----7----|
--4-4-4-4-4-4-4-4-4-5-5-5-5-5-5-5-|----------------------6---------|


  E  E  Q    H          
----------------------||
----------------------||
----------------------||
--2-------------------||
--2-------------------||
--0-------------------||



						$$$$
					******************
		!!!!!!!!!!!!!!!!!!!!!!!!!!!!!!!!!!!!!!!!!!!!!!!!!!!!!!!!!!!!!!!!!!!!!!
						SOLO
		!!!!!!!!!!!!!!!!!!!!!!!!!!!!!!!!!!!!!!!!!!!!!!!!!!!!!!!!!!!!!!!!!!!!!!
					******************
						$$$$

  W                      W                   Q    E  E  E  E  E  E   
--0pbr----------------|--L----------------|-------------------------|
----------------------|-------------------|-------------------------|
----------------------|-------------------|-------------4--3--2-----|
----------------------|-------------------|-------2--3-----------5--|
----------------------|-------------------|-------------------------|
----------------------|-------------------|-------------------------|


  W                     Q     E   E   E   E   E   E   
--------------------|--22----17--19--19b--L--17------|
--4~----------------|--24----19--20--20b--L--19--20--|
--------------------|----------------------------21--|
--------------------|--------------------------------|
--------------------|--------------------------------|
--------------------|--------------------------------|


                                                     |---3---|   
   E   E   E   E   E   E   E   E      H.             E   E   E   
----------22----------------------|--18b------------17--18--17--|
--20b--L------17--17b--L--15--17--|-----------------------------|
--21b--L--------------------------|--20b------------19--20--19--|
----------21--22--22b--L--21--21--|-----------------------------|
----------------------------------|-----------------------------|
----------------------------------|-----------------------------|


   W                   W                      W                 
--------------------|----------------------|-------------------|
--18----------------|--6pbr----------------|--L----------------|
--------------------|--6pbr----------------|--L----------------|
--20----------------|----------------------|-------------------|
--------------------|----------------------|-------------------|
--------------------|----------------------|-------------------|


  Q    E  E  E  E  E  E     W                  
-------------------------|--------------------|
-------------------------|--4~----------------|
-------------4--3--2-----|--------------------|
-------2--3-----------5--|--------------------|
-------------------------|--------------------|
-------------------------|--------------------|


   |---3---|   |---3---|   |---3---|               
   E   E   E   E   E   E   E   E   E   S  S  S  S  
--22--20--19--20--19--22--20--19--17--19-17-------|
--20--19--17--19--17------19--17------17----20-19-|
----------------------19----------19-----19-17-16-|
--------------------------------------------------|
--------------------------------------------------|
--------------------------------------------------|


   |---3---|   |---3---|   |---3---|   |---3---|   
   E   E   E   E   E   E   E   E   E   E   E   E   
--17----------------------------------------------|
------20--19--20--19--17--20--19--17--17----------|
--19--17--16--17--16------17--16------16--19--17--|
----------------------19----------19------17--16--|
--------------------------------------------------|
--------------------------------------------------|


   |---3---|   |---3---|   |---3---|               
   E   E   E   E   E   E   E   E   E   S  S  S  S  
--------------------------------------------------|
--17----------------------------------------------|
------19--17--19--17--16--19--17--16--17-16-------|
--19--17--16--17--16------17--16------16----19-17-|
----------------------19----------19-----19-17-15-|
--------------------------------------------------|


   |---3---|                                                                  
   E   E   E   S  S  S  S  H            W                   W                 
-------------------------------------|-------------------|-------------------|
-------------------------------------|-------------------|-------------------|
--16---------------------------------|-------------------|-------------------|
------19--17--19-17-16-17-14b--------|-------------------|-------------------|
--19--17--15--17-15-14-15-12b--------|-------------------|-------------------|
-------------------------------------|-------------------|-------------------|


			------------------------------------------------------
					5. CEMETERY GATES
			------------------------------------------------------

e------------------|-----------------|----------------|------0-----------|
B----------2-------|------0--0-------|------0--0------|----2-----2-------|
G--------2---2-----|----4------4-----|----4------4----|--4---------4-----|
D------2-----------|--2--------------|--2----------0--|------------------|
A----4----------0--|-----------------|----------------|------------------|
E--2---------------|--------------0--|----------------|------------------|

e------------------|-----------------|----------------|---------0--------|
B----------2-------|------0--0-------|------0--0------|--2--------2------|
G--------2---2-----|----4------4-----|----4------4----|----4--------4----|
D------2-----------|--2--------------|--2----------0--|------0--------0--|
A----4----------0--|-----------------|----------------|------------------|
E--2---------------|--------------0--|----------------|------------------|

   "Reverend           Reverend          is this some conspiricy..."
e------------------|-----------------|----------------|------0-----------|
B----------2-------|------0--0-------|------0--0------|----2-----2-------|
G--------2---2-----|----4------4-----|----4------4----|--4---------4-----|
D------2-----------|--2--------------|--2----------0--|------------------|
A----4----------0--|-----------------|----------------|------------------|
E--2---------------|--------------0--|----------------|------------------|

   "Crucified    for   no  sins               An image, beneath me..."
e------------------|-----------------|----------------|------0-----------|
B----------2-------|------0--0-------|------0--0------|----2-----2-------|
G--------2---2-----|----4------4-----|----4------4----|--4---------4-----|
D------2-----------|--2--------------|--2----------0--|--------------0---|
A----4----------0--|-----------------|----------------|------------------|
E--2---------------|--------------0--|----------------|------------------|

 "What is with..."
e------------------|-----------------|----------------|------0-----------|
B----------2-------|------0--0-------|------0--0------|----2-----2-------|
G--------2---2-----|----4------4-----|----4------4----|--4---------4-----|
D------2-----------|--2--------------|--2----------0--|------------------|
A----4----------0--|-----------------|----------------|------------------|
E--2---------------|--------------0--|----------------|------------------|

 "I'm  a man..."
e------------------|-----------------|----------------|-----0^^^\------0------|
B----------2-------|------0--0-------|------0--0------|-----3-\-5------5-\-7--|
G--------2---2-----|----4------4-----|----4------4----|--4--4-\-6------6-\-7--|
D------2-----------|--2--------------|--2----------0--|--------------0--------|
A----4----------0--|-----------------|----------------|-----------------------|
E--2---------------|--------------0--|----------------|-----------------------|


1st Guitar Solo
|-----------------|------------|
|-----------------|------------|
|---9--(9)~~~--8--|~~~--7------|
|-----------------|------------|
|-----------------|------------|
|-----------------|------------|


|-------------------------|-----------------|-------------------|-----|
|---------10-----(10)-----|---9-----(9)-----|---12-----(12)-----|-----|
|-----x----------------6--|--------------9--|----------------8--|-----|
|--x----------------------|-----------------|-------------------|-----|
|-------------------------|-----------------|-------------------|-----|
|-------------------------|-----------------|-------------------|-----|


-----------|-------|---------------------------|----------------------|
-15--------|-------|---------------------------|----------------------|
--------7--|~~~--\\|----------------4-----(4)--|---(4)-----(4)--6-----|
-----------|-------|------------4--------------|----------------------|
-----------|-------|--------x------------------|----------------------|
-----------|-------|-----x---------------------|----------------------|


---|-----------------|--------------------------|---------------------|
---|---------5--(5)--|--(5)~~~---5---(5)---(5)--|---(5)---(5)~~~------|
\4p|--2--------------|--------------------------|---------------------|
---|-----2-----------|--------------------------|---------------------|
---|-----------------|--------------------------|---------------------|
---|-----------------|--------------------------|---------------------|


|-----------------|---------------|-----------------------------------|
|-----------------|--12--(12)/15--|--(15)\12--15/17--(17)p14--17------|
|---------6--(6)--|---------------|-----------------------------------|
|-----x-----------|---------------|-----------------------------------|
|--x--------------|---------------|-----------------------------------|
|-----------------|---------------|-----------------------------------|


-----|-----------------------------------------|
p15--|--(15)p12--15/17--(17)p14--17--17~~~~~~--|
-----|-----------------------------------------|
-----|-----------------------------------------|
-----|-----------------------------------------|
-----|-----------------------------------------|

1:33
Riff 1
e----------------------------------|
B----------------------------------|
G----------------------------------|
D--2--2-2-2-2---------------9------|
A--0--0-0-0-0--7-6-7--8-7-8---7-8--|
E----------------------------------|

e-------------------------------------------|
B-------------------------------------------|
G-------------------------------------------|
D--2--2-2-2-2-------------------------------|
A--0--0-0-0-0--7-6-7--8-6-7---6-------------|
E---------------------------8---7~~---------|

Repeat Riff 1 two more times, then on the third time play Riff 2

Riff 2
e----------------------------------|
B----------------------------------|
G----------------------------------|
D--2--2-2-2-2---------------9------|
A--0--0-0-0-0--7-6-7--8-7-8---7-8--|
E----------------------------------|

e-------------------------------------------|
B-------------------------------------------|
G-------------------------------------------|
D--2--2-2-2-2-----------------2--3----------|
A--0--0-0-0-0--7-6-7--8-6-7---0--1----------|
E-------------------------------------------|

Riff 3
e-------------------------------------------|
B-------------------------------------------|
G-------------------------------------------|
D---------2-2-2--4-4-4--5-------------------|
A--4-4-4--0-0-0--2-2-2--3--2--3-------------|
E--2-2-2-------------------0--1-------------|

Repeat Riff 3 one more time dragging the last two notes out a little, play it again normal,
then play it a final time playing the last note again.

Now comes the softer part of the song. Play this three times:

 "Reverend..."
e------------------|-----------------|----------------|------0-----------|
B----------2-------|------0--0-------|------0--0------|----2-----2-------|
G--------2---2-----|----4------4-----|----4------4----|--4---------4-----|
D------2-----------|--2--------------|--2----------0--|------------------|
A----4----------0--|-----------------|----------------|------------------|
E--2---------------|--------------0--|----------------|------------------|

On the fourth time, play this: (with pick)
 "I watch..."
e------------------|-----------------|----------------|
B----------2-------|------0--0-------|------0--0------|
G--------2---2-----|----4------4-----|----4------4----|
D------2-----------|--2--------------|--2----------0--|
A----4----------0--|-----------------|----------------|
E--2---------------|--------------0--|----------------|

Slide the pick down the neck and play:

I cant figure it out.

Then at 3:02, play:

Riff 1
e----------------------------------|
B----------------------------------|
G----------------------------------|
D--2--2-2-2-2---------------9------|
A--0--0-0-0-0--7-6-7--8-7-8---7-8--|
E----------------------------------|

e-------------------------------------------|
B-------------------------------------------|
G-------------------------------------------|
D--2--2-2-2-2-------------------------------|
A--0--0-0-0-0--7-6-7--8-6-7---6-------------|
E---------------------------8---7~~---------|

Then:

Riff 2
e----------------------------------|
B----------------------------------|
G----------------------------------|
D--2--2-2-2-2---------------9------|
A--0--0-0-0-0--7-6-7--8-7-8---7-8--|
E----------------------------------|

e-------------------------------------------|
B-------------------------------------------|
G-------------------------------------------|
D--2--2-2-2-2-----------------2--3----------|
A--0--0-0-0-0--7-6-7--8-6-7---0--1----------|
E-------------------------------------------|

Riff 3
e-------------------------------------------|
B-------------------------------------------|
G-------------------------------------------|
D---------2-2-2--4-4-4--5-------------------|
A--4-4-4--0-0-0--2-2-2--3--2--3-------------|
E--2-2-2-------------------0--1-------------|

Repeat Riff 3 one more time dragging the last two notes out a little,
play it again normal, then play it a final time playing the last note
again. Then play:

  Sometimes when...
e------------------|-----------------|----------------|------0-----------|
B----------2-------|------0--0-------|------0--0------|----2-----2-------|
G--------2---2-----|----4------4-----|----4------4----|--4---------4-----|
D------2-----------|--2--------------|--2----------0--|------------------|
A----4----------0--|-----------------|----------------|------------------|
E--2---------------|--------------0--|----------------|------------------|

Play three more times, then:

e------------------|-----------------|----------------|
B----------2-------|------0--0-------|------0--0------|
G--------2---2-----|----4------4-----|----4------4----|
D------2-----------|--2--------------|--2----------0--|
A----4----------0--|-----------------|----------------|
E--2---------------|--------------0--|----------------|

Slide the pick down the neck, then play:

I cant figure it out

Then at 4:25, play:

Riff 1
e----------------------------------|
B----------------------------------|
G----------------------------------|
D--2--2-2-2-2---------------9------|
A--0--0-0-0-0--7-6-7--8-7-8---7-8--|
E----------------------------------|

e-------------------------------------------|
B-------------------------------------------|
G-------------------------------------------|
D--2--2-2-2-2-------------------------------|
A--0--0-0-0-0--7-6-7--8-6-7---6-------------|
E---------------------------8---7~~---------|

e----------------------------------|
B----------------------------------|
G----------------------------------|
D---------------9------------------|
A--7-6-7--8-7-8---7-8--------------|
E----------------------------------|

e-------------------------------------------|
B-------------------------------------------|
G-------------------------------------------|
D--2--2-2-2-2-------------------------------|
A--0--0-0-0-0--7-6-7--8-6-7---6-------------|
E---------------------------8---7~~---------|

e----------------------------------|
B----------------------------------|
G----------------------------------|
D--2--2-2-2-2---------------9------|
A--0--0-0-0-0--7-6-7--8-7-8---7-8--|
E----------------------------------|

e---------------------------------------------------------|
B---------------------------------------------------------|
G---------------------------------------------------------|
D--2--2-2-2-2---------5--------5--------5--------5--------|
A--0--0-0-0-0--7-6-7--3--2--3--3--2--3--3--2--3--3--2--3--|
E------------------------0--1-----0--1-----0--1-----0--1--|

Now here's the second solo:

4:52
------------------------|-----5-----5--4------|
---2-----2--5/7\5--3p2--|~~~-----2------------|
------4-----------------|---------------------|
------------------------|---------------------|
------------------------|---------------------|
------------------------|---------------------|

|----12--------9---|-------|--12-----10--(10)~~~--10p9--|------9------|
|--------9-----10--|--5/9--|------9---------------------|--12---------|
|/9---------9------|-------|----------------------------|-------------|
|------------------|-------|----------------------------|-------------|
|------------------|-------|----------------------------|-------------|
|------------------|-------|----------------------------|-------------|

                                                     Full   Full
------------|----------------------|--------7-----7-------------------|
10~~~--(10)\|/10--9--8--7--6--5h6--|--7~~~-----7------7~~~---(7)------|
------------|----------------------|----------------------------------|
------------|----------------------|----------------------------------|
------------|----------------------|----------------------------------|
------------|----------------------|----------------------------------|

             Full   Tap                              Tap
----------7-----------------------------|----7h9h10---12p10p9p7h9-----|
~~~--(7)------7------8p(7)--(7)p(5)~~~--|/9---------------------------|
----------------------------------------|-----------------------------|
----------------------------------------|-----------------------------|
----------------------------------------|-----------------------------|
----------------------------------------|-----------------------------|

     Tap                    Tap     Tap           Tap     Tap
h10---12/14--(14)p12p10--|---14p10---14/16p14p12---15p12---15/17------|
-------------------------|--------------------------------------------|
-------------------------|--------------------------------------------|
-------------------------|--------------------------------------------|
-------------------------|--------------------------------------------|
-------------------------|--------------------------------------------|

(17)p16p14--14--19/21--17------17--|------19--16------16--------------|
---------------------------19------|--19----------17------17~~~-------|
-----------------------------------|----------------------------------|
-----------------------------------|----------------------------------|
-----------------------------------|-----------------------------7----|
-----------------------------------|----------------------------------|

---|--------------------------------------------------------|---------|
---|--------------------------------------------------------|---------|
---|-----------------------------------------9--10--11--12--|---------|
---|---------------6--7--8--9--8--9--10--11-----------------|---------|
7--|--7--8--9--10-------------------------------------------|--x------|
---|--------------------------------------------------------|---------|

                  P.SFull                Full                Full
------------------|-----------14------------------14------------------|
------------------|-------14------17p14-------14------17p14-----------|
---6--------6----\|---16------------------16------------------16------|
x--------x--------|---------------------------------------------------|
------x-----------|---------------------------------------------------|
------------------|---------------------------------------------------|

                  Full                    Full     Full     Full
----14--|----------------------14--------------14-------14-------|----|
14------|--17p14-------14--14------17p14---17-------17-------17--|----|
--------|----------16--------------------------------------------|----|
--------|--------------------------------------------------------|----|
--------|--------------------------------------------------------|----|
--------|--------------------------------------------------------|----|

21p14--21p14--21p14--21p14--20--20p14--20--20p14--20p14--|--19h20-----|
---------------------------------------------------------|------------|
---------------------------------------------------------|------------|
---------------------------------------------------------|------------|
---------------------------------------------------------|------------|
---------------------------------------------------------|------------|

p19p17------19h20p19p17------------------------14--16--|--17--16------|
--------19---------------19--19--19--19~~~/17----------|--------------|
-------------------------------------------------------|--------------|
-------------------------------------------------------|--------------|
-------------------------------------------------------|--------------|
-------------------------------------------------------|--------------|

14------14--17h19p17p14--14h17p14h17p14--14--14-----------------------|
----17-------------------------------------------19p17p14--17p14------|
----------------------------------------------------------------------|
----------------------------------------------------------------------|
----------------------------------------------------------------------|
----------------------------------------------------------------------|

|---------------------------------------------------------------------|
|--14h15p14h15p14------14---------------------------------------------|
|------------------17------17p14--16p14------14--------14h16p14-------|
|----------------------------------------16------1/16-----------------|
|---------------------------------------------------------------------|
|---------------------------------------------------------------------|

w/ bar w/ bar        w/ bar
-------------------------------------------------|--------------------|
-------------------------------------------------|--------------------|
-\(14)\----13p11\10-\---11p10p9--11p1p9--10p9p8--|--10p9p8------------|
-------------------------------------------------|--------------------|
-------------------------------------------------|--------------------|
-------------------------------------------------|--------------------|

w/ bar   w/ barw/ bar      P.dive w/ bar
------------------------------------||--------------------------------|
------------------------------------||--------------------------------|
-/9p(7)-/9----/6------------\\------||--------------------------------|
------------------------x-----------||--------------------------------|
---------------------x--------------||--------------------------------|
------------------------------------||--------------------------------|

In the background, another guitar is playing:

e------------------|-----------------|----------------|------0-----------|
B----------2-------|------0--0-------|------0--0------|----2-----2-------|
G--------2---2-----|----4------4-----|----4------4----|--4---------4-----|
D------2-----------|--2--------------|--2----------0--|------------------|
A----4----------0--|-----------------|----------------|------------------|
E--2---------------|--------------0--|----------------|------------------|

Until 5:14, then comes:

Riff 3
e-------------------------------------------|
B-------------------------------------------|
G-------------------------------------------|
D---------2-2-2--4-4-4--5-------------------|
A--4-4-4--0-0-0--2-2-2--3--2--3-------------|
E--2-2-2-------------------0--1-------------|

Repeat 7 more times, then on the 8th time, play:

e-------------------------------------------|
B-------------------------------------------|
G-------------------------------------------|
D---------2-2-2--4-4-4--5--------5----------|
A--4-4-4--0-0-0--2-2-2--3--2--3--3--2--3----|
E--2-2-2-------------------0--1-----0--1----|

Then:

Riff 1
e----------------------------------|
B----------------------------------|
G----------------------------------|
D--2--2-2-2-2---------------9------|
A--0--0-0-0-0--7-6-7--8-7-8---7-8--|
E----------------------------------|

e-------------------------------------------|
B-------------------------------------------|
G-------------------------------------------|
D--2--2-2-2-2-------------------------------|
A--0--0-0-0-0--7-6-7--8-6-7---6-------------|
E---------------------------8---7~~---------|

e----------------------------------|
B----------------------------------|
G----------------------------------|
D---------------9------------------|
A--7-6-7--8-7-8---7-8--------------|
E----------------------------------|

e-------------------------------------------|
B-------------------------------------------|
G-------------------------------------------|
D--2--2-2-2-2-------------------------------|
A--0--0-0-0-0--7-6-7--8-6-7---6-------------|
E---------------------------8---7~~---------|

e----------------------------------|
B----------------------------------|
G----------------------------------|
D--2--2-2-2-2---------------9------|
A--0--0-0-0-0--7-6-7--8-7-8---7-8--|
E----------------------------------|

e---------------------------------------|
B---------------------------------------|
G---------------------------------------|
D--2--2-2-2-2---------5--------5--------|
A--0--0-0-0-0--7-6-7--3--2--3--3--2--3--|
E------------------------0--1-----0--1--|

Then:

6:14
e----------------------------------|
B----------------------------------|
G----------------------------------|
D--2--2-2-2-2----------------------|
A--0--0-0-0-0--7-6-7~~~~~~---------|
E----------------------------------|

e-------------------------------------------|
B-------------------------------------------|
G-------------------------------------------|
D--2--2-2-2-2------------9~~----------------|
A--0--0-0-0-0--7-6-7--8---------------------|
E-------------------------------------------|



			------------------------------------------------------
					6. DOMINATION
			------------------------------------------------------

e|-----------------------------------------------------------------------|2x
B|-------------------------------------------------------------------------|
G|-------------------------------------------------------------------------|
D|-------9-\--7---9--------9--\--7---9-------9--\--7---9-------------------|
A|-------7-\--5---7--------7--\--5---7-------7--\--5---7-----5--/--7----5--|
E|---0-----------------0------------------0---------------0--3--/--5----3--|
     PM                PM                 PM                PM  
e|-----------------------------------------------------------------------|2x
B|-------------------------------------------------------------------------|
G|-------------------------------------------------------------------------|
D|-------9-\--7---9---------9--\--7---9------9--\--7---9-------------------|
A|-------7-\--5---7---------7--\--5---7------7--\--5---7-----5--\--7---5---|
E|--000---------------000---------------000-------------000--3--\--5---3---|
    PM                PM                PM                PM 
e|-----------------------------------------------------------------------|2x
B|-------------------------------------------------------------------------|
G|-------------------------------------------------------------------------|
D|-------9-\--7---9--------9--\--7---9-------9--\--7---9-------------------|
A|-------7-\--5---7--------7--\--5---7-------7--\--5---7-----5--/--7----5--|
E|---0-----------------0------------------0---------------0--3--/--5----3--|
     PM                PM                 PM                PM  

e|-------------------------------------------------------------------------|
B|-------------------------------------------------------------------------|
G|-------------------------------------------------------------------------|
D|-------9-\--7---9---------9--\--7---9------9--\--7---9-------------------|
A|-------7-\--5---7---------7--\--5---7------7--\--5---7-----5--\--7---5---|
E|--000---------------000---------------000-------------000--3--\--5---3---|
    PM                PM                PM                PM 

e|-------------------------------------------------------------------------|
B|-------------------------------------------------------------------------|
G|-------------------------------------------------------------------------|
D|-------9-\--7---9---------9--\--7---9------444--555--666--7--------------|
A|-------7-\--5---7---------7--\--5---7------222--333--444--5--------------|
E|--000---------------000--------------------------------------------------|
    PM		       PM		      |      PM    |              
e|-------------------------------------------------------------------------|
B|-------------------------------------------------------------------------|
G|-------------------------------------------------------------------------|
D|-------------------------------------------------------------------------|
A|-------2---------2---------2---------------------------------------------|
E|--0000-0----0000-0----0000-0------77---66---55---33---2---1--------------|
     PM        PM        PM        |            PM           | 
e|-------------------------------------------|
B|-------------------------------------------|
G|-------------------------------------------|
D|-------------------------------------------|      Double Bass Action
A|-------2---------2---------2-----------2---|
E|--0000-0----0000-0----0000-0------0000-0---|
         PM        PM        PM          PM

e|-------------------------------------------------------------------------|
B|-------------------------------------------------------------------------|
G|-------------------------------------------------------------------------|
D|-------------------------------------------------------------------------|
A|-------2---------2---------2---------------------------------------------|
E|--0000-0----0000-0----0000-0------77---66---55---33---2---1--------------|
     PM        PM        PM        |            PM           | 
e|-------------------------------------------------------------------------|
B|-------------------------------------------------------------------------|
G|-------------------------------------------------------------------------|
D|-------------------------------------------------------------------------|
A|-------2---------2---------2-----------2---------------------------------|
E|--0000-0----0000-0----0000-0------0000-0--------0000-6---00-6------------|
     PM        PM        PM          PM            PM      PM                 
e|-------------------------------------------------------------------------|
B|-------------------------------------------------------------------------|
G|-------------------------------------------------------------------------|
D|-------------------------------------------------------------------------|
A|-------2---------2---------2---------------------------------------------|
E|--0000-0----0000-0----0000-0------77---66---55---33---2---1--------------|
     PM        PM        PM        |            PM           | 
e|-------------------------------------------------------------------------|
B|-------------------------------------------------------------------------|
G|-------------------------------------------------------------------------|
D|--5-----------7--------------12-----------10----------12-----------------|
A|--3-----5-----5--------------10-----------8---------10---9--8--7--6-5-4--|
E|--------3------------0000--0------0000--0-----0000--0----7--6--5--4-3-2--|
                      |  PM  |     |  PM   |   |   PM  |    |      PM      |
e|-------------------------------------------------------------------------|
B|-------------------------------------------------------------------------|
G|-------------------------------------------------------------------------|
D|--5--------------------------12-----------10--------7----2--4--5--7-9-10-|
A|--3-----5-----3--------------10-----------8---------5----0--2--3--5-7-8--|
E|--------3-----1------0000--0------0000--0-----0000--0--------------------|
                      |  PM  |     |  PM   |   |   PM  |    |      PM      | 
e|-----------------------------------------------------------------------|2x
B|-------------------------------------------------------------------------|
G|-------------------------------------------------------------------------|
D|-------9-\--7---9--------9--\--7---9-------9--\--7---9-------------------|
A|-------7-\--5---7--------7--\--5---7-------7--\--5---7-----5--/--7----5--|
E|---0-----------------0------------------0---------------0--3--/--5----3--|
     PM                PM                 PM                PM  
e|-------------------------------------------------------------------------|
B|-------------------------------------------------------------------------|
G|-------------------------------------------------------------------------|
D|-------9-\--7---9---------9--\--7---9------9--\--7---9-------------------|
A|-------7-\--5---7---------7--\--5---7------7--\--5---7-----5--\--7---5---|
E|--000---------------000---------------000-------------000--3--\--5---3---|
    PM                PM                PM                PM 
e|-------------------------------------------------------------------------|
B|-------------------------------------------------------------------------|
G|-------------------------------------------------------------------------|
D|-------9-\--7---9---------9--\--7---9------9--\--7---9--444--555--666--7-|
A|-------7-\--5---7---------7--\--5---7------7--\--5---7--222--333--444--5-|
E|--000---------------000---------------000--------------------------------|
    PM                PM                PM                 |      PM     |

e|-------------------------------------------------------------------------|
B|-------------------------------------------------------------------------|
G|-------------------------------------------------------------------------|
D|-------------------------------------------------------------------------|
A|-------2---------2---------2---------------------------------------------|
E|--0000-0----0000-0----0000-0------77---66---55---33---2---1--------------|
     PM        PM        PM        |            PM           | 
e|-------------------------------------------|
B|-------------------------------------------|
G|-------------------------------------------|
D|-------------------------------------------|      Double Bass Action
A|-------2---------2---------2-----------2---|
E|--0000-0----0000-0----0000-0------0000-0---|
         PM        PM        PM          PM
e|-------------------------------------------------------------------------|
B|-------------------------------------------------------------------------|
G|-------------------------------------------------------------------------|
D|-------------------------------------------------------------------------|
A|-------2---------2---------2---------------------------------------------|
E|--0000-0----0000-0----0000-0------77---66---55---33---2---1--------------|
     PM        PM        PM        |            PM           | 
e|-------------------------------------------------------------------------|
B|-------------------------------------------------------------------------|
G|-------------------------------------------------------------------------|
D|-------------------------------------------------------------------------|
A|-------2---------2---------2-----------2---------------------------------|
E|--0000-0----0000-0----0000-0------0000-0--------0000-6---00-6------------|
     PM        PM        PM          PM            PM     PM                
e|-------------------------------------------------------------------------|
B|-------------------------------------------------------------------------|
G|-------------------------------------------------------------------------|
D|-------------------------------------------------------------------------|
A|-------2---------2---------2---------------------------------------------|
E|--0000-0----0000-0----0000-0------77---66---55---33---2---1--------------|
     PM        PM        PM        |            PM           | 
e|-------------------------------------------------------------------------|
B|-------------------------------------------------------------------------|
G|-------------------------------------------------------------------------|
D|--5-----------7--------------12-----------10---------12------------------|
A|--3-----5-----5--------------10-----------8----------10--9--8--7--6-5-4--|
E|--------3------------0000--0------0000--0-----0000--0----7--6--5--4-3-2--|
                      |  PM  |     |  PM   |   |   PM  |    |      PM      |
e|-------------------------------------------------------------------------|
B|-------------------------------------------------------------------------|
G|-------------------------------------------------------------------------|
D|--5--------------------------12-----------10----------7--2--4--5--7-9-10-|
A|--3-----5-----3--------------10-----------8-----------5--0--2--3--5-7-8--|
E|--------3-----1------0000--0------0000--0-----0000--0--------------------|
                      |  PM  |     |  PM   |   |   PM  |    |      PM   | 
e|-----------------------------------------------------------------------|2x
B|-------------------------------------------------------------------------|
G|-------------------------------------------------------------------------|
D|-------9-\--7---9--------9--\--7---9-------9--\--7---9-------------------|
A|-------7-\--5---7--------7--\--5---7-------7--\--5---7-----5--/--7----5--|
E|---0-----------------0------------------0---------------0--3--/--5----3--|
     PM                PM                 PM                PM  
e|-------------------------------------------------------------------------|
B|-------------------------------------------------------------------------|
G|-------------------------------------------------------------------------|
D|-------9-\--7---9---------9--\--7---9------9--\--7---9-------------------|
A|-------7-\--5---7---------7--\--5---7------7--\--5---7-----5--\--7---5---|
E|--000---------------000---------------000-------------000--3--\--5---3---|
    PM                PM                PM                PM 
e|-------------------------------------------------------------------------|
B|-------------------------------------------------------------------------|
G|-------------------------------------------------------------------------|
D|-------9-\--7---9---------9--\--7---9------9--\--7---9--444--555--666--7-|
A|-------7-\--5---7---------7--\--5---7------7--\--5---7--222--333--444--5-|
E|--000---------------000---------------000--------------------------------|
    PM                PM                PM                 |      PM     |
E|------------------------------------------------------------------------| 
B|------------------------------------------------------------------------| 
G|------------------------------------------------------------------------| 
D|----7--/w/--------------9-------------9------------9---------9----------| 
A|----5--/w/--------------7-------------7------------7------------7-------| 
E|------------------0000----00----0000----00---0000----00---0000----00----|
                     PM     PM     PM     PM    PM     PM    PM     PM
e|------------------------------------------------------------------------| 
B|---------------------------------------------------------------12-------| 
G|---------------------------------------------------------------13-/B/---| 
D|---12--------10---------4----------12-------10--------7-----------------| 
A|---10--------8----------2----------10-------8---------5-----------------| 
E|------------------------------------------------------------------------|
 Solo
e|-13p12-13--16--13p12-13p12----12-13p12-13p12----12----------------------| 
B|---------------------------15-------------15----15p13p12----13p12---12--| 
G|---------------------------------------------------------14-------14--13| 
D|------------------------------------------------------------------------| 
A|------------------------------------------------------------------------| 
E|------------------------------------------------------------------------|
 
e|------------------------------------------------------------------------| 
B|------------------------------------------------------------------------| 
G|----9-~------------9-10-~---------------------------------------12h15h18| 
D|--------------9-10----------------------12h15h18--------12h15h18--------| 
A|-----------------------------------12h15h18-----12h15h18----------------| 
E|-0-------0-----------------12h15h18-------------------------------------|
   PM      PM
e|-----------------12h15h18p15p12h15-12h15h19p15p12h15-|22-22-22-22-18-15-| 
B|12h15h18p15p12h15------------------------------------|------------------| 
G|-----------------------------------------------------|-------(4x)-------| 
D|-----------------------------------------------------|------------------| 
A|-----------------------------------------------------|------------------| 
E|-----------------------------------------------------|------------------| 
e|-21-21-21-21-18-15--|4x  e|--22B--22B-22B-~---20b-~-----|
B|--------------------|    B|-----------------------------|
G|--------------------|    G|-----------------------------|
D|--------------------|    D|-----------------------------|
A|--------------------|    A|-----------------------------|
E|--------------------|    E|-----------------------------|

e|-19-20-17-19----17-------------------------------------17.16.15.14.--| 
B|-------------20----19-20-17-~--19-20-17-19-20-17-19-~----------------| 
G|---------------------------------------------------------------------| 
D|---------------------------------------------------------------------| 
A|---------------------------------------------------------------------| 
E|---------------------------------------------------------------------| 

e|-15p14p13-14p13p12----12-15b-12-----------------------------------------| 
B|-------------------15-----------15-17-~---------------------------------| 
G|--------------------------------------------------------0---------------| 
D|---------------------------------------------9B--------------0----------| 
A|----------------------------------------------------------------3B------| 
E|------------------------------------------------------------------------| 
   Very Fast Part                                    (bar bends)
e|-----------------------------------------------------------------------| 
B|--------------------------78107810|8101181011|121415121415|141517141517| 
G|--------------------579579---------------------------------------------| 
D|-------457457|579579---------------------------------------------------| 
A|-357357----------------------------------------------------------------| 
E|-----------------------------------------------------------------------| 

e|------------151719151719|171920171920|192022192022--22B--22B-----------| 
B|151719151719---------------------------------------------22B-----------| 
G|-----------------------------------------------------------------------| 
D|-----------------------------------------------------------------------| 
A|-----------------------------------------------------------------------| 
E|-----------------------------------------------------------------------| 

e|---------------------------------------------------------------------|8x 
B|-----------------------------------------------------------------------| 
G|----------------------------(All PM)-----------------------------------| 
D|-----------------------------------------------------------------------| 
A|-2-2-2--2-2-2--2-2-2--2-2-2---------2-2-2--2-2-2--2-2-2--2-2-2---------| 
E|-0-0-0--0-0-0--0-0-0--0-0-0---------0-0-0--0-0-0--0-0-0--0-0-0---------| 
After 4x of this^ End Solo
e|-17131213-|-16131213-|-17131213-|-16131213-|-16161312-17171413-18181514-| 
B|----------|----------|----------|----------|----------------------------| 
G|----8x----|----8x----|----8x----|----8x----|----------------------------| 
D|----------|----------|----------|----------|----------------------------| 
A|----------|----------|----------|----------|----------------------------| 
E|----------|----------|----------|----------|----------------------------| 

e|-19191615-20201716-21211817-22B-22B-| 
B|------------------------------------| 
G|------------------------------------| 
D|------------------------------------| 
A|------------------------------------| 
E|------------------------------------|

e|------------------------------------------------------------------------| 
B|------------------------------------------------------------------------| 
G|------------------------------------------------------------------------|
D|------------------------------------------------------------------------| 
A|-4-4--4-4--4-4--4-4--4-4--4-4--4-4--4-4--2-2-2--2-2-2--2-2-2------------| 
E|-2-2--2-2--2-2--2-2--2-2--2-2--2-2--2-2--0-0-0--0-0-0--0-0-0------------| 

e|------------------------------------------------------------------------| 
B|------------------------------------------------------------------------| 
G|------------------------------------------------------------------------| 
D|------------------------------------------------------------------------| 
A|-4-4--4-4--4-4--4-4--4-4--4-4--4-4--4/5--2-2-2--2-2-2--2-2-2------------| 
E|-2-2--2-2--2-2--2-2--2-2--2-2--2-2--2/3--0-0-0--0-0-0--0-0-0------------| 

e|------------------------------------------------------------------------| 
B|------------------------------------------------------------------------| 
G|------------------------------------------------------------------------| 
D|------------------------------------------------------------------------| 
A|-4-4--4-4--4-4--4-4--4-4--4-4--4-4--4-4--2-2-2--2-2-2--2-2-2------------| 
E|-2-2--2-2--2-2--2-2--2-2--2-2--2-2--2-2--0-0-0--0-0-0--0-0-0------------|

e|------------------------------------------------------------------------| 
B|------------------------------------------------------------------------| 
G|------------------------------------------------------------------------|
D|------------------------------------------------------------------------| 
A|-4-4--4-4--4-4--4-4--4-4--4-4--4-4--4/5--2-2-2--2-2-2--2-2-2------------| 
E|-2-2--2-2--2-2--2-2--2-2--2-2--2-2--2/3--0-0-0--0-0-0--0-0-0------------|


			------------------------------------------------------
					7. SHATTERED
			------------------------------------------------------

-------9--------------9--------------9---------------9------------------------
-----------12p9----------12p9------------12p9-----------12p9--12b-------------
--11b-----------11b------------11b-------------11b----------------------------
------------------------------------------------------------------------------
------------------------------------------------------------------------------
------------------------------------------------------------------------------


-9-------------9-------------9-------------------12p9-11p9----9-12p9-11p9-----
----12p9--12b-----12p9--12b-----12p9--12b------------------11-----------------
------------------------------------------------------------------------------
------------------------------------------------------------------------------
------------------------------------------------------------------------------
------------------------------------------------------------------------------


----9-12p11p9-----9-/14p12p11----11-------------------------------------------
-11------------12-------------14----14--11br9----9----------------------------
----------------------------------------------12---12p9-11p9------------------
-------------------------------------------------------------11---------------
----------------------------------------------------------------10v-----------
------------------------------------------------------------------------------


------------------------------------------------------------------------------
----------------------------------------------14b17b14b17b14------------------
--/12-11-13-13-11-12-12-11-13-13-11-12-12-11----------------------------------
---------------------------------------------------------------13-------------
-------------------------------------------------------------------12v--------
------------------------------------------------------------------------------
I dont know if this is right

------------------------------------------------------------------------------
-----------------------------------12h15p12-------/17-14h15p14----------------
------------------------12h14p12--------------14---------------16-14----------
-------------12h14p12---------------------------------------------------------
--12h14p12--------------------------------------------------------------------
------------------------------------------------------------------------------
This is the part I'm not too sure about

--------------------14h15h17/19p17p15-----------------------------------------
----14h15h17p15p14---------------------19-17b---------------------------------
------------------------------------------------------------------------------
------------------------------------------------------------------------------
------------------------------------------------------------------------------
------------------------------------------------------------------------------


----------------------------------/13-13-----11-------14-14----12-------------
-9b--------------------12----12v---------14------/12--------15----------------
-9b----------9h11p9\8-----8---------------------------------------------------
----11p9-11-------------------------------------------------------------------
------------------------------------------------------------------------------
------------------------------------------------------------------------------


------16-16------14-----------------------------------------------------------
-/14---------17------14v------------------------------------------------------
------------------------------------------------------------------------------
------------------------------------------------------------------------------
------------------------------------------------------------------------------
------------------------------------------------------------------------------


---------14h16p14----14----------17p16p14h16p14----14-------------------------
----17b-----------17----17p16p14----------------17----17p16p14h16p14----------
------------------------------------------------------------------------------
------------------------------------------------------------------------------
------------------------------------------------------------------------------
------------------------------------------------------------------------------


------------------------------------------------------------------------------
----14*15-13*14-12*13-13*14------14*15-----14----------17p16p14h16p14---------
-17--------------------------17---------17----17p16p14------------------------
------------------------------------------------------------------------------
------------------------------------------------------------------------------
------------------------------------------------------------------------------
the * means trill

-----------------16-16--------------------------------------------------------
----14-----------------17p14--------------------------------------------------
-17----17p16p14---------------------------------------------------------------
------------------------------------------------------------------------------
------------------------------------------------------------------------------
------------------------------------------------------------------------------
reapeat this a few times using fast picking


			------------------------------------------------------
					8. CLASH WITH REALITY
			------------------------------------------------------

1||------------------|-----------------|-----------------|-----------------|
2||------------------|-----------------|-----------------|-----------------|
3||------------------|-----------------|-----------------|-----------------|
4||------------------|-----------------|-----------------|-----------------|
5||------------------|-----------------|-5-4-2-------5-4-|-2-------4-5-4-2-|
6||-2-4~--2-4~--2-4~-|---2-4~--2-5-4-2-|-------2~--------|---3~------------|


1||------------------|-----------------|-----------------|------------------||
2||------------------|-----------------|-----------------|------------------||
3||------------------|-----------------|-6-4-------------|------------------||
4||------------------|-----------------|-----6-4~----6-4-|--------A.H-------||
5||------------------|-----------------|-----------------|-6-5~---<4>b5r4-2-||
6||-2-4~--2-4~--2-4~-|---2-4~--2-5-4-2-|-----------------|------------------||

   2nd Ending
1||-------------||-----------------|-----------------|----------------|---------------|
2||-------------||-----------------|-----------------|----------------|---------------|
3||-------7--7--||-----------------|-----------------|----------------|---------------|
4||-------7--7--||-----------------|-----------------|----------------|---------------|
5||-6-5~--5--5--||-----------------|-----------------|-554-2------554-|-2-----445-4-2-|
6||-------------||-444-2/4~--2-444-|-2/4~--2-445-4-2-|-------2~-------|---3~----------|


1||------------------|-----------------|-----------------|-----------------||
2||------------------|-----------------|-----------------|-----------------||
3||------------------|-----------------|-6-4-------------|---------7---7---||
4||------------------|-----------------|-----6-4~----6-4-|---------7---7---||
5||------------------|-----------------|-----------------|-6-5~----5---5---||
6||-44442/4~--2-4444-|-2/4~--2-445-4-2-|-----------------|-----------------||


1||-----|----|-----------------|-----------------|-----|----|-----------------|
2||-----|----|-----------------|-----------------|-----|----|-----------------|
3||-----|----|-----------------|---------7---7---|-----|----|-6-4-------------|
4||-6---|----|-7-6-4-------7-6-|-4-------7---7---|-6---|----|-----6-4~----6-4-|
5||-6---|----|-5-4-2-4-----5-4-|-2-5-----5---5---|-6---|----|-----------------|
6||-4---|----|-------2---------|---3-------------|-4---|----|-----------------|

            |---------Artificial Harmonics---------|
1||-----------------|----------------|-----------------||-----------------|
2||-----------------|----------------|-----------------||-----------------|
3||-----------------|----------4-----|-6-----4-----5---||-----------------|
4||---------------4-|----6-----------|-----------------||-----------------|
5||-6-5~----6-------|----------------|-----------------||-4/6---4/6---4/6-|
6||-----------------|----------------|-----------------||-2/4---2/4---2/4-|


1||------------------|-----------------||-----------------|-----------------||
2||------------------|-----------------||-----------------|-----------------||
3||------------------|-----------------||-----------------|-7---7---7---7---||
4||------------------|-----------------||-7---------------|-7---7---7---7---||
5||---4/6---4/6---4/-|/6---4/6---4/6---||-7---------------|-5---5---5---5---||
6||---2/4---2/4---2/-|/4---2/4---2/4---||-5---------------|-----------------||


1||-----------------|-----------------|-----------------|-----------------||
2||-----------------|-----------------|-----------------|-----------------||
3||-----------------|-----------------|-----------------|-----------------||
4||-----------------|-----------------|-----------------|-----------------||
5||-6/8-------------|-----------------|-6/8---6/8---6/8-|---6/8---6/8-----||
6||-4/6-6-6-6-6-6-6-|-6-6-6-6-6-6-6-6-|-4/6---4/6---4/6-|---4/6---4/6-----||


1||-----------------|-----------------|-----------------|-----------------||
2||-----------------|-----------------|-----------------|-----------------||
3||-----------------|-----------------|-----------------|-----------------||
4||-4/6-------------|-----------------|-----------------|---------2-------||
5||-2/4-4-4-4-4-4-4-|-4-4-4-4-4-4-4-4-|-2h4-4-2h4-4-2h4-|-4-2h4-4---5~----||
6||-----------------|-----------------|-----------------|-----------------||

   (Also played beneath solo)
1||-----------------|-----------------|-----------------|-----------------|
2||-----------------|-----------------|-----------------|-----------------|
3||---------12-\----|---------11-\----|---------12-\----|-----------------|
4||---------12-\----|---------11-\----|---------12-\----|-----------------|
5||---------10-\----|----------9-\----|---------10-\----|-----5---7---5---|
6||-0-0-------------|-0-0-----------0-|-0-0-------------|---7---7---7---7-|


1||--------------|---------------|--------------|-----------------||-----------------||
2||--------------|---------------|--------------|-----------------||-----------------||
3||-------12-\---|-------11-\----|-------10-\---|-----------------||-----------------||
4||-------12-\---|-------11-\----|-------10-\---|-----------------||-----5-------7---||
5||-------10-\---|--------9-\----|--------8-\---|-----1---3---1---||-23333---35555---||
6||-0-0----------|-0-0---------0-|-0-0----------|---3---3---3---3-||-----------------||


1||-------------------|------------------|------------------|-----------------|
2||-------------------|------------------|------------------|-----------------|
3||---------12-\----9-|--------11-\----9-|--------12-\----9-|-----------------|
4||---------12-\----9-|--------11-\----9-|--------12-\----9-|-----------------|
5||---------10-\----7-|---------9-\----7-|--------10-\----7-|-----5---7---5---|
6||-00000000----------|--000000----------|--000000----------|---7---7---7---7-|


1||-------------------|------------------|------------------|-----------------||
2||-------------------|------------------|------------------|-----------------||
3||---------12-\----9-|--------11-\----9-|--------10-\----9-|-----------------||
4||---------12-\----9-|--------11-\----9-|--------10-\----9-|-----------------||
5||---------10-\----7-|---------9-\----7-|---------8-\----7-|-----1---3---1---||
6||-00000000----------|--000000----------|--000000----------|---3---3---3---3-||


1||-----|-------------------|-------------------|
2||-----|-------------------|-------------------|
3||-9---|-------------------|-------------------|
4||-9---|-------------------|-------------------|
5||-7---|-3--3--3--5--5--5--|-3--3--3--5--5--5--|
6||-----|-1--1--1--3--3--3--|-1--1--1--3--3--3--|


1||-----------------|----------------|----------------|-----------------|
2||-----------------|----------------|----------------|-----------------|
3||-----------------|----------------|----------------|-----------------|
4||-----------------|----------------|----------------|-----------------|
5||---------6\----2-|--------4\----2-|--------6\----2-|---3-------5-----|
6||-0-0000003\----0-|--0000003\----0-|--0000003\----0-|---1-------3-----|


1||-----------------|----------------|-----------------|-----------------||
2||-----------------|----------------|-----------------|-----------------||
3||-----------------|----------------|-----------------|-----------------||
4||-----------------|----------------|-----------------|-----------------||
5||---------6\----2-|--------4\----2-|-5-----5-----5---|---7---7---8---8-||
6||-000000003\----0-|--0000003\----0-|-3-3-3-3-3-3-3-3-|-5-5-5-5-6-6-6-6-||


1||-----------------|----------------|-----------------|------------------|
2||-----------------|----------------|-----------------|------------------|
3||-----------------|----------------|-----------------|------------------|
4||-----------------|----------------|-----------------|---8-------10-----|
5||-2-------6\------|-2-------4\-----|-2-------6\------|---9-------11-----|
6||-0-0-0-0-3\------|-0-0-0-0-3\-----|-0-0-0-0-3\------|---6--------8-----|


1||-----------------|----------------|-----------------|------------------|
2||-----------------|----------------|-----------------|------------------|
3||-----------------|----------------|-----------------|------------------|
4||-----------------|----------------|-----------------|------------------|
5||-2-------6\------|-2-------4\-----|-5-----5-----5---|------------------|
6||-0-0-0-0-3\------|-0-0-0-0-3\-----|-3-3-3-3-3-3-3-3-|-5555555566666666-|


1||-----------------|----------------|----------------|-----------------|
2||-----------------|----------------|----------------|-----------------|
3||-----------------|----------------|----------------|-----------------|
4||-----------------|----------------|----------------|-----------------|
5||---------6\----2-|--------4\----2-|--------6\----2-|---3-------5-----|
6||-0-0-00003\----0-|--0-00003\----0-|--0-00003\----0-|---1-------3-----|


1||-----------------|----------------|-----------------|------------------|------||
2||-----------------|----------------|-----------------|------------------|------||
3||-----------------|----------------|-----------------|------------------|------||
4||-----------------|----------------|-----------------|------------------|------||
5||---------6\----2-|--------4\----2-|-5-----5-----5---|------------------|-2----||
6||-0-0-00003\----0-|--0-00003\----0-|-3-3-3-3-3-3-3-3-|-5555556666665555-|-0----||



			------------------------------------------------------
					9. MEDICINE MAN
			------------------------------------------------------


   Intro and chorus
1||-----------------|-----------------||-----------------|-----------------||
2||-----------------|-----------------||-----------------|-----------------||
3||-----------------|-------___N.H___-||-----------------|-----------------||
4||-----------------|-------5-5-5-5-5-||-----------------|-----------------||
5||-0-0-0-0-0-0-0-2-|---3-------------||-------2p0-3-----|-----2p0-3-------||
6||-0-0-0-0-0-0-0-2-|---3-------------||-0-2-3---------0-|-2-3-------------||

   Ending                         Fill 1 (Two guitars)
1||-----------------|-----------||--------------------|--------------------------||
2||-----------------|-----------||-4-6-7-4h5p4--4-----|--------------------------||
3||-----------------|-----------||-5-7-8-5h7p57-5-5-7-|-3h5p3\2-3-2h3p2\0---2----||
4||-----------------|-----------||------------8---7-8-|-5h7p5\3-5-3h5p3\1---3-3~-||
5||-0-0-0-0-0-0-0-2-|---3---4-5-||--------------------|-----------------------5~-||
6||-0-0-0-0-0-0-0-2-|---3---4-5-||--------------------|--------------------------||

                                        Verse
1||-----------------|-----------------||---------|--------|---------|--------||
2||-----------------|-----------------||---------|--------|---------|--------||
3||-----------------|-----------------||-7-------|--------|-7-------|--------||
4||-7-----5-----4---|-----2-----------||---------|--------|---------|--------||
5||-5-----3-----2---|-----0---5-3-----||-4-------|--------|-5-------|--------||
6||-0---------------|---------5-3-----||---------|--------|---------|--------||

   Verse ending               Solo
1||-----------------||------||------|------||
2||-----------------||------||------|------||
3||-----------------||------||------|------||
4||-----4---4-------||-0----||-6----|-0----||
5||-3-5-2---2-3~----||-0----||-6----|-0----||
6||-3-5-------3~----||-0----||-6----|-0----||

   End of solo
1||-----------------|-----------------|-----------------|-----------------|
2||-----------------|-----------------|-----------------|-----------------|
3||-----------------|-----------------|-----------------|-----------------|
4||-----------------|-----------------|-----------------|-----------------|
5||-6---------6-----|---6-------6-6-6-|-6---------6-----|---6-------6-6-6-|
6||-6-----6-6-6---6-|-6-6---6-6-6-6-6-|-6-----6-6-6---6-|-6-6---6-6-6-6-6-|


1||-----------------|-----------------|-----------------|------------------||
2||-----------------|-----------------|-----------------|------------------||
3||-----------------|-----------------|-----------------|------------------||
4||-----------------|-----------------|-----------------|------------------||
5||-8---------8-----|---8-------8-8-8-|-9---------9-----|---10-------5-\-3-||
6||-8-----8-8-8---8-|-8-8---8-8-8-8-8-|-9-----9-9-9---9-|-9-10-------5-\-3-||

   Fill 2 (Two guitars)
1||--------------------|------------------||
2||-4-6-7-4h5p4--4-----|------------------||
3||-5-7-8-5h7p57-5-5-7-|-3-5---3----------||
4||------------8---7-8-|-5-7-7-5-5-7-3~---||
5||--------------------|-----8---6-8-5~---||
6||--------------------|------------------||

   Outro solo
1||-----------------|-----------------||-----------------|-----------------||
2||-----------------|-----------------||-----------------|-----------------||
3||-----------------|-----------------||-----------------|-----------------||
4||-----------------|-----------------||-----------------|-----------------||
5||-6---------6-----|---6-------6-6-6-||-0---------------|-----------0-0-0-||
6||-6-----6-6-6---6-|-6-6---6-6-6-6-6-||-0-----0-0-0-0-0-|-0-0-0-0-0-0-0-0-||



			------------------------------------------------------
					9. MESSAGE IN BLOOD
			------------------------------------------------------



     |---3--|  |---3--|  |---3--|  |---3--|   
     E   E  E  E   E  E  E   E  E  E   E  E   
E||------------------------------------------|
B||------------------------------------------|
G||------------------------------------------|
D||--8S--7-----8S--7-----8S--7-----8S--7-----|
A||--6S--5-----6S--5-----6S--5-----6S--5-----|
E||---------6---------6---------6---------6--|


  |---3--|  |---3--|  |---3--|  |---3--|                                 
  E   E  E  E   E  E  E   E  E  E   E  E     E  S S E  S S E  E  S S E   
------------------------------------------|-----------------------------|
------------------------------------------|-----------------------------|
------------------------------------------|-----------------------------|
--8S--7-----7S--6-----6S--5-----5S--4-----|-----------------------------|
--6S--5-----5S--4-----4S--3-----3S--2-----|-----------------------------|
---------6---------5---------4---------3--|--1--1-1-1--1-1-1--1--1-1-1--|


  S S E  E  S S E  S S E  E     S S E  S S E     E  E  E  E  E  E  E  E   
-----------------------------|----------------|--------------------------|
-----------------------------|----------------|--------------------------|
-----------------------------|----------------|--------------------------|
-----------------------------|----------------|--------------------------|
-----------------------------|----------------|--5--5--3--5--5--3--5--5--|
--1-1-1--1--1-1-1--1-1-1--1--|--1-1-1--1-1-1--|--3--3--1--3--3--1--3--3--|


  E  E  E  E  E  E  E  E     E  E  E  E  E  E  E  E   
--------------------------|--------------------------|
--------------------------|--------------------------|
--------------------------|--------------------------|
--------------------------|--5--4-----4--5--4--5--4--|
--3--5--5--3--5--5--3--5--|--3--2-----2--3--2--3--2--|
--1--3--3--1--3--3--1--3--|--------3-----------------|


  E  E  E  E  E  E  E  E     E  E  E  E  E  E  E  E   
--------------------------|--------------------------|
--------------------------|--------------------------|
--------------------------|--------------------------|
-----4--5--4--5--4--------|--------------------------|
-----2--3--2--3--2--------|--5--5--3--5--5--3--5--5--|
--3-----------------3--1--|--3--3--1--3--3--1--3--3--|


  E  E  E  E  E  E  E  E     E  E  E  E  E  E  E  E     E  E  E  E   H          
--------------------------|--------------------------|-------------------------|
--------------------------|--------------------------|-------------------------|
--------------------------|--------------------------|-------------------------|
--------------------------|--4--3-----4--3-----4--3--|-----4--3----------------|
--3--5--5--3--5--5--3--5--|--2--1-----2--1-----2--1--|-----2--1-----10S--------|
--1--3--3--1--3--3--1--3--|--------3--------3--------|--3--------3-------------|


  E  E  E  E  E  E  E  E     E  E  E  E  E  E  E  E   
--------------------------|--------------------------|
--------------------------|--------------------------|
--------------------------|--------------------------|
--------------------------|--------------------------|
--5--5--3--5--5--3--5--5--|--3--5--5--3--5--5--3--5--|
--3--3--1--3--3--1--3--3--|--1--3--3--1--3--3--1--3--|


  E  E  E  E  E  E  E  E     E  E  E  E  E  E  E  E   
--------------------------|--------------------------|
--------------------------|--------------------------|
--------------------------|--------------------------|
--5--4-----4--5--4--5--4--|-----4--5--4--5--4--------|
--3--2-----2--3--2--3--2--|-----2--3--2--3--2--------|
--------3-----------------|--3-----------------3--1--|


  E  E  E  E  E  E  E  E     E  E  E  E  E  E  E  E   
--------------------------|--------------------------|
--------------------------|--------------------------|
--------------------------|--------------------------|
--------------------------|--------------------------|
--5--5--3--5--5--3--5--5--|--3--5--5--3--5--5--3--5--|
--3--3--1--3--3--1--3--3--|--1--3--3--1--3--3--1--3--|


  E  E  E  E  E  E  E  E     E  E  E  E   H          
--------------------------|-------------------------|
--------------------------|-------------------------|
--------------------------|-------------------------|
--4--3-----4--3-----4--3--|-----4--3----------------|
--2--1-----2--1-----2--1--|-----2--1-----10S--------|
--------3--------3--------|--3--------3-------------|


                PH                                         
  E  E  E  E    Q    E  E     E  E  S S S S S S S S E  E   
---------------------------|------------------------------|
---------------------------|------------------------------|
---------------------------|------------------------------|
--5-----------<>5----------|------------------------------|
--3--3--3--3---------------|--------3-2-----2-1-----------|
---------------------3--3--|--3--3------3-3-----3-3-2--2--|


          PH                                                     PH             
  E  E    Q    E  E  E  E     E  Q    Q    Q    E     E  E  E    Q    E  E  E   
---------------------------|-----------------------|---------------------------|
---------------------------|-----------------------|---------------------------|
------------------------4--|--L-------4------------|---------------------------|
--------<>4-------------4--|--L--6----4----6----5--|-----------<>5-------------|
---------------3--3--3-----|-----6---------6----3--|--3--3--3------------------|
--2--2---------1--1--1-----|-----------------------|------------------3--3--3--|


                                      PH                  
  E  S S S S S S S S E  E  E     E    Q    E  E  E  Q     
------------------------------|--------------------------|
------------------------------|--------------------------|
------------------------------|---------------------4----|
------------------------------|-----<>4-------------4----|
-----3-2-----2-1--------------|------------3--3--3-------|
--3------3-3-----3-3-2--2--2--|--2---------1--1--1-------|


                                  PH                
  Q    Q    Q    E  E     E  E    Q    E  E  E  E   
-----------------------|---------------------------|
-----------------------|---------------------------|
-------4---------------|---------------------------|
--6----4----6----5-----|--------<>5----------------|
--6---------6----3--3--|--3--3---------------------|
-----------------------|---------------3--3--3--3--|


                                   PH                     
  S S S S S S S S E  E  E  E       Q    E  E  E  Q    E   
------------------------------|--------------------------|
------------------------------|--------------------------|
------------------------------|------------------4-------|
------------------------------|--<>4-------------4----6--|
--3-2-----2-1-----------------|---------3--3--3-------6--|
------3-3-----3-3-2--2--2--2--|---------1--1--1----------|


                                PH                    
  E  Q    Q    E  E  E     E    Q    E  E  E  E  S S  
------------------------|----------------------------|
------------------------|----------------------------|
-----4------------------|----------------------------|
--L--4----6----5--------|-----<>5--------------------|
--L-------6----3--3--3--|--3---------------------3-2-|
------------------------|------------3--3--3--3------|


                            PH                                        
  S S S S S S E  E  E  E    E     E  E  E  E  Q    Q       Q    Q     
-------------------------------|------------------------|------------|
-------------------------------|------------------------|------------|
-------------------------------|--------------4---------|--4---------|
--------------------------<>4--|--L-----------4----6----|--4----6----|
------2-1----------------------|-----3--3--3-------6----|-------6----|
--3-3-----3-3-2--2--2--2-------|-----1--1--1------------|------------|


                      \6                                                        
  W                   W                   W                   W                 
-------------------|-------------------|-------------------|-------------------|
-------------------|-------------------|-------------------|-------------------|
-------------------|-------------------|-------------------|-------------------|
--1----------------|-------------------|-------------------|-------------------|
--3----------------|--0----------------|-------------------|-------------------|
-------------------|--2----------------|-------------------|-------------------|


  W                   E  E  E  E  E  E  E  E     E  E  E  E  Q    Q     
-------------------|--------------------------|------------------------|
-------------------|--------------------------|------------------------|
-------------------|--------------------------|------------------------|
-------------------|--4--3-----4--3-----4--3--|-----4--3---------------|
-------------------|--2--1-----2--1-----2--1--|-----2--1---------------|
-------------------|--------3--------3--------|--3--------3------------|


  W                   W                   H        E  E  E  E   
-------------------|-------------------|-----------------------|
-------------------|-------------------|-----------------------|
-------------------|-------------------|-----------------------|
-------------------|-------------------|-----------4--3-----4--|
-------------------|-------------------|-----------2--1-----2--|
-------------------|-------------------|-----------------3-----|


                                           PH          
  E  E  E  E  E  E  E  E     E  E  E  E    Q    E  E   
--------------------------|---------------------------|
--------------------------|---------------------------|
--------------------------|---------------------------|
--3-----4--3-----4--3-----|--5-----------<>5----------|
--1-----2--1-----2--1-----|--3--3--3--3---------------|
-----3--------3--------3--|---------------------3--3--|


          PH                    PH                      
  E  E    Q    E  E  E  E       Q    E  E  E  E  E  E   
---------------------------|---------------------------|
---------------------------|---------------------------|
---------------------------|---------------------------|
---------------------------|---------------------------|
--------<>5----4-----------|--<>4----3--3--3--3--3-----|
--3--3---------2--2--2--2--|---------1--1--1--1--1--0--|


                PH                    PH                
  E  E  E  E    Q    E  E     E  E    Q    E  E  E  E   
---------------------------|---------------------------|
---------------------------|---------------------------|
---------------------------|---------------------------|
--5-----------<>5----------|---------------------------|
--3--3--3--3---------------|--------<>5----4-----------|
---------------------3--3--|--3--3---------2--2--2--2--|


    PH                                      PH          
    Q    E  E  E  E  E  E     E  E  E  E    Q    E  E   
---------------------------|---------------------------|
---------------------------|---------------------------|
---------------------------|---------------------------|
---------------------------|--5-----------<>5----------|
--<>4----3--3--3--3--3-----|--3--3--3--3---------------|
---------1--1--1--1--1--0--|---------------------3--3--|


          PH                    PH                      
  E  E    Q    E  E  E  E       Q    E  E  E  E  E  E   
---------------------------|---------------------------|
---------------------------|---------------------------|
---------------------------|---------------------------|
---------------------------|---------------------------|
--------<>5----4-----------|--<>4----3--3--3--3--3-----|
--3--3---------2--2--2--2--|---------1--1--1--1--1--0--|


                PH                    PH                
  E  E  E  E    Q    E  E     E  E    Q    E  E  E  E   
---------------------------|---------------------------|
---------------------------|---------------------------|
---------------------------|---------------------------|
--5-----------<>5----------|---------------4--3-----4--|
--3--3--3--3---------------|--------<>5----2--1-----2--|
---------------------3--3--|--3--3---------------3-----|


  E  E  E  E  E  E  E  E      H           E  E  E  E  E  E  E  E   
---------------------------|-----------|--------------------------|
---------------------------|-----------|--------------------------|
---------------------------|-----------|--------------------------|
--3-----4--3-----4--3------|-----------|--------------------------|
--1-----2--1-----2--1------|-----------|--5--5--3--5--5--3--5--5--|
-----3--------3--------3~--|--L--------|--3--3--1--3--3--1--3--3--|


  E  E  E  E  E  E  E  E     E  E  E  E  E  E  E  E   
--------------------------|--------------------------|
--------------------------|--------------------------|
--------------------------|--------------------------|
--------------------------|--5--4-----4--5--4--5--4--|
--3--5--5--3--5--5--3--5--|--3--2-----2--3--2--3--2--|
--1--3--3--1--3--3--1--3--|--------3-----------------|


  E  E  E  E  E  E  E  E     E  E  E  E  E  E  E  E   
--------------------------|--------------------------|
--------------------------|--------------------------|
--------------------------|--------------------------|
-----4--5--4--5--4--------|--------------------------|
-----2--3--2--3--2--------|--5--5--3--5--5--3--5--5--|
--3-----------------3--1--|--3--3--1--3--3--1--3--3--|


  E  E  E  E  E  E  E  E     E  E  E  E  E  E  E  E     E  E  E  E   H          
--------------------------|--------------------------|-------------------------|
--------------------------|--------------------------|-------------------------|
--------------------------|--------------------------|-------------------------|
--------------------------|--4--3-----4--3-----4--3--|-----4--3----------------|
--3--5--5--3--5--5--3--5--|--2--1-----2--1-----2--1--|-----2--1-----10S--------|
--1--3--3--1--3--3--1--3--|--------3--------3--------|--3--------3-------------|


  E  E  E  E  E  E  E  E     E  E  E  E  E  E  E  E   
--------------------------|--------------------------|
--------------------------|--------------------------|
--------------------------|--------------------------|
--------------------------|--------------------------|
--5--5--3--5--5--3--5--5--|--3--5--5--3--5--5--3--5--|
--3--3--1--3--3--1--3--3--|--1--3--3--1--3--3--1--3--|


  E  E  E  E  E  E  E  E     E  E  E  E  E  E  E  E   
--------------------------|--------------------------|
--------------------------|--------------------------|
--------------------------|--------------------------|
--5--4-----4--5--4--5--4--|-----4--5--4--5--4--------|
--3--2-----2--3--2--3--2--|-----2--3--2--3--2--------|
--------3-----------------|--3-----------------3--1--|


  E  E  E  E  E  E  E  E     E  E  E  E  E  E  E  E   
--------------------------|--------------------------|
--------------------------|--------------------------|
--------------------------|--------------------------|
--------------------------|--------------------------|
--5--5--3--5--5--3--5--5--|--3--5--5--3--5--5--3--5--|
--3--3--1--3--3--1--3--3--|--1--3--3--1--3--3--1--3--|


  E  E  E  E  E  E  E  E     E  E  E  E  E  E  E  E   
--------------------------|--------------------------|
--------------------------|--------------------------|
--------------------------|--------------------------|
--4--3-----4--3-----4--3--|-----4--3-----4--3-----4--|
--2--1-----2--1-----2--1--|-----2--1-----2--1-----2--|
--------3--------3--------|--3--------3--------3-----|


                                                         PH          
  E  E  E  E  E  E  E  E      H            E  E  E  E    Q    E  E   
--------------------------|-------------|---------------------------|
--------------------------|-------------|---------------------------|
--------------------------|-------------|---------------------------|
--3-----4--3-----4--3-----|-------------|--5-----------<>5----------|
--1-----2--1-----2--1-----|--10S--------|--3--3--3--3---------------|
-----3--------3--------3--|-------------|---------------------3--3--|


                                         PH                
  E  E  S S S S S S S S E  E     E  E    Q    E  E  E  E   
------------------------------|---------------------------|
------------------------------|---------------------------|
------------------------------|------------------------4--|
------------------------------|--------<>4-------------4--|
--------3-2-----2-1-----------|---------------3--3--3-----|
--3--3------3-3-----3-3-2--2--|--2--2---------1--1--1-----|


                                     PH             
  E  Q    Q    Q    E     E  E  E    Q    E  E  E   
-----------------------|---------------------------|
-----------------------|---------------------------|
--L-------4------------|---------------------------|
--L--6----4----6----5--|-----------<>5-------------|
-----6---------6----3--|--3--3--3------------------|
-----------------------|------------------3--3--3--|


                                      PH                                    
  E  S S S S S S S S E  E  E     E    Q    E  E  E  Q       Q    Q    Q     
------------------------------|--------------------------|-----------------|
------------------------------|--------------------------|-----------------|
------------------------------|---------------------4----|-------4---------|
------------------------------|-----<>4-------------4----|--6----4----6----|
-----3-2-----2-1--------------|------------3--3--3-------|--6---------6----|
--3------3-3-----3-3-2--2--2--|--2---------1--1--1-------|-----------------|


                      \6                                                        
  W                   W                   W                   W                 
-------------------|-------------------|-------------------|-------------------|
-------------------|-------------------|-------------------|-------------------|
-------------------|-------------------|-------------------|-------------------|
--1----------------|-------------------|-------------------|-------------------|
--3----------------|--0----------------|-------------------|-------------------|
-------------------|--2----------------|-------------------|-------------------|


  W                   E  E  E  E  E  E  E  E     E  E  E  E  Q    Q     
-------------------|--------------------------|------------------------|
-------------------|--------------------------|------------------------|
-------------------|--------------------------|------------------------|
-------------------|--4--3-----4--3-----4--3--|-----4--3---------------|
-------------------|--2--1-----2--1-----2--1--|-----2--1---------------|
-------------------|--------3--------3--------|--3--------3------------|


  W                   W                   H        E  E  E  E   
-------------------|-------------------|-----------------------|
-------------------|-------------------|-----------------------|
-------------------|-------------------|-----------------------|
-------------------|-------------------|-----------4--3-----4--|
-------------------|-------------------|-----------2--1-----2--|
-------------------|-------------------|-----------------3-----|


                                           PH          
  E  E  E  E  E  E  E  E     E  E  E  E    Q    E  E   
--------------------------|---------------------------|
--------------------------|---------------------------|
--------------------------|---------------------------|
--3-----4--3-----4--3-----|--5-----------<>5----------|
--1-----2--1-----2--1-----|--3--3--3--3---------------|
-----3--------3--------3--|---------------------3--3--|


          PH                    PH                      
  E  E    Q    E  E  E  E       Q    E  E  E  E  E  E   
---------------------------|---------------------------|
---------------------------|---------------------------|
---------------------------|---------------------------|
---------------------------|---------------------------|
--------<>5----4-----------|--<>4----3--3--3--3--3-----|
--3--3---------2--2--2--2--|---------1--1--1--1--1--0--|


                PH                    PH                
  E  E  E  E    Q    E  E     E  E    Q    E  E  E  E   
---------------------------|---------------------------|
---------------------------|---------------------------|
---------------------------|---------------------------|
--5-----------<>5----------|---------------------------|
--3--3--3--3---------------|--------<>5----4-----------|
---------------------3--3--|--3--3---------2--2--2--2--|


    PH                                      PH          
    Q    E  E  E  E  E  E     E  E  E  E    Q    E  E   
---------------------------|---------------------------|
---------------------------|---------------------------|
---------------------------|---------------------------|
---------------------------|--5-----------<>5----------|
--<>4----3--3--3--3--3-----|--3--3--3--3---------------|
---------1--1--1--1--1--0--|---------------------3--3--|


          PH                    PH                      
  E  E    Q    E  E  E  E       Q    E  E  E  E  E  E   
---------------------------|---------------------------|
---------------------------|---------------------------|
---------------------------|---------------------------|
---------------------------|---------------------------|
--------<>5----4-----------|--<>4----3--3--3--3--3-----|
--3--3---------2--2--2--2--|---------1--1--1--1--1--0--|


                PH                    PH                
  E  E  E  E    Q    E  E     E  E    Q    E  E  E  E   
---------------------------|---------------------------|
---------------------------|---------------------------|
---------------------------|---------------------------|
--5-----------<>5----------|---------------4--3-----4--|
--3--3--3--3---------------|--------<>5----2--1-----2--|
---------------------3--3--|--3--3---------------3-----|


  E  E  E  E  E  E  E  E      H           E  E  E  E  E  E  E  E   
---------------------------|-----------|--------------------------|
---------------------------|-----------|--------------------------|
---------------------------|-----------|--------------------------|
--3-----4--3-----4--3------|-----------|--------------------------|
--1-----2--1-----2--1------|-----------|--5--5--3--5--5--3--5--5--|
-----3--------3--------3~--|--L--------|--3--3--1--3--3--1--3--3--|


  E  E  E  E  E  E  E  E     E  E  E  E  E  E  E  E   
--------------------------|--------------------------|
--------------------------|--------------------------|
--------------------------|--------------------------|
--------------------------|--5--4-----4--5--4--5--4--|
--3--5--5--3--5--5--3--5--|--3--2-----2--3--2--3--2--|
--1--3--3--1--3--3--1--3--|--------3-----------------|


  E  E  E  E  E  E  E  E     E  E  E  E  E  E  E  E   
--------------------------|--------------------------|
--------------------------|--------------------------|
--------------------------|--------------------------|
-----4--5--4--5--4--------|--------------------------|
-----2--3--2--3--2--------|--5--5--3--5--5--3--5--5--|
--3-----------------3--1--|--3--3--1--3--3--1--3--3--|


  E  E  E  E  E  E  E  E     E  E  E  E  E  E  E  E     E  E  E  E   H          
--------------------------|--------------------------|-------------------------|
--------------------------|--------------------------|-------------------------|
--------------------------|--------------------------|-------------------------|
--------------------------|--4--3-----4--3-----4--3--|-----4--3----------------|
--3--5--5--3--5--5--3--5--|--2--1-----2--1-----2--1--|-----2--1-----10S--------|
--1--3--3--1--3--3--1--3--|--------3--------3--------|--3--------3-------------|


  E  E  E  E  E  E  E  E     E  E  E  E  E  E  E  E   
--------------------------|--------------------------|
--------------------------|--------------------------|
--------------------------|--------------------------|
--------------------------|--------------------------|
--5--5--3--5--5--3--5--5--|--3--5--5--3--5--5--3--5--|
--3--3--1--3--3--1--3--3--|--1--3--3--1--3--3--1--3--|


  E  E  E  E  E  E  E  E     E  E  E  E  E  E  E  E   
--------------------------|--------------------------|
--------------------------|--------------------------|
--------------------------|--------------------------|
--5--4-----4--5--4--5--4--|-----4--5--4--5--4--------|
--3--2-----2--3--2--3--2--|-----2--3--2--3--2--------|
--------3-----------------|--3-----------------3--1--|


  E  E  E  E  E  E  E  E     E  E  E  E  E  E  E  E   
--------------------------|--------------------------|
--------------------------|--------------------------|
--------------------------|--------------------------|
--------------------------|--------------------------|
--5--5--3--5--5--3--5--5--|--3--5--5--3--5--5--3--5--|
--3--3--1--3--3--1--3--3--|--1--3--3--1--3--3--1--3--|


  E  E  E  E  E  E  E  E     E  E  E  E  E  E  E  E   
--------------------------|--------------------------|
--------------------------|--------------------------|
--------------------------|--------------------------|
--4--3-----4--3-----4--3--|-----4--3-----4--3-----4--|
--2--1-----2--1-----2--1--|-----2--1-----2--1-----2--|
--------3--------3--------|--3--------3--------3-----|


  E  E  E  E  E  E  E  E   
--------------------------|
--------------------------|
--------------------------|
--3-----4--3-----4--3-----|
--1-----2--1-----2--1-----|
-----3--------3--------3--|

             
  H                                        H          
-----------------------------------------------------|
-----------------------------------------------------|
-----------------------------------------------------|
-----------------------------------------------------|
-----------------------------------------------------|
------------------------------------------12S--------|


                 |---3---|                                 
  E  E  E  E  E  E   E   E  E     E  E  E  E  E  E  E  E   
-------------------------------|--------------------------|
-------------------------------|--------------------------|
-------------------------------|--------------------------|
-----------3-----5s--6s--5--3--|-----3-----------------3--|
--5--5--3--1--5--3s--4s--3--1--|--5--1--3--4--5--5--3--1--|
--3--3--1-----3----------------|--3-----1--2--3--3--1-----|


     |---3---|                                   |---3---|      
  E  E   E   E  E  E  E  E  E     E  E  E  E  E  E   E   E  E   
-------------------------------|-------------------------------|
-------------------------------|-------------------------------|
-------------------------------|-------------------------------|
-----5s--6s--5--3-----3--------|-----------3-----5s--6s--5--3--|
--5--3s--4s--3--1--5--1--3--4--|--5--5--3--1--5--3s--4s--3--1--|
--3----------------3-----1--2--|--3--3--1-----3----------------|


                                |---3---|                  
  E  E  E  E  E  E  E  E     E  E   E   E  E  E  E  E  E   
--------------------------|-------------------------------|
--------------------------|-------------------------------|
--------------------------|-------------------------------|
-----3-----------------3--|-----5s--6s--5--3-----3--------|
--5--1--3--4--5--5--3--1--|--5--3s--4s--3--1--5--1--5--6--|
--3-----1--2--3--3--1-----|--3----------------3-----3--4--|


                 |---3---|                                 
  E  E  E  E  E  E   E   E  E     E  E  E  E  E  E  E  E   
-------------------------------|--------------------------|
-------------------------------|--------------------------|
-------------------------------|--------------------------|
-----------5-----7s--8s--7--5--|-----5-----------------5--|
--7--7--5--3--7--5s--6s--5--3--|--7--3--5--6--7--7--5--3--|
--5--5--3-----5----------------|--5-----3--4--5--5--3-----|


     |---3---|                                   |---3---|      
  E  E   E   E  E  E  E  E  E     E  E  E  E  E  E   E   E  E   
-------------------------------|-------------------------------|
-------------------------------|-------------------------------|
-------------------------------|-------------------------------|
-----7s--8s--7--5-----5--------|-----------3-----5s--6s--5--3--|
--7--5s--6s--5--3--7--3--3--4--|--5--5--3--1--5--3s--4s--3--1--|
--5----------------5-----1--2--|--3--3--1-----3----------------|


                                |---3---|                  
  E  E  E  E  E  E  E  E     E  E   E   E  E  E  E  E  E   
--------------------------|-------------------------------|
--------------------------|-------------------------------|
--------------------------|-------------------------------|
-----3-----------------3--|-----5s--6s--5--3-----3--------|
--5--1--3--4--5--5--3--1--|--5--3s--4s--3--1--5--1--3--4--|
--3-----1--2--3--3--1-----|--3----------------3-----1--2--|


  |---3--|  |---3--|  |---3--|  |---3--|   
  E   E  E  E   E  E  E   E  E  E   E  E   
------------------------------------------|
------------------------------------------|
------------------------------------------|
--8S--7-----8S--7-----8S--7-----8S--7-----|
--6S--5-----6S--5-----6S--5-----6S--5-----|
---------6---------6---------6---------6--|


  |---3--|  |---3--|  |---3--|  |---3--|                                 
  E   E  E  E   E  E  E   E  E  E   E  E     E  S S E  S S E  E  S S E   
------------------------------------------|-----------------------------|
------------------------------------------|-----------------------------|
------------------------------------------|-----------------------------|
--8S--7-----7S--6-----6S--5-----5S--4-----|-----------------------------|
--6S--5-----5S--4-----4S--3-----3S--2-----|-----------------------------|
---------6---------5---------4---------3--|--1--1-1-1--1-1-1--1--1-1-1--|


  S S E  E  S S E  S S E  E     S S E  S S E     E  E  E  E  E  E  E  E   
-----------------------------|----------------|--------------------------|
-----------------------------|----------------|--------------------------|
-----------------------------|----------------|--------------------------|
-----------------------------|----------------|--------------------------|
-----------------------------|----------------|--5--5--3--5--5--3--5--5--|
--1-1-1--1--1-1-1--1-1-1--1--|--1-1-1--1-1-1--|--3--3--1--3--3--1--3--3--|


  E  E  E  E  E  E  E  E     E  E  E  E  E  E  E  E   
--------------------------|--------------------------|
--------------------------|--------------------------|
--------------------------|--------------------------|
--------------------------|--5--4-----4--5--4--5--4--|
--3--5--5--3--5--5--3--5--|--3--2-----2--3--2--3--2--|
--1--3--3--1--3--3--1--3--|--------3-----------------|


  E  E  E  E  E  E  E  E     E  E  E  E  E  E  E  E   
--------------------------|--------------------------|
--------------------------|--------------------------|
--------------------------|--------------------------|
-----4--5--4--5--4--------|--------------------------|
-----2--3--2--3--2--------|--5--5--3--5--5--3--5--5--|
--3-----------------3--1--|--3--3--1--3--3--1--3--3--|


  E  E  E  E  E  E  E  E     E  E  E  E  E  E  E  E     E  E  E  E   H          
--------------------------|--------------------------|-------------------------|
--------------------------|--------------------------|-------------------------|
--------------------------|--------------------------|-------------------------|
--------------------------|--4--3-----4--3-----4--3--|-----4--3----------------|
--3--5--5--3--5--5--3--5--|--2--1-----2--1-----2--1--|-----2--1-----10S--------|
--1--3--3--1--3--3--1--3--|--------3--------3--------|--3--------3-------------|


  E  E  E  E  E  E  E  E     E  E  E  E  E  E  E  E   
--------------------------|--------------------------|
--------------------------|--------------------------|
--------------------------|--------------------------|
--------------------------|--------------------------|
--5--5--3--5--5--3--5--5--|--3--5--5--3--5--5--3--5--|
--3--3--1--3--3--1--3--3--|--1--3--3--1--3--3--1--3--|


  E  E  E  E  E  E  E  E     E  E  E  E  E  E  E  E   
--------------------------|--------------------------|
--------------------------|--------------------------|
--------------------------|--------------------------|
--5--4-----4--5--4--5--4--|-----4--5--4--5--4--------|
--3--2-----2--3--2--3--2--|-----2--3--2--3--2--------|
--------3-----------------|--3-----------------3--1--|


  E  E  E  E  E  E  E  E     E  E  E  E  E  E  E  E   
--------------------------|--------------------------|
--------------------------|--------------------------|
--------------------------|--------------------------|
--------------------------|--------------------------|
--5--5--3--5--5--3--5--5--|--3--5--5--3--5--5--3--5--|
--3--3--1--3--3--1--3--3--|--1--3--3--1--3--3--1--3--|


  E  E  E  E  E  E  E  E     E  E  E  E  E  E  E  E   
--------------------------|--------------------------|
--------------------------|--------------------------|
--------------------------|--------------------------|
--4--3-----4--3-----4--3--|-----4--3-----4--3-----4--|
--2--1-----2--1-----2--1--|-----2--1-----2--1-----2--|
--------3--------3--------|--3--------3--------3-----|


  E  E  E  E  E  E  E  E     E  S S E  S S E  E  S S E   
--------------------------|-----------------------------|
--------------------------|-----------------------------|
--------------------------|-----------------------------|
--3-----4--3-----4--3-----|-----------------------------|
--1-----2--1-----2--1-----|-----------------------------|
-----3--------3--------3--|--1--1-1-1--1-1-1--1--1-1-1--|


  S S E  E  E  E  E  E  E     E  E  E  E  E  E  E  E   
---------------------------|--------------------------|
---------------------------|--------------------------|
---------------------------|--------------------------|
---------------------------|--------------------------|
---------5--5--3--5--5--3--|--5--5--3--5--5--3--5--5--|
--1-1-1--3--3--1--3--3--1--|--3--3--1--3--3--1--3--3--|


  E  E  E  S S E  S S E  E     S S E  S S E  E  E  E  E   
----------------------------|----------------------------|
----------------------------|----------------------------|
----------------------------|----------------------------|
----------------------------|----------------------------|
--6--6----------------------|----------------5--5--3--5--|
--4--4--1--1-1-1--1-1-1--1--|--1-1-1--1-1-1--3--3--1--3--|


  E  E  E  E  E  E  E  E     E  E  E  E   E   S  S  E   S  S  
--------------------------|----------------------------------|
--------------------------|----------------------------------|
--------------------------|----------------------------------|
--------------------------|----------------------------------|
--5--3--5--5--3--5--5--3--|--5--5--6--6--14--13-13-13--12-12-|
--3--1--3--3--1--3--3--1--|--3--3--4--4--12--11-11-11--10-10-|


   E   E   S  S  E  S S E  E  S S    E  S S E  E  E  E  Q      
----------------------------------|--------------------------||
----------------------------------|--------------------------||
----------------------------------|--------------------------||
----------------------------------|--------------------------||
--12--11--10-10-10--9-9-9--8--7-7-|--7--6-6-6--6--5----------||
--10---9---8--8--8--7-7-7--6--5-5-|--5--4-4-4--4--3----------||


			------------------------------------------------------
					11. THE SLEEP
			------------------------------------------------------


   Acoustic Intro (Also before solo)
1||-----0-------0----|-----0------------||-----0-------0----|-----0------4----7-||
2||----3-3-----3-3---|----3-3-----4--4--||----4-4-----4-4---|----4-4----3----6--||
3||---5---5---5---5--|---2---2---2-2--2-||---5---5---7---7--|---5---5--4----7---||
4||--7-----7-7-----7-|--3-----3-3---3---||--7-----7-5-------|--7-----73---/6----||
5||-0-------0--------|-0-------0--------||-0-------0--------|-0-----------------||
6||------------------|------------------||------------------|-------------------||

   Last ending                            Main Riff 
1||------10-------13-||-----------------||-----------------|-----------------|
2||-----9-------12---||-----------------||-----------------|-----------------|
3||---10------13-----||-2w\-------------||-----------------|-----------------|
4||-/9-----/12-------||-2w\-------------||-1/2-1/2---22211-|-1/2-1-----------|
5||------------------||-0w\-------2-0-2-||-2/3-2/3---33322-|-2/3-2-0---00020-|
6||------------------||-----------0-2-3-||-----------------|-------2---22232-|

                                        Ending before chorus
1||-----------------|-----------------||------------------||
2||-----------------|-----------------||------------------||
3||-----------------|-----------------||------------------||
4||-1/2-1/2---22211-|-1/2-1-----------||-1/2-1------------||
5||-2/3-2/3---33322-|-2/3-2-0---------||-2/3-2-0---222-20-||
6||-----------------|-------2---------||-------2---333-32-||

   Chorus                                   Alternate endings
1||--------------------|------------------||------------------||----------------||
2||--------------------|------------------||------------------||----------------||
3||--------------------|------------------||------------------||----------------||
4||------------------2-|------------------||-----2---2---2----||----------------||
5||-2---4---5--5/9\5-0-|------------------||---2-0-2-0-2-0----||----------2-0-2-||
6||-000022223333/7\3---|---------------32-||----3---3---3--32-||----------0-2-3-||

   Acoustic in solo
1||-----0-------0----|-----0-------0-0--||----4---7----10------13-|-----10------13---7---4-||
2||----3-3-----3-3---|----3-3-----3---3-||---3---6----9------12---|----9------12----6---3--||
3||---5---5---5---5--|---5---5---5------||--4---7---10-----13-----|--10-----13-----7---4---||
4||--7-----7-6-----6-|--5-----5-4-------||-3---6---9-----12-------|-9-----12------6---3----||
5||-0-------0--------|-0-------0--------||------------------------|------------------------||
6||------------------|------------------||------------------------|------------------------||

   Distortion                                  Acoustic backing next
1||-----||-----------------|-----------------||-----------------|-----------------||
2||-----||-----------------|-----------------||-----------------|-----------------||
3||-----||------20---------|-----------------||-----------------|-----------------||
4||-2---||--------3-3-3----|-----------------||-----------------|-------3-----4---||
5||-0---||-0-00------------|-5-55------------||-2--2--2---------|-2--2--1-----2---||
6||-----||-----------------|--------3-3-3----||-0--0--0---------|-0--0------0-----||

   Acoustic             Distortion                           End solo
1||---------0---------||-----------------|-----------------||----------|-------------||
2||-----0-------0-----||-----------------|-----------------||----------|-------------||
3||----3--3---3---3---||------20---------|-----------------||----------|-------------||
4||---5----5---5----5-||--------3-3-3----|-----------------||----------|-------------||
5||-------------------||-00000-----------|-55555555--------||-2w\------|-------2-0-2-||
6||-0-----------------||-----------------|----------3-3----||-0w\------|-------0-2-3-||

   Alternate riffs
1||-----------------|-------------------||--------------------|------------------||
2||-----------------|-------------------||--------------------|------------------||
3||-----------------|-----------7-------||--------------------|----------7-------||
4||-1/2-1/2---22211-|-1/2-1/2---7---9---||------------------2-|----------7---9---||
5||-2/3-2/3---33322-|-2/3-2/3---5---6---||-2---4---5--5/9\5-0-|----------5---6---||
6||-----------------|-------------------||-000022223333/7\3---|------------------||


SOLO
====
                  4x                   1            101  
1||-----------------|-8---7---5------------------------------------------------|
2||-5---4---5---6---|---------------------17-----------17----------------------|
3||-----------------|----------------16^----16~---16^----16h17-16p1416-16-14~--|
4||-----------------|----------------------------------------------------------|
5||-----------------|----------------------------------------------------------|
6||-----------------|----------------------------------------------------------|

      101             2   1   1          2
1||--------------17-17^-19^-19^--17--17--------20-19-17-19-17h19p17\1517-15-13-|
2||------17------------------------20--20^-~-----------------------------------|
3||-16^----16~-----------------------------------------------------------------|
4||----------------------------------------------------------------------------|
5||-------------------------------------------/--------------------------------|
6||----------------------------------------------------------------------------|


1||-12-13-12h13p12\10-12------------------------------------------------------|
2||----------------------15\13-13-12h13p12\10-10h12p10\8-8h10p8\6-6-5-5h6p5\3-|
3||---------------------------------------------------------------------------|
4||---------------------------------------------------------------------------|
5||---------------------------------------------------------------------------|
6||---------------------------------------------------------------------------|

                              2   ||   2                          2         1 0
1||-------------------------<5w~>-||------17-17-17~--17-19-20~--20^--19p1719^---|
2||-3h5p3\1-1h3p1p0-0h1p0---------||-20^----------------------------------------|
3||----------------------2--------||--------------------------------------------|
4||-------------------------------||--------------------------------------------|
5||-------------------------------||--------------------------------------------|
6||-------------------------------||--------------------------------------------|

      2     1 0   1       4         |1.       2 0    
1||-22^-----------------------17-17-|-17~----------------------------------------|
2||-------17^-----------------------|-------18^--~-------------------------------|
3||-------------16^--16-------14-14-|--------------5p4h5p4h5p4h5-7p5h7p5h7p5h7p5-|
4||---------------------15^---------|--------------------------------------------|
5||---------------------------------|--------------------------------------------|
6||---------------------------------|--------------------------------------------|

                                       1         2    1              2
1||---------------------------------------------------------------------|
2||----------------------------------------------------------------17^--|
3||-7h9p7h9p7h9p7-9h10p9h10p9h10p9---16^-p1416-14^--16^-p1416-16~-------|
4||---------------------------------------------------------------------|
5||---------------------------------------------------------------------|
6||---------------------------------------------------------------------|

                                           -1 0    |2. -1   -1       2   2  2  2
1||---------------------------------------17~w----||-17\w/17\w/17~---------------|
2||-17-15p1315p13p12h13h14h15p12h1312-------------||-----------------------------|
3||-----------------------------------1412--------||-14\w/14\w------7^--7^-7^-7^-|
4||-----------------------------------------------||-----------------------------|
5||-----------------------------------------------||-----------------------------|
6||-----------------------------------------------||-----------------------------|

                                      5
1||------------------108--87-7-----------------------------------------------------|
2||---------------------10--8-10~----------------------------------------------13--|
3||-5~---75-54-4--------------------<5w>---<5>~-------------------1212--1112h14----|
4||--------7--5-7~-----------------------------------1012101012/14----14-----------|
5||--------------------------------------------------------------------------------|
6||--------------------------------------------------------------------------------|

                   2                                             1 010         2
1||-----10/121215---1213121312--12---------17151215151217------19^-----17--17-----|
2||-1012---------15^----------16--16151315---------------161513----------20--20^--|
3||-------------------------------------------------------------------------------|
4||-------------------------------------------------------------------------------|
5||-------------------------------------------------------------------------------|
6||-------------------------------------------------------------------------------|

                                                                2                2
1||-17202217201720222022201720171717----1720172017171717-----------172017171720----|
2||---------------------------------2017----------------20201720^--------------20^-|
3||--------------------------------------------------------------------------------|
4||--------------------------------------------------------------------------------|
5||--------------------------------------------------------------------------------|
6||--------------------------------------------------------------------------------|

         2                                                   0 -2 0 -2   3 0
1||-17-----17---20--------20--------20--------20--------20--<5w>-------<5w>-~-||
2||----20^----20--------20--------20--------20--------20----------------------||
3||---------------19p17-----19p17-----19p17-----19p17-----19------------------||
4||---------------------------------------------------------------------------||
5||---------------------------------------------------------------------------||
6||---------------------------------------------------------------------------||

Backing Part at end
===================

1||-15--14--12---------|-----17-----------|-15--14--12---------|------------------|
2||-------------15-12/-|-14---------------|-------------15-12/-|-14---------------|
3||--------------------|------------------|--------------------|-----14-----------|
4||--------------------|------------------|--------------------|------------------|
5||--------------------|------------------|--------------------|------------------|
6||--------------------|------------------|--------------------|------------------|

                                  2                          2
1||-15--14--12---------|-----17-19^-------|-15--14--12-----19^-|---17-------------||
2||-------------15-12/-|-14---------------|-------------15-----|------------------||
3||--------------------|------------------|--------------------|------------------||
4||--------------------|------------------|--------------------|------------------||
5||--------------------|------------------|--------------------|------------------||
6||--------------------|------------------|--------------------|------------------||


			------------------------------------------------------
					12. THE ART OF SHREDDING
			------------------------------------------------------


     W                   W                   W                 
E||-------------------|-------------------|-------------------|
B||-------------------|-------------------|-------------------|
G||-------------------|-------------------|-------------------|
D||-------------------|-------------------|-------------------|
A||-------------------|-------------------|-------------------|
E||-------------------|-------------------|-------------------|


                                          With Wah                    
  W                   W                   E        E  E  E  H         
-------------------|-------------------|-----------------------------|
-------------------|-------------------|-----------------------------|
-------------------|-------------------|-----------------------------|
-------------------|-------------------|--2--------x--2--1--L--------|
-------------------|-------------------|--2--------x--2--1--L--------|
-------------------|-------------------|--0--------x-----------------|


                                              Pick slides           
  W                   E  E  E  E  H           H           H         
-------------------|-----------------------|-----------------------|
-------------------|-----------------------|-----------------------|
-------------------|-----------------------|-----------------------|
-------------------|--2--x--2--1--L--------|-----------------------|
-------------------|--2--x--2--1--L--------|--9\----------9--------|
-------------------|--0--x-----------------|-----------------------|


                                                       Wah off           
  E  E  E  E  H           W                   E  E  E  E       H         
-----------------------|-------------------|----------------------------|
-----------------------|-------------------|----------------------------|
-----------------------|-------------------|----------------------------|
--2--x--2--1--L--------|-------------------|--2--x--2--1-------L--------|
--2--x--2--1--L--------|-------------------|--2--x--2--1-------L--------|
--0--x-----------------|-------------------|--0--x----------------------|


  W                    E  E  E  E  E  E  E  E     E  E  E  E  E  E  Q      
--------------------|--------------------------|--------------------------|
--------------------|--------------------------|--------------------------|
--------------------|--------------------------|--------------------------|
--------------------|-----------4-----2--------|--------------------------|
--9\----------------|-----------------------5--|-----4--2-----0--3--------|
--------------------|--0--2--------------------|-----------3--------4~----|


  E  Q    Q     Q     E     E  E  E  E  E  E  Q        E  E  E  E  E  E  E  E   
-------------------------|--------------------------|--------------------------|
-------------------------|--------------------------|--------------------------|
-------------------------|--------------------------|--------------------------|
----------4b----2b-------|--------------------------|-----------4-----2--------|
----------------------5--|-----4--2-----0--3--------|-----------------------5--|
--0--2-------------------|-----------3--------4~----|--0--2--------------------|


  E  E  E  E  E  E  Q        E  Q    Q     Q     E     E  E  E  E  E  E  Q      
--------------------------|-------------------------|--------------------------|
--------------------------|-------------------------|--------------------------|
--------------------------|-------------------------|--------------------------|
--------------------------|----------4b----2b-------|--------------------------|
-----4--2-----0--3--------|----------------------5--|-----4--2-----0--3--------|
-----------3--------4~----|--0--2-------------------|-----------3--------4~----|


  E  E  E  E  E  E  E  E     S S E  S S E  E  E  E  E   
--------------------------|----------------------------|
--------------------------|----------------------------|
--------------------------|----------------------------|
--4-----4-----2-----2-----|----------------------------|
-----2-----2-----2-----2--|--5-5-4--5-5-4--5--4--2--0--|
--------------------------|----------------------------|


  E  E  E  E  E  E  E  E     S S E  S S E  E  E  E  E   
--------------------------|----------------------------|
--------------------------|----------------------------|
--------------------------|----------------------------|
--4-----4-----2-----2-----|----------------------------|
-----2-----2-----2-----2--|--5-5-4--5-5-4--5--4--2--0--|
--------------------------|----------------------------|


  E  E  E  E  E  E  E  E     S S E  S S E  E  E  E  E   
--------------------------|----------------------------|
--------------------------|----------------------------|
--------------------------|----------------------------|
--------------------------|----------------------------|
--4-----4-----2-----2-----|----------------------------|
-----2-----2-----2-----2--|--5-5-4--5-5-4--5--4--2--0--|


  E  E  E  E  E  E  E  E     S S E  S S E  E  E  E  E   
--------------------------|----------------------------|
--------------------------|----------------------------|
--------------------------|----------------------------|
--------------------------|----------------------------|
--4-----4-----2-----2-----|----------------------------|
-----2-----2-----2-----2--|--5-5-4--5-5-4--5--4--2--0--|


  E  E  E  E  E  E  E  E     S S E  S S E  E  E  E  E   
--------------------------|----------------------------|
--------------------------|----------------------------|
--------------------------|----------------------------|
--4-----4-----2-----2-----|----------------------------|
-----2-----2-----2-----2--|--5-5-4--5-5-4--5--4--2--0--|
--------------------------|----------------------------|


  E  E  E  E  E  E  E  E     S S E  S S E  E  E  E  E   
--------------------------|----------------------------|
--------------------------|----------------------------|
--------------------------|----------------------------|
--4-----4-----2-----2-----|----------------------------|
-----2-----2-----2-----2--|--5-5-4--5-5-4--5--4--2--0--|
--------------------------|----------------------------|


  E  E  E  E  E  E  E  S S    S S S S S S S S S S S S S S S S  
---------------------------|----------------------------------|
---------------------------|----------------------------------|
---------------------------|----------------------------------|
--6-----6-----7-----7------|--6-6-----6-6-----7-7-----7-7-----|
-----4-----4-----4-----4-4-|------4-4-----4-4-----4-4-----4-4-|
---------------------------|----------------------------------|


  Q    E  Q    E  Q       E  E  Q    E  E  E  E     E  E  E  E  E  E  E  E   
-----------------------|-------------------------|--------------------------|
-----------------------|-------------------------|--------------------------|
-----------------------|-------------------------|--------------------------|
--6----L--6----L--6----|--L--6--L----6--L--6--L--|--------------------------|
--4----L--4----L--4----|--L--4--L----4--L--4--L--|--------5-----8--------7--|
-----------------------|-------------------------|--0--0--3--0--6--0--0--5--|


  E   E  E  E  E  E  E   E     E  E  E  E  E  E  E  E   
----------------------------|--------------------------|
----------------------------|--------------------------|
----------------------------|--------------------------|
---------------------8S--7--|--------------------------|
-----10--------8-----6S--5--|--------5-----8--------7--|
--0---8--0--0--6--0---------|--0--0--3--0--6--0--0--5--|


  E   E  E  E  E  E  E   E     E  E  E  E  E  E  E  E   
----------------------------|--------------------------|
----------------------------|--------------------------|
----------------------------|--------------------------|
---------------------8S--7--|--------------------------|
-----10--------8-----6S--5--|--------5-----8--------7--|
--0---8--0--0--6--0---------|--0--0--3--0--6--0--0--5--|


  E   E  E  E  E  E  E   E     E  E  E  E  E  E  E  E   
----------------------------|--------------------------|
----------------------------|--------------------------|
----------------------------|--------------------------|
---------------------8S--7--|--------------------------|
-----10--------8-----6S--5--|--------5-----8--------7--|
--0---8--0--0--6--0---------|--0--0--3--0--6--0--0--5--|


  E   E  E  E  E  E  E   E     E  E  E  E  E  E  E  E   
----------------------------|--------------------------|
----------------------------|--------------------------|
----------------------------|--------------------------|
---------------------8S--7--|--------------------------|
-----10--------8-----6S--5--|--------5-----8--------7--|
--0---8--0--0--6--0---------|--0--0--3--0--6--0--0--5--|


  E   E  E  E  E  E  E   E     E  E  E  E  E  E  E  E   
----------------------------|--------------------------|
----------------------------|--------------------------|
----------------------------|--------------------------|
---------------------8S--7--|--------------------------|
-----10--------8-----6S--5--|--------5-----8--------7--|
--0---8--0--0--6--0---------|--0--0--3--0--6--0--0--5--|


  E   E  E  E  E  E  E   E     E  E  E  E  E  E  E  E   
----------------------------|--------------------------|
----------------------------|--------------------------|
----------------------------|--------------------------|
---------------------8S--7--|--------------------------|
-----10--------8-----6S--5--|--------5-----8--------7--|
--0---8--0--0--6--0---------|--0--0--3--0--6--0--0--5--|


  E   E  E  E  E  E  E   E     Q    E  E  Q    E  E     Q    Q    H         
----------------------------|------------------------|---------------------|
----------------------------|------------------------|---------------------|
----------------------------|------------------------|---------------------|
---------------------8S--7--|--3-------3--4-------4--|--3------------------|
-----10--------8-----6S--5--|--1-------1--2-------2--|--1---------5--------|
--0---8--0--0--6--0---------|------------------------|------------3--------|


  Q    E  E  E  E  E  E     E  E  E  E  E  E  E  E   
-------------------------|--------------------------|
-------------------------|--------------------------|
-------------------------|--------------------------|
-------------------------|--------------------------|
--2----------------------|--------------------------|
--0----0--0--0--0--0--0--|--0--0--0--0--0--0--0--0--|


  E   E  E  E  E  E  E  E     E  E  E  E  E  E  Q       Q    E  E  E  E  E  E   
---------------------------|-------------------------|-------------------------|
---------------------------|-------------------------|-------------------------|
---------------------------|-------------------------|-------------------------|
---------------------------|-------------------------|-------------------------|
--4S--6--------------------|-----------6--------6----|--2----------------------|
--2S--4--4--4--4--4--4--4--|--4--4--4--4--4--4--4----|--0----0--0--0--0--0--0--|


  E  E  E  E  E  E  E  E     E  E  E  E   E  E  E  E   
--------------------------|---------------------------|
--------------------------|---------------------------|
--------------------------|---------------------------|
--------------------------|--3--------3S--4--------4--|
--------------------------|--1--1--1--1S--2--2--2--2--|
--0--0--0--0--0--0--0--0--|---------------------------|


  E  E  E  E   E  E  E  E     Q    E  E  E  E  E  E   
---------------------------|-------------------------|
---------------------------|-------------------------|
---------------------------|-------------------------|
--3--------3S--4--------4--|-------------------------|
--1--1--1--1S--2--2--2--2--|--2----------------------|
---------------------------|--0----0--0--0--0--0--0--|


  E  E  E  E  E  E  E  E     E   E  E  E  E  E  E  E   
--------------------------|---------------------------|
--------------------------|---------------------------|
--------------------------|---------------------------|
--------------------------|---------------------------|
--------------------------|--4S--6--------------------|
--0--0--0--0--0--0--0--0--|--2S--4--4--4--4--4--4--4--|


  E  E  E  E  E  E  Q       Q    E  E  E  E  E  E     E  E  E  E  E  E  E  E   
-------------------------|-------------------------|--------------------------|
-------------------------|-------------------------|--------------------------|
-------------------------|-------------------------|--------------------------|
-------------------------|-------------------------|--------------------------|
-----------6--------6----|--2----------------------|--------------------------|
--4--4--4--4--4--4--4----|--0----0--0--0--0--0--0--|--0--0--0--0--0--0--0--0--|


  Q    E  E  Q    E  E     Q    Q    Q    Q        E  E  E  E  E  E  E  E   
------------------------|-----------------------|--------------------------|
------------------------|-----------------------|--------------------------|
------------------------|-----------------------|--------------------------|
--3-------3--4-------4--|--3--------------------|--------------------------|
--1-------1--2-------2--|--1--------------------|--------5-----8--------7--|
------------------------|-----------------6\----|--0--0--3--0--6--0--0--5--|


  E   E  E  E  E  E  E   E     E  E  E  E  E  E  E  E   
----------------------------|--------------------------|
----------------------------|--------------------------|
----------------------------|--------------------------|
---------------------8s--7--|--------------------------|
-----10--------8-----6s--5--|--------5-----8--------7--|
--0---8--0--0--6--0---------|--0--0--3--0--6--0--0--5--|


  E   E  E  E   E  E   E  E     E  E  E  E  E  E  E  E   
-----------------------------|--------------------------|
-----------------------------|--------------------------|
-----------------------------|--------------------------|
-----------------------------|--------------------------|
-----10-----8S--7--7S--6--6--|--------5-----8--------7--|
--0---8--0--6S--5--5S--4--4--|--0--0--3--0--6--0--0--5--|


  E   E  E  E  E  E  E   E     E  E  E  E  E  E  E  E   
----------------------------|--------------------------|
----------------------------|--------------------------|
----------------------------|--------------------------|
---------------------8s--7--|--------------------------|
-----10--------8-----6s--5--|--------5-----8--------7--|
--0---8--0--0--6--0---------|--0--0--3--0--6--0--0--5--|


  E   E  E  Q    Q    E     H        H           H        Q    Q    Q    Q     
-------------------------|--------------------|-------------------------------|
-------------------------|--------------------|-------------------------------|
-------------------------|--------------------|-------------------------------|
-------------------------|-----------4--------|--------------------------L----|
-----10-----8----8----8--|-----------2--------|--------------------------L----|
--0---8--0--6----6----6--|-----------2--------|--------------------------L----|


  Q    E  E  E  E  E  E     E  E  E  E  E  E  E  E   
-------------------------|--------------------------|
-------------------------|--------------------------|
-------------------------|--------------------------|
-------------------------|--------------------------|
--2----------------------|--------------------------|
--0----0--0--0--0--0--0--|--0--0--0--0--0--0--0--0--|


  E   E  E  E  E  E  E  E     E  E  E  E  E  E  Q       Q    E  E  E  E  E  E   
---------------------------|-------------------------|-------------------------|
---------------------------|-------------------------|-------------------------|
---------------------------|-------------------------|-------------------------|
---------------------------|-------------------------|-------------------------|
--4S--6--------------------|-----------6--------6----|--2----------------------|
--2S--4--4--4--4--4--4--4--|--4--4--4--4--4--4--4----|--0----0--0--0--0--0--0--|


  E  E  E  E  E  E  E  E     E  E  E  E   E  E  E  E   
--------------------------|---------------------------|
--------------------------|---------------------------|
--------------------------|---------------------------|
--------------------------|--3--------3S--4--------4--|
--------------------------|--1--1--1--1S--2--2--2--2--|
--0--0--0--0--0--0--0--0--|---------------------------|


  E  E  E  E   E  E  E  E     Q    E  E  E  E  E  E   
---------------------------|-------------------------|
---------------------------|-------------------------|
---------------------------|-------------------------|
--3--------3S--4--------4--|-------------------------|
--1--1--1--1S--2--2--2--2--|--2----------------------|
---------------------------|--0----0--0--0--0--0--0--|


  E  E  E  E  E  E  E  E     E   E  E  E  E  E  E  E   
--------------------------|---------------------------|
--------------------------|---------------------------|
--------------------------|---------------------------|
--------------------------|---------------------------|
--------------------------|--4S--6--------------------|
--0--0--0--0--0--0--0--0--|--2S--4--4--4--4--4--4--4--|


  E  E  E  E  E  E  Q       Q    E  E  E  E  E  E     E  E  E  E  E  E  E  E   
-------------------------|-------------------------|--------------------------|
-------------------------|-------------------------|--------------------------|
-------------------------|-------------------------|--------------------------|
-------------------------|-------------------------|--------------------------|
-----------6--------6----|--2----------------------|--------------------------|
--4--4--4--4--4--4--4----|--0----0--0--0--0--0--0--|--0--0--0--0--0--0--0--0--|


  E  Q    E  E  Q    E     Q    Q    Q    Q        E  E  E  E  E  E  E  E   
------------------------|-----------------------|--------------------------|
------------------------|-----------------------|--------------------------|
------------------------|-----------------------|--------------------------|
--3-------3--4-------4--|--3--------------------|--------------------------|
--1-------1--2-------2--|--1--------------------|--------5-----8--------7--|
------------------------|-----------------6\----|--0--0--3--0--6--0--0--5--|


  E   E  E  E  E  E  E   E     E  E  E  E  E  E  E  E   
----------------------------|--------------------------|
----------------------------|--------------------------|
----------------------------|--------------------------|
---------------------8s--7--|--------------------------|
-----10--------8-----6s--5--|--------5-----8--------7--|
--0---8--0--0--6--0---------|--0--0--3--0--6--0--0--5--|


  E   E  E  E   E  E   E  E     E  E  E  E  E  E  E  E   
-----------------------------|--------------------------|
-----------------------------|--------------------------|
-----------------------------|--------------------------|
-----------------------------|--------------------------|
-----10-----8S--7--7S--6--6--|--------5-----8--------7--|
--0---8--0--6S--5--5S--4--4--|--0--0--3--0--6--0--0--5--|


  E   E  E  E  E  E  E   E     E  E  E  E  E  E  E  E   
----------------------------|--------------------------|
----------------------------|--------------------------|
----------------------------|--------------------------|
---------------------8s--7--|--------------------------|
-----10--------8-----6s--5--|--------5-----8--------7--|
--0---8--0--0--6--0---------|--0--0--3--0--6--0--0--5--|


  E   E  E  E   E  E   E  E     E  E  E  E  E  E  E  E   
-----------------------------|--------------------------|
-----------------------------|--------------------------|
-----------------------------|--------------------------|
-----------------------------|--------------------------|
-----10-----8S--7--7S--6--6--|--------5-----8--------7--|
--0---8--0--6S--5--5S--4--4--|--0--0--3--0--6--0--0--5--|


  E   E  E  E  E  E  E   E     E  E  E  E  E  E  E  E   
----------------------------|--------------------------|
----------------------------|--------------------------|
----------------------------|--------------------------|
---------------------8s--7--|--------------------------|
-----10--------8-----6s--5--|--------5-----8--------7--|
--0---8--0--0--6--0---------|--0--0--3--0--6--0--0--5--|


  E   E  E  E   E  E   E  E     E  E  E  E  E  E  E  E   
-----------------------------|--------------------------|
-----------------------------|--------------------------|
-----------------------------|--------------------------|
-----------------------------|--------------------------|
-----10-----8S--7--7S--6--6--|--------5-----8--------7--|
--0---8--0--6S--5--5S--4--4--|--0--0--3--0--6--0--0--5--|


  E   E  E  E  E  E  E   E     E  E  E  E  E  E  E  E   
----------------------------|--------------------------|
----------------------------|--------------------------|
----------------------------|--------------------------|
---------------------8s--7--|--------------------------|
-----10--------8-----6s--5--|--------5-----8--------7--|
--0---8--0--0--6--0---------|--0--0--3--0--6--0--0--5--|


  E   E  E  E   E  E   E  E     E  Q    E  Q    E  E   
-----------------------------|------------------------|
-----------------------------|------------------------|
-----------------------------|------------------------|
-----------------------------|------------------------|
-----10-----8S--7--7S--6--6--|--7-------7-------7-----|
--0---8--0--6S--5--5S--4--4--|-----6-------6-------5--|


  E  E  Q    E  E  E  E     Q     Q    H           W                 
-------------------------|----------------------|-------------------|
-------------------------|----------------------|-------------------|
-------------------------|----------------------|-------------------|
-------------------------|----------------------|-------------------|
-----7----------------5--|--7\------------------|-------------------|
--------6----5--6--7-----|----------------------|-------------------|


  E  Q    E  Q    E  E     E  E  Q    E  E  E  E     E  Q    E  Q    E  E   
------------------------|-------------------------|------------------------|
------------------------|-------------------------|------------------------|
------------------------|-------------------------|------------------------|
------------------------|-------------------------|------------------------|
--7-------7-------7-----|-----7----------------5--|--7-------7-------7-----|
-----6-------6-------5--|--------6----5--6--7-----|-----6-------6-------5--|


  E  E  Q    E  E  E  E     E   Q    E   Q    E   E   
-------------------------|---------------------------|
-------------------------|---------------------------|
-------------------------|---------------------------|
-------------------------|--9S--8----9S--8----9S--8--|
-----7----------------5--|--7S--6----7S--6----7S--6--|
--------6----5--6--7-----|---------------------------|


  S S S S S S S S S S S S S S S S    E   Q    E   Q    E   E   
----------------------------------|---------------------------|
----------------------------------|---------------------------|
----------------------------------|---------------------------|
----------------------------------|--9S--8----9S--8----9S--8--|
--6-6-6-6-6-6-6-6-6-6-6-6-6-6-6-6-|--7S--6----7S--6----7S--6--|
----------------------------------|---------------------------|


  S S S S S S S S S S S S S S S S    E   Q    E   Q    E   E   
----------------------------------|---------------------------|
----------------------------------|---------------------------|
----------------------------------|---------------------------|
----------------------------------|--9S--8----9S--8----9S--8--|
--5-5-5-5-5-5-5-5-5-5-5-5-5-5-5-5-|--7S--6----7S--6----7S--6--|
----------------------------------|---------------------------|


  S S S S S S S S S S S S S S S S    E   Q    E   Q    E   E   
----------------------------------|---------------------------|
----------------------------------|---------------------------|
----------------------------------|---------------------------|
----------------------------------|--9S--8----9S--8----9S--8--|
--6-6-6-6-6-6-6-6-6-6-6-6-6-6-6-6-|--7S--6----7S--6----7S--6--|
----------------------------------|---------------------------|


  S S S S S S S S S S S S S S S S    E  Q    E  Q    E  E   
----------------------------------|------------------------|
----------------------------------|------------------------|
----------------------------------|------------------------|
----------------------------------|------------------------|
--5-5-5-5-5-5-5-5-5-5-5-5-5-5-5-5-|--7-------7-------7-----|
----------------------------------|-----6-------6-------5--|


  E  E  Q    E  E  E  E     E   Q    E   Q    E   E   
-------------------------|---------------------------|
-------------------------|---------------------------|
-------------------------|---------------------------|
-------------------------|--9S--8----9S--8----9S--8--|
-----7----------------7--|--7S--6----7S--6----7S--6--|
--------6----5--6--7-----|---------------------------|


  S S S S S S S S S S S S S S S S    E   Q    E   Q    E   E   
----------------------------------|---------------------------|
----------------------------------|---------------------------|
----------------------------------|---------------------------|
----------------------------------|--9S--8----9S--8----9S--8--|
--6-6-6-6-6-6-6-6-6-6-6-6-6-6-6-6-|--7S--6----7S--6----7S--6--|
----------------------------------|---------------------------|


  S S S S S S S S S S S S S S S S    E   Q    E   Q    E   E   
----------------------------------|---------------------------|
----------------------------------|---------------------------|
----------------------------------|---------------------------|
----------------------------------|--9S--8----9S--8----9S--8--|
--5-5-5-5-5-5-5-5-5-5-5-5-5-5-5-5-|--7S--6----7S--6----7S--6--|
----------------------------------|---------------------------|


  S S S S S S S S S S S S S S S S    E   Q    E   Q    E   E   
----------------------------------|---------------------------|
----------------------------------|---------------------------|
----------------------------------|---------------------------|
----------------------------------|--9S--8----9S--8----9S--8--|
--6-6-6-6-6-6-6-6-6-6-6-6-6-6-6-6-|--7S--6----7S--6----7S--6--|
----------------------------------|---------------------------|


  S S S S S S S S S S S S S S S S    E   E  E  E   E  E  E  E   
----------------------------------|----------------------------|
----------------------------------|----------------------------|
----------------------------------|----------------------------|
----------------------------------|--3p--2-----3p--2-----3-----|
--5-5-5-5-5-5-5-5-5-5-5-5-5-5-5-5-|--1p--0-----1p--0-----1--2--|
----------------------------------|-------------------------0--|


  Q    E  E  E  E  E  E     E   E  E  E   E  E  E  E   
-------------------------|----------------------------|
-------------------------|----------------------------|
-------------------------|----------------------------|
-------------------------|--3p--2-----3p--2-----3-----|
--L----2--2--2--2--2--2--|--1p--0-----1p--0-----1--3--|
--L----0--0--0--0--0--0--|-------------------------1--|


  Q    E  E  E  E  E  E     E   E  E  E   E  E  E   E   
-------------------------|-----------------------------|
-------------------------|-----------------------------|
-------------------------|-----------------------------|
-------------------------|-----------------------------|
--L----3--3--3--3--3--3--|--3p--2-----3p--2-----3S--5--|
--L----1--1--1--1--1--1--|--1p--0-----1p--0-----1S--3--|


  Q    E  E  E  E  E  E     E  E  E  E  E  E  E  E   
-------------------------|--------------------------|
-------------------------|--------------------------|
-------------------------|--------------------------|
-------------------------|--------------------------|
--L----5--5--5--5--5--4--|--L--4--4--3--L--3--3--3--|
--L----3--3--3--3--3--2--|--L--2--2--1--L--1--1--1--|


  E   E  E  E   E  E  E  E     Q    E  E  E  E  E  E   
----------------------------|-------------------------|
----------------------------|-------------------------|
----------------------------|-------------------------|
--3p--2-----3p--2-----3-----|-------------------------|
--1p--0-----1p--0-----1--2--|--L----2--2--2--2--2--2--|
-------------------------0--|--L----0--0--0--0--0--0--|


  E   E  E  E   E  E  E  E     Q    E  E  E  E  E  E   
----------------------------|-------------------------|
----------------------------|-------------------------|
----------------------------|-------------------------|
--3p--2-----3p--2-----3-----|-------------------------|
--1p--0-----1p--0-----1--3--|--L----3--3--3--3--3--3--|
-------------------------1--|--L----1--1--1--1--1--1--|


  E   E  E  E   E  E  E   E     Q    Q    E  E  E  E   
-----------------------------|------------------------|
-----------------------------|------------------------|
-----------------------------|------------------------|
-----------------------------|------------------------|
--3p--2-----3p--2-----3S--5--|------------L--x--5--4--|
--1p--0-----1p--0-----1S--3--|------------L--x--3--2--|


  E  E  E  E  E  E  E  E     E  E  H.              E  E  E  E   E  E  E  E   
--------------------------|---------------------|---------------------------|
--------------------------|---------------------|---------------------------|
--------------------------|---------------------|---------------------------|
--------------------------|---------------------|---------------------------|
--L--x--4--3--L--x--3--5--|--6------------------|--6--------6S--7-----6-----|
--L--x--2--1--L--x--1--3--|--4------------------|--4--4--4--4S--5--4--4--4--|


  E  E   E  E  E  E  E  E     E  E  E  E   E  E  E  E   
---------------------------|---------------------------|
---------------------------|---------------------------|
---------------------------|---------------------------|
---------------------------|---------------------------|
-----6S--7-----4-----4-----|--6--------6S--7-----6-----|
--4--4S--5--0--2--0--2--0--|--4--4--4--4S--5--4--4--4--|


  E  E   E  E  E  E  E  E     E  E  E  E   E  E  E  E   
---------------------------|---------------------------|
---------------------------|---------------------------|
---------------------------|---------------------------|
---------------------------|---------------------------|
-----6S--7-----3-----4-----|--6--------6S--7-----6-----|
--4--4S--5--0--1--0--2--0--|--4--4--4--4S--5--4--4--4--|


  E  E   E  E  E  E  E  E     E  E  E  E   E  E  E  E   
---------------------------|---------------------------|
---------------------------|---------------------------|
---------------------------|---------------------------|
---------------------------|---------------------------|
-----6S--7-----4-----4-----|--6--------6S--7-----6-----|
--4--4S--5--0--2--0--2--0--|--4--4--4--4S--5--4--4--4--|


  E  E   E  E  E  E  E  E     E  E  E  E   E  E  E  E   
---------------------------|---------------------------|
---------------------------|---------------------------|
---------------------------|---------------------------|
---------------------------|---------------------------|
-----6S--7-----3-----4-----|--6--------6S--7-----6-----|
--4--4S--5--0--1--0--2--0--|--4--4--4--4S--5--4--4--4--|


  E  E   E  E  E  E  E  E      E   E   E   E   E   E  E  E   
---------------------------|--------------------------------|
---------------------------|--------------------------------|
---------------------------|--------------------------------|
---------------------------|--------------------------------|
-----6S--7-----4-----4-----|--11--11--11--10--10--10--9--9--|
--4--4S--5--0--2--0--2--0--|---9---9---9---8---8---8--7--7--|


                             \6/                                    
  E  E  E  E  E  E  E  E     W                   H        H         
--------------------------|-------------------|--------------------|
--------------------------|-------------------|--------------------|
--------------------------|-------------------|--------------------|
--------------------------|--5----------------|--L-----------------|
--9--8--8--7--7--6--6--5--|--3----------------|--L-----------------|
--7--6--6--5--5--4--4--3--|-------------------|--------------------|


  W                   W                   W                   W                 
-------------------|-------------------|-------------------|-------------------|
-------------------|-------------------|-------------------|-------------------|
-------------------|-------------------|-------------------|-------------------|
-------------------|-------------------|-------------------|-------------------|
-------------------|-------------------|-------------------|-------------------|
-------------------|-------------------|-------------------|-------------------|


  W                   W                   S S S S H.            
-------------------|-------------------|-----------------------|
-------------------|-------------------|-----------------------|
-------------------|-------------------|--x-x-x-x--------------|
-------------------|-------------------|--x-x-x-x--------------|
-------------------|-------------------|-----------------------|
-------------------|-------------------|-----------------------|


  W                   W                   H.           E  E   
-------------------|-------------------|---------------------|
-------------------|-------------------|---------------------|
-------------------|-------------------|------------------7--|
-------------------|-------------------|------------------7--|
-------------------|-------------------|------------------5--|
-------------------|-------------------|---------------------|


  E  E  E  Q    E  E  E     E  E  E  Q    E  E  E     W                 
-------------------------|-------------------------|-------------------|
-------------------------|-------------------------|-------------------|
--L----------------------|----------------------2--|--L----------------|
--L--------2----------3--|--L--------5----------2--|--L----------------|
--L--5--5--2----------3--|--L--------5----------0--|--L----------------|
-----------0----0--0--1--|--L--1--1--3----2--2-----|-------------------|


  H.           Q       E  E  E  Q    E  E  E     E  E  E  Q    E  E  E   
--------------------|-------------------------|-------------------------|
--------------------|-------------------------|-------------------------|
--L------------7----|--L----------------------|----------------------2--|
--L------------7----|--L--------2----------3--|--L--------5----------2--|
--L------------5----|--L--5--5--2----------3--|--L--------5----------0--|
--------------------|-----------0----0--0--1--|--L--1--1--3----3--3-----|


  E  E  Q    E   E  E  E     E  E  Q    E   E  E  E   
--------------------------|--------------------------|
--------------------------|--------------------------|
--L-----2--------------2--|--------2--------------7--|
--L-----2--------------2--|--------2--------------7--|
--L--0--0-----------0--0--|--0--0--0----3h--5--0--5--|
-------------3h--5--------|--------------------------|


  E  E  E  Q    E  E   E      E  E  E   Q     E   E   E     W                 
--------------------------|------------------------------|-------------------|
--------------------------|------------------------------|-------------------|
--L--------9----------10--|---L--------12------------14--|--L----------------|
--L--------9----------10--|---L--------12------------14--|--L----------------|
--L--5--5--7----7--7---8--|---L--8--8--10----10--10--12--|--L----------------|
--------------------------|------------------------------|-------------------|


  H.           Q       E  E  E  Q    E  E  E     E  E  E  Q    E  E  E   
--------------------|-------------------------|-------------------------|
--------------------|-------------------------|-------------------------|
--L------------7----|--L----------------------|----------------------4--|
--L------------7----|--L--------2----------3--|--L--------5----------4--|
--L------------5----|--L--5--5--2----------3--|--L--------5----------2--|
--------------------|-----------0----0--0--1--|--L--1--1--3----3--3-----|


  E  E  E  E  E  E  E  E     E  E  E  H        E     E  E  E  E  E  E  E  E   
--------------------------|-----------------------|--------------------------|
--------------------------|-----------------------|--------------------------|
--L--------5--L--------7--|--L--------8--------L--|--------------------------|
--L--------5--L--------7--|--L--------8--------L--|--------------------------|
--L--2--2--3--L--3--3--5--|--L--5--5--6--------L--|--------5-----8--------7--|
--------------------------|-----------------------|--0--0--3--0--6--0--0--5--|


  E   E  E  E  E  E  E   E     E  E  E  E  E  E  E  E   
----------------------------|--------------------------|
----------------------------|--------------------------|
----------------------------|--------------------------|
---------------------8s--7--|--------------------------|
-----10--------8-----6s--5--|--------5-----8--------7--|
--0---8--0--0--6--0---------|--0--0--3--0--6--0--0--5--|


  E   E  E  E   E  E   E  E     E  E  E  E  E  E  E  E   
-----------------------------|--------------------------|
-----------------------------|--------------------------|
-----------------------------|--------------------------|
-----------------------------|--------------------------|
-----10-----8S--7--7S--6--6--|--------5-----8--------7--|
--0---8--0--6S--5--5S--4--4--|--0--0--3--0--6--0--0--5--|


  E   E  E  E  E  E  E   E     E  E  E  E  E  E  E  E   
----------------------------|--------------------------|
----------------------------|--------------------------|
----------------------------|--------------------------|
---------------------8s--7--|--------------------------|
-----10--------8-----6s--5--|--------5-----8--------7--|
--0---8--0--0--6--0---------|--0--0--3--0--6--0--0--5--|


  E   E  E  E   E  E   E  E     E  E  E  E  E  E  E  E   
-----------------------------|--------------------------|
-----------------------------|--------------------------|
-----------------------------|--------------------------|
-----------------------------|--------------------------|
-----10-----8S--7--7S--6--6--|--------5-----8--------7--|
--0---8--0--6S--5--5S--4--4--|--0--0--3--0--6--0--0--5--|


  E   E  E  E  E  E  E   E     E  E  E  E  E  E  E  E   
----------------------------|--------------------------|
----------------------------|--------------------------|
----------------------------|--------------------------|
---------------------8s--7--|--------------------------|
-----10--------8-----6s--5--|--------5-----8--------7--|
--0---8--0--0--6--0---------|--0--0--3--0--6--0--0--5--|


  E   E  E  E   E  E   E  E     E  E  E  E  E  E  E  E   
-----------------------------|--------------------------|
-----------------------------|--------------------------|
-----------------------------|--------------------------|
-----------------------------|--------------------------|
-----10-----8S--7--7S--6--6--|--------5-----8--------7--|
--0---8--0--6S--5--5S--4--4--|--0--0--3--0--6--0--0--5--|


  E   E  E  E  E  E  E   E     E  E  E  E  E  E  E  E   
----------------------------|--------------------------|
----------------------------|--------------------------|
----------------------------|--------------------------|
---------------------8s--7--|--------------------------|
-----10--------8-----6s--5--|--------5-----8--------7--|
--0---8--0--0--6--0---------|--0--0--3--0--6--0--0--5--|


  E   E  E  E   E  E   E  E     E  E  E  E  E  E  E  E   
-----------------------------|--------------------------|
-----------------------------|--------------------------|
-----------------------------|--------------------------|
-----------------------------|--------------------------|
-----10-----8S--7--7S--6--6--|--------5-----8--------7--|
--0---8--0--6S--5--5S--4--4--|--0--0--3--0--6--0--0--5--|


  E   E  E  E  E  E  E   E     E  E  E  E  E  E  E  E   
----------------------------|--------------------------|
----------------------------|--------------------------|
----------------------------|--------------------------|
---------------------8s--7--|--------------------------|
-----10--------8-----6s--5--|--------5-----8--------7--|
--0---8--0--0--6--0---------|--0--0--3--0--6--0--0--5--|


  E   E  E  E   E  E   E  E     E  E  E  E  E  E  E  E   
-----------------------------|--------------------------|
-----------------------------|--------------------------|
-----------------------------|--------------------------|
-----------------------------|--------------------------|
-----10-----8S--7--7S--6--6--|--7--------7--------7-----|
--0---8--0--6S--5--5S--4--4--|-----7--------6--------5--|


  E  E  Q    E  E  E  E     E  E  E  E  E  E  E  E     E  E  Q    E  E  E  E   
-------------------------|--------------------------|-------------------------|
-------------------------|--------------------------|-------------------------|
-------------------------|--------------------------|-------------------------|
-------------------------|--------------------------|-------------------------|
-----7----------------5--|--7--------7--------7-----|-----7----------------5--|
--L-----6----5--6--7-----|-----7--------6--------5--|--L-----6----5--6--7-----|


  E  E  E  E  E  E  E  E     E  E  Q    E  E  E  E     Q    H.             
--------------------------|-------------------------|--------------------||
--------------------------|-------------------------|--------------------||
--------------------------|-------------------------|--------------------||
--------------------------|-------------------------|--2-----------------||
--7--------7--------7-----|-----7----------------5--|--2-----------------||
-----7--------6--------5--|--L-----6----5--6--7-----|--0-----------------||

						$$$$
					******************
		!!!!!!!!!!!!!!!!!!!!!!!!!!!!!!!!!!!!!!!!!!!!!!!!!!!!!!!!!!!!!!!!!!!!!!
						SOLO
		!!!!!!!!!!!!!!!!!!!!!!!!!!!!!!!!!!!!!!!!!!!!!!!!!!!!!!!!!!!!!!!!!!!!!!
					******************
						$$$$

  H.            E  E     H          H            H         H         
---------------10--8--|--L--------/10--------|--11--------13--------|
---------------10--8--|--L--------/10--------|--11--------13--------|
----------------------|----------------------|----------------------|
----------------------|----------------------|----------------------|
----------------------|----------------------|----------------------|
----------------------|----------------------|----------------------|


   H         H            E    H        E  E    E   
--16--------17--------|--21b~--L--------L--L--\17--|
--15--------16--------|----------------------------|
----------------------|----------------------------|
----------------------|----------------------------|
----------------------|----------------------------|
----------------------|----------------------------|


   W      W    W      W              W    W      W    W      W         
   Q      E    Q      E    Q         E    Q      E    Q      E    E    
--23p----17h--22p----17h--23~----|--17h--22p----17h--20p----17p--15~--|
---------------------------------|------------------------------------|
---------------------------------|------------------------------------|
---------------------------------|------------------------------------|
---------------------------------|------------------------------------|
---------------------------------|------------------------------------|


                                            \2        
   Q      Q    Q     E   E        H         H         
--17br----L----L---------------|---------------------|
--------------------16--17br~--|--L--------17--------|
-------------------------------|---------------------|
-------------------------------|---------------------|
-------------------------------|---------------------|
-------------------------------|---------------------|


   S   S   E   E   E   E    E   S   S   E   
--12h-15p-12--12--12--13b---L--12h-15p-12--|
-------------------------------------------|
-------------------------------------------|
-------------------------------------------|
-------------------------------------------|
-------------------------------------------|


                                                          |---3--|   
   E   E   E   E   S   S   E   E   E      Q      H        E   E  E   
--12--12--13b--L--12h-15p-12--12--12--|--12b~----L--------8--12--8--|
--------------------------------------|-----------------------------|
--------------------------------------|-----------------------------|
--------------------------------------|-----------------------------|
--------------------------------------|-----------------------------|
--------------------------------------|-----------------------------|


   H         E    Q       S   S    S  S  S   E   E   E   S  S  S  S  E   S  
-------------------------21p-17-|--L-15-17p-15------19--15-13-15-13-----17-|
--10~--------L--(10)\-----------|---------------17------------------17-----|
--------------------------------|------------------------------------------|
--------------------------------|------------------------------------------|
--------------------------------|------------------------------------------|
--------------------------------|------------------------------------------|


  S  S  S   S   S   S  E.    S   S   S   S  S  E    
--L-13-12h-13p-12h-13-15p---11p-10h-11p-10---------|
-------------------------------------------13-16h--|
---------------------------------------------------|
---------------------------------------------------|
---------------------------------------------------|
---------------------------------------------------|


                                                \4                 
   S   S  S   S   S  S  E   H            Q      H        E  S   S  
--------------------------------------|---------------------------|
--15p-13------------------------------|-------<>4--------L--5s-12-|
---------14h-16p-14----16--14~--------|--L------------------------|
--------------------17----------------|---------------------------|
--------------------------------------|---------------------------|
--------------------------------------|---------------------------|


                                                                      PH     
    Q      E  E    E    E    E   S   S      Q.       E    E    Q      E      
---------------------------------------|------------------------------------|
--(12)s----5--------------------12s-19-|--(19)------19--(19)--12------------|
--------------9s--12--(12)s--9---------|----------------------------<>5br~--|
---------------------------------------|------------------------------------|
---------------------------------------|------------------------------------|
---------------------------------------|------------------------------------|


  E  Q.     H           S  E     H        E.   S   S  
---------------------|-------------------------------|
---------------------|--L-(5)b~--L--------L---12s-19-|
--L--L------L--------|--L----------------------------|
---------------------|-------------------------------|
---------------------|-------------------------------|
---------------------|-------------------------------|


    E     Q       E    E     Q      S   S  
-----------------------------------15s-20-|
--(19)s--12\----/19--(19)s--12\-----------|
------------------------------------------|
------------------------------------------|
------------------------------------------|
------------------------------------------|


                                     PH                          
    Q       E   S   S   E.     E.    E       E  H        Q.      
--(20)s----11--15s-20-(20)s---11----------|---------------------|
-----------------------------------<>3b~--|--L--L--------L------|
------------------------------------------|---------------------|
------------------------------------------|---------------------|
------------------------------------------|---------------------|
------------------------------------------|---------------------|


       PH                \4                                       
  S    E    Q    Q       E   E.      Q    S S  E   Q    S S  E    
-----------------------------5----|--L----L----7---L----L----8---|
--L-<>(3)b--L----L----<>(3)--8b---|--L----L---10b--L----L---11b--|
----------------------------------|------------------------------|
----------------------------------|------------------------------|
----------------------------------|------------------------------|
----------------------------------|------------------------------|


  Q    S S  E   Q    S S  E      Q    S S  E   Q    S S  E    
--L----L---10---L----L----7---|--L----L----8---L----L---10---|
--L----L---13b--L----L---10b--|--L----L---11b--L----L---13b--|
------------------------------|------------------------------|
------------------------------|------------------------------|
------------------------------|------------------------------|
------------------------------|------------------------------|


  Q    S S  E   Q.     E     E  H.           E     W                 
--L----L---11---L------L--|--L------------------|-------------------|
--L----L---14b--L------L--|--L------------------|-------------------|
--------------------------|---------------------|-------------------|
--------------------------|---------------------|-------------------|
--------------------------|---------------------|-------------------|
--------------------------|---------------------|-------------------|
comments
print report bad tab
12 comments total. Showing first comments.
+3 reply
MangeuDePoutine wrote on July 6 2007, 04:28 pm

Wow, incredible job! 5*

+2 reply
ZoSo0305 wrote on July 6 2007, 10:18 pm

nice 5stars

+1 reply
Kooldood wrote on January 31 2008, 08:10 am

Hey, Ive been looking for pantera tabs with timing,
And this is the first full album with at least bars on!!!
*****!!!!

I want to post or [tab]
guest
You may want to rate the tab now too:
select rating
Please do not post tabs as comments. Select "correction" instead!