Oops, an error
Loading. Please wait.

Domination Tab

ver3
ver3

Solo

Whole song

More versions @911Tabs.com
2,504 views 3 this week
no commentswrite comment
1 2 3 4 5
worth learning
x 2
Autoscroll
+/-
esc
set tempo
stop
Contributor
Difficulty
intermediate
WARNING: You are trying to view
                                    content from Ultimate-Guitar.com
                                    in an unauthorized application,
                                    which is prohibited.

                                    Please use an official Ultimate
                                    Guitar Tabs application for iPhone,
                                    iPad or Android to access legitimate
                                    chords, guitar, bass, and drum tabs
                                    from Ultimate-Guitar.com database.

                                    Type "ultimate guitar tabs" in Apple
                                    App Store's or Android Market's
                                    search to find the application.
RIFF 1(a):

e -----------------------------------------------------------------------------|
b -----------------------------------------------------------------------------|
g -----------------------------------------------------------------------------|
d ----------------9-7-9-----------9-7-9-----------9-7-9------------------------|
a ----------------7-5-7-----------7-5-7-----------7-5-7-----------5-7-5--------|
E --------0---------------0---------------0---------------0-------3-5-3--------|

RIFF 1(b):

e -----------------------------------------------------------------------------|
b -----------------------------------------------------------------------------|
g -----------------------------------------------------------------------------|
d ----------------9-7-9-----------9-7-9-----------9-7-9------------------------|
a ----------------7-5-7-----------7-5-7-----------7-5-7-----------5-7-5--------|
E --------0-0-0-----------0-0-0-----------0-0-0-----------0-0-0---3-5-3--------|


RIFF 1(c):

e -----------------------------------------------------------------------------|
b -----------------------------------------------------------------------------|
g -----------------------------------------------------------------------------|
d ----------------9-7-9-----------9-7-9-----------9-7-9------------------------|
a ----------------7-5-7-----------7-5-7-----------7-5-7-----------5-7-5--------|
E --------0---0-----------0---0-----------0---0-----------0---0---3-5-3--------|


RIFF 2(a):  [6/4]                       RIFF 2(b):  [3/4]

e -----------------------------------------------------------------------------|
b -----------------------------------------------------------------------------|
g -----------------------------------------------------------------------------|
d -----------4-4-4-5-5-5-6-6-6-7-------------------4-5-6-7-8-9-----------------|
a -----------2-2-2-3-3-3-4-4-4-5-------------------2-3-4-5-6-7-----------------|
E -----------------------------------------------------------------------------|


RIFF 2(c):  [6/4]                               [4/4]

e -----------------------------------------|-----------------------------------|
b -----------------------------------------|-----------------------------------|
g -----------------------------------------|-----------------------------------|
d -----------4-4-4-5-5-5-6-6-6-7-7-7-------|------7----------------------------|
a -----------2-2-2-3-3-3-4-4-4-5-5-5-------|------7----------------------------|
E -----------------------------------------|------5----------------------------|


RIFF 3(a):                                          RIFF 3(b):

e --------------------------------------------------|--------------------------|
b --------------------------------------------------|--------------------------|
g --------------------------------------------------|--------------------------|
d --------------------------------------------------|--------------------------|
a --------------2---------------2-------------------|-----------2-----2---2----|
E ----------00000-----------00000-------------------|-------00000-00000-000----|

RIFF 4:

e -----------------------------------------------------------------------------|
b -----------------------------------------------------------------------------|
g -----------------------------------------------------------------------------|
d -----------------------------------------------------------------------------|
a --------9---8---7-6-5-4------------------------------------------------------|
E --------7---6---5-4-3-2------------------------------------------------------|

RIFF 5(a):

e -----------------------------------------------------------------------------|
b -----------------------------------------------------------------------------|
g -----------------------------------------------------------------------------|
d --------5---------------------------------------9---------------7------------|
a --------3---------------5-------7---------------7---------------5------------|
E ------------------------3-------5-------00000--0--------00000--0-------------|

                          RIFF 5(b):

e -----------------------|-----------------------------------------------------|
b -----------------------|-----------------------------------------------------|
g -----------------------|-----------------------------------------------------|
d -------------9---------|-----5---------------------------------------9-------|
a -------------7---------|-----3---------------5-------3---------------7-------|
E -----00000--0----------|---------------------3-------1-------00000--0--------|


e -----------------------------------------------------------------------------|
b -----------------------------------------------------------------------------|
g -----------------------------------------------------------------------------|
d-----------------7---------------4--------------------------------------------|
a ----------------5---------------2--------------------------------------------|
E --------00000--0--------00000--0---------------------------------------------|


RIFF 6:

e -----------------------------------------------------------------------------|
b -----------------------------------------------------------------------------|
g -----------------------------------------------------------------------------|
d -----------------------------------------------------------------------------|
a -----------2-----------------------------------------------------------------|
E -------0000000---------------------------------------------------------------|


RIFF 7:

e -----------------------------------------------------------------------------|
b -----------------------------------------------------------------------------|
g -----------------------------------------------------------------------------|
d -------17--------------15--------------14------------------------------------|
a -----------------------------------------------------------------------------|
E -------15--------------13--------------12------------------------------------|


e -----------------------------------------------------------------------------|
b -----------------------------------------------------------------------------|
g -----------------------------------------------------------------------------|
d -------17--------------15--------------12------------------------------------|
a -----------------------------------------------------------------------------|
E -------15--------------13--------------10------------------------------------|

RIFF 8:

e -----------------------------------------------------------------------------|
b -----------------------------------------------------------------------------|
g -----------------------------------------------------------------------------|
d -----------------------------------------------------------------------------|
a -------2-2-2---2-2-2---2-2-2---2-2-2-------2-2-2--2-2-2--2-2-2---------------|
E -------0-0-0---0-0-0---0-0-0---0-0-0-------0-0-0--0-0-0--0-0-0---------------|

RIFF 9(a)

e -----------------------------------------------------------------------------|
b -----------------------------------------------------------------------------|
g -----------------------------------------------------------------------------|
d -----------------------------------------------------------------------------|
a -------3-3-2-2-3-3-2-2-3-3-2-2-3-3-2-2-----2-2-2---2-2-2---2-2-2-------------|
E -------1-1-0-0-1-1-0-0-1-1-0-0-1-1-0-0-----0-0-0---0-0-0---0-0-0-------------|

RIFF 9(b)

e -----------------------------------------------------------------------------|
b -----------------------------------------------------------------------------|
g -----------------------------------------------------------------------------|
d -----------------------------------------------------------------------------|
a -------2-2-3-3-2-2-3-3-2-2-3-3-2-2-3/5-----2-2-2---2-2-2---2-2-2-------------|
E -------0-0-1-1-0-0-1-1-0-0-1-1-0-0-1/3-----0-0-0---0-0-0---0-0-0-------------|


This is the solo to domination ,it's pretty close.

e:13--12--13--16--13--12--13--12------12--13--12--13--12------12-------------|
B:--------------------------------15----------------------15------15--13--12-|
G:---------------------------------------------------------------------------|
D:---------------------------------------------------------------------------|
A:---------------------------------------------------------------------------|
E:---------------------------------------------------------------------------|

e:---------------------------------------------------------------------------|
B:-----13--12------12--------------------------------------------------------|
G:-14----------14------13~~~-------------------------------------------------|
D:---------------------------------/14~~~-------------------14--15-----------|
A:--------------------------------------------------14--15-------------------|
E:------------------------------------------------------------------12b(14)--|


             (fast part...)
e:---------------------------------------------------------------------------|
B:---------------------------------------------------------------------------|
G:---------------------------------------------------------12-15-18----------|
D:------------------------------12-15-18----------12-15-18----------12-15-18-|
A:---------------------12-15-18----------12-15-18----------------------------|
E:12~~~------/12-15-18-------------------------------------------------------|

e:------------------------------------12-15-18-15-12-15-18-15-12-15-18-15-12-|
B:---------12-15-18----------12-15-18----------------------------------------|
G:12-15-18----------12-15-18-------------------------------------------------|
D:---------------------------------------------------------------------------|
A:---------------------------------------------------------------------------|
E:---------------------------------------------------------------------------|

e:15-18-15-12-15-12------{22}-18-15-{22}-18-15-{22}-18-15-{22}-18-15-{21}-18-|
B:---------------------------------------------------------------------------|
G:---------------------------------------------------------------------------|
D:---------------------------------------------------------------------------|
A:---------------------------------------------------------------------------|
E:---------------------------------------------------------------------------|

e:15-{21}-18-15-{21}-18-15-{21}-18-15--22b(24)~~~------22b(24)-22~~~---------|
B:----------------------------------------------------------------------19-20|
G:---------------------------------------------------------------------------|
D:---------------------------------------------------------------------------|
A:---------------------------------------------------------------------------|
E:---------------------------------------------------------------------------|

e:---------------------------------------------------------------------------|
B:-----19---------------------------------------------------22---21---20---19|
G:--21----19-21-18-19------------18-19----18-19------------------------------|
D:--------------------21~~~------------21-------21b(24)----------------------|
A:---------------------------------------------------------------------------|
E:---------------------------------------------------------------------------|


e:------------------------------------------------|
B:---20-19----19----------------------------------|
G:---------21----21-19-18----21b(25)-19---21~~~---|
D:------------------------21----------------------|
A:------------------------------------------------|
E:------------------------------------------------|
comments
We did not receive enough feedback on this tab! Please rate:
1 2 3 4 5
I want to post or [tab]
guest
You may want to rate the tab now too:
select rating
Please do not post tabs as comments. Select "correction" instead!