Oops, an error
Loading. Please wait.

Domination Tab

ver4
ver4

Solo

Whole song

More versions @911Tabs.com
12,665 views 51 this week
no commentswrite comment
1 2 3 4 5
excellent!
x 4
Autoscroll
+/-
esc
set tempo
stop
Contributor
WARNING: You are trying to view
                                    content from Ultimate-Guitar.com
                                    in an unauthorized application,
                                    which is prohibited.

                                    Please use an official Ultimate
                                    Guitar Tabs application for iPhone,
                                    iPad or Android to access legitimate
                                    chords, guitar, bass, and drum tabs
                                    from Ultimate-Guitar.com database.

                                    Type "ultimate guitar tabs" in Apple
                                    App Store's or Android Market's
                                    search to find the application.
#----------------------------------PLEASE NOTE---------------------------------#
#This file is the author's own work and represents their interpretation of the #
#song. You may only use this file for private study, scholarship, or research. #
#------------------------------------------------------------------------------#

DOMINATION
As recorded by Pantera
(From the 1990 Album COWBOYS FROM HELL)

Transcribed by cbliss66@aol.com
	

Words and Music by Pantera
Arranged by Pantera

C5
x 3 5 5 x x
	
G5
3 5 x x x x
	
D5
x 5 7 x x x
	
F5
1 3 x x x x

Gtr I (E A D G B E) - 'Dimebag'
Gtr II (E A D G) - 'Rex'
Gtr III (E A D G B E) - 'Harmony Guitar I'
Gtr IV (E A D G B E) - 'Harmony Guitar II'

 Intro
  Fast Heavy Rock Q=280
                      E5 D5E5           D5E5           D5E5
 4/4
  Gtr I
                 PM-|           PM-|           PM-|
  H.       Q     Q  E Q  E Q    Q  E Q  E Q    Q  E Q  E Q
|--------------|--------------|--------------|---------------|
|--------------|--------------|--------------|---------------|
|--------------|--------------|--------------|---------------|
|--------------|------9--7-9--|------9--7-9--|------9--7-9---|
|--------------|------7--5-7--|------7--5-7--|------7--5-7---|
|---------12\--|-0--0---------|-0--0---------|-0--0----------|
|
| Gtr II
| W              Q  E Q  E Q    Q  E Q  E Q    Q  E Q  E Q
|--------------|--------------|--------------|---------------|
|--------------|--------------|--------------|---------------|
|--------------|------7--5-7--|------7--5-7--|------7--5-7---|
|--------------|-0--0---------|-0--0---------|-0--0----------|


       G5 A5G5        E5 D5E5           D5E5           D5E5
  PM-|           PM-|           PM-|           PM-|
  Q  E Q  E Q    Q  E Q  E Q    Q  E Q  E Q    Q  E Q  E Q
|--------------|--------------|--------------|--------------|
|--------------|--------------|--------------|--------------|
|--------------|--------------|--------------|--------------|
|--------------|------9--7-9--|------9--7-9--|------9--7-9--|
|------5--7-5--|------7--5-7--|------7--5-7--|------7--5-7--|
|-0--0-3--5-3--|-0--0---------|-0--0---------|-0--0---------|
|
| Q  E Q  E Q    Q  E Q  E Q    Q  E Q  E Q    Q  E Q  E Q
|--------------|--------------|--------------|--------------|
|--------------|--------------|--------------|--------------|
|--------------|------7--5-7--|------7--5-7--|------7--5-7--|
|-0--0-3--5-3--|-0--0---------|-0--0---------|-0--0---------|


       A5 BbG5         E5 D5E5            D5E5            D5E5
  PM-|           PM--|           PM--|           PM--|
  Q  E Q  E Q    E E E Q  E Q    E E E Q  E Q    E E E Q  E Q
|--------------|---------------|---------------|---------------|
|--------------|---------------|---------------|---------------|
|--------------|---------------|---------------|---------------|
|--------------|-------9--7-9--|-------9--7-9--|-------9--7-9--|
|------7--8-5--|-------7--5-7--|-------7--5-7--|-------7--5-7--|
|-0--0-5--6-3--|-0-0-0---------|-0-0-0---------|-0-0-0---------|
|
| Q  E Q  E Q    E E E Q  E Q    E E E Q  E Q    E E E Q  E Q
|--------------|---------------|---------------|---------------|
|--------------|---------------|---------------|---------------|
|--------------|-------7--5-7--|-------7--5-7--|-------7--5-7--|
|-0--0-5--6-3--|-0-0-0---------|-0-0-0---------|-0-0-0---------|


        G5 A5G5         E5 D5E5            D5E5            D5E5
  PM--|           PM--|           PM--|           PM--|
  E E E Q  E Q    E E E Q  E Q    E E E Q  E Q    E E E Q  E Q
|---------------|---------------|---------------|---------------|
|---------------|---------------|---------------|---------------|
|---------------|---------------|---------------|---------------|
|---------------|-------9--7-9--|-------9--7-9--|-------9--7-9--|
|-------5--7-5--|-------7--5-7--|-------7--5-7--|-------7--5-7--|
|-0-0-0-3--5-3--|-0-0-0---------|-0-0-0---------|-0-0-0---------|
|
| E E E Q  E Q    E E E Q  E Q    E E E Q  E Q    E E E Q  E Q
|---------------|---------------|---------------|---------------|
|---------------|---------------|---------------|---------------|
|---------------|-------7--5-7--|-------7--5-7--|-------7--5-7--|
|-0-0-0-3--5-3--|-0-0-0---------|-0-0-0---------|-0-0-0---------|


               Half-time feel Q=147
       A5 BbG5        E5D5E5      D5E5
  PM-|            PM|       PM|
  Q  E Q  E Q     E S E S E E S E S E
|--------------||---------------------|
|--------------||---------------------|
|--------------||---------------------|
|--------------||-----9-7-9-----9-7-9-|
|------7--8-5--||-----7-5-7-----7-5-7-|
|-0--0-5--6-3--||-0-0-------0-0-------|
|
| Q  E Q  E Q     E S E S E E S E S E
|--------------||---------------------|
|--------------||---------------------|
|--------------||-----7-5-7-----7-5-7-|
|-0--0-5--6-3--||-0-0-------0-0-------|


      E5D5E5    G5A5G5      E5D5E5      D5E5
  PM|       PM|         PM|       PM|
  E S E S E E S E S E   E S E S E E S E S E
|---------------------|---------------------|
|---------------------|---------------------|
|---------------------|---------------------|
|-----9-7-9-----------|-----9-7-9-----9-7-9-|
|-----7-5-7-----5-7-5-|-----7-5-7-----7-5-7-|
|-0-0-------0-0-3-5-3-|-0-0-------0-0-------|
|
| E S E S E E S E S E   E S E S E E S E S E
|---------------------|---------------------|
|---------------------|---------------------|
|-----7-5-7-----------|-----7-5-7-----7-5-7-|
|-0-0-------0-0-3-5-3-|-0-0-------0-0-------|


      E5D5E5    A5BbG5        E5D5E5        D5E5        E5D5E5      G5A5G5
  PM|       PM|         PM--|       PM--|         PM--|       PM--|
  E S E S E E S E S E   S S S E S E S S S E S E   S S S E S E S S S E S E
|---------------------|-------------------------|--------------------------|
|---------------------|-------------------------|--------------------------|
|---------------------|-------------------------|--------------------------|
|-----9-7-9-----------|-------9-7-9-------9-7-9-|-------9-7-9--------------|
|-----7-5-7-----7-8-5-|-------7-5-7-------7-5-7-|-------7-5-7-------5-7-5--|
|-0-0-------0-0-5-6-3-|-0-0-0-------0-0-0-------|-0-0-0-------0-0-0-3-5-3--|
|
| E S E S E E S E S E   E   S E S E E   S E S E   E   S E S E E   S E S E
|---------------------|-------------------------|--------------------------|
|---------------------|-------------------------|--------------------------|
|-----7-5-7-----------|-------7-5-7-------7-5-7-|-------7-5-7--------------|
|-0-0-------0-0-5-6-3-|-0---0-------0---0-------|-0---0-------0---0-3-5-3--|


                                                  Sl
        E5D5E5        D5E5  B5    C5    C#5   D5
  PM--|       PM--|           PM|   PM|   PM|
                            |-3-| |-3-| |-3-|
  S S S E S E S S S E S E   E E E E E E E E E Q
|-------------------------|-----------------------||
|-------------------------|-----------------------||
|-------------------------|-----------------------||
|-------9-7-9-------9-7-9-|-4-4-4-5-5-5-6-6-6-7\--||
|-------7-5-7-------7-5-7-|-2-2-2-3-3-3-4-4-4-5\--||
|-0-0-0-------0-0-0-------|-----------------------||
|
|                           |-3-| |-3-| |-3-|
| E   S E S E E   S E S E   E E E E E E E E E Q
|-------------------------|-----------------------||
|-------------------------|-----------------------||
|-------7-5-7-------7-5-7-|-2-2-2-3-3-3-4-4-4-5\--||
|-0---0-------0---0-------|-----------------------||


 ightly slower Q=140
          E5
  PM----|            PM----|
  S S S S E E H      S S S S E E H
|------------------|------------------|
|------------------|------------------|
|------------------|------------------|
|------------------|------------------|
|---------2--------|---------2--------|
|-0-0-0-0-0--------|-0-0-0-0-0--------|
|
| S S S S E E H      S S S S E E H
|------------------|------------------|
|------------------|------------------|
|------------------|------------------|
|-0-0-0-0-0--------|-0-0-0-0-0--------|


          E5         B5  Bb5 A5  G5  F#F5
  PM----|            PM-------------------
  S S S S E E H      S E S E S E S E E E
|------------------|---------------------|
|------------------|---------------------|
|------------------|---------------------|
|------------------|-4-4-3-3-2-2---------|
|---------2--------|-2-2-1-1-0-0-5-5-4-3-|
|-0-0-0-0-0--------|-------------3-3-2-1-|
|
| S S S S E E H      S E S E S E S E E E
|------------------|---------------------|
|------------------|---------------------|
|------------------|-2-2-1-1-0-0---------|
|-0-0-0-0-0--------|-------------3-3-2-1-|


   1st and 2nd Verses
            E5
 ---------|            PM----|
    S S S S E E H      S S S S E E H
||-------------------|------------------|
||o------------------|------------------|
||-------------------|------------------|
||-------------------|------------------|
||o---------2--------|---------2--------|
||--0-0-0-0-0--------|-0-0-0-0-0--------|
|
|   S S S S E E H      S S S S E E H
||-------------------|------------------|
||o------------------|------------------|
||o------------------|------------------|
||--0-0-0-0-0--------|-0-0-0-0-0--------|


          E5
  PM----|            PM----|            PM----|            PM----|
  S S S S E E H      S S S S E E H      S S S S E E H      S S S S E E H
|------------------|------------------|------------------|------------------|
|------------------|------------------|------------------|------------------|
|------------------|------------------|------------------|------------------|
|------------------|------------------|------------------|------------------|
|---------2--------|---------2--------|---------2--------|---------2--------|
|-0-0-0-0-0--------|-0-0-0-0-0--------|-0-0-0-0-0--------|-0-0-0-0-0--------|
|
| S S S S E E H      S S S S E E H      S S S S E E H      S S S S E E H
|------------------|------------------|------------------|------------------|
|------------------|------------------|------------------|------------------|
|------------------|------------------|------------------|------------------|
|-0-0-0-0-0--------|-0-0-0-0-0--------|-0-0-0-0-0--------|-0-0-0-0-0--------|


          E5         B5  Bb5 A5  G5  F#F5          E5
  PM----|            PM--------------------------|            PM----|
  S S S S E E H      S E S E S E S E E E   S S S S E E H      S S S S E E H
|------------------|---------------------|------------------|------------------|
|------------------|---------------------|------------------|------------------|
|------------------|---------------------|------------------|------------------|
|------------------|-4-4-3-3-2-2---------|------------------|------------------|
|---------2--------|-2-2-1-1-0-0-5-5-4-3-|---------2--------|---------2--------|
|-0-0-0-0-0--------|-------------3-3-2-1-|-0-0-0-0-0--------|-0-0-0-0-0--------|
|
| S S S S E E H      S E S E S E S E E E   S S S S E E H      S S S S E E H
|------------------|---------------------|------------------|------------------|
|------------------|---------------------|------------------|------------------|
|------------------|-2-2-1-1-0-0---------|------------------|------------------|
|-0-0-0-0-0--------|-------------3-3-2-1-|-0-0-0-0-0--------|-0-0-0-0-0--------|


          E5                           Bb5   Bb5
  PM----|            PM----|   PM----|   PM|
  S S S S E E H      S S S S E S S S S E S S E
|------------------|---------------------------|
|------------------|---------------------------|
|------------------|---------------------------|
|------------------|-------------------3-----3-|
|---------2--------|---------2---------1-----1-|
|-0-0-0-0-0--------|-0-0-0-0-0-0-0-0-0---0-0---|
|
| S S S S E E H      S S S S E S S S S E S S E
|------------------|---------------------------|
|------------------|---------------------------|
|------------------|-------------------1-----1-|
|-0-0-0-0-0--------|-0-0-0-0-0-0-0-0-0---0-0---|


          E5
  PM----|            PM----|
  S S S S E E H      S S S S E E H
|------------------|------------------|
|------------------|------------------|
|------------------|------------------|
|------------------|------------------|
|---------2--------|---------2--------|
|-0-0-0-0-0--------|-0-0-0-0-0--------|
|
| S S S S E E H      S S S S E E H
|------------------|------------------|
|------------------|------------------|
|------------------|------------------|
|-0-0-0-0-0--------|-0-0-0-0-0--------|


                                           Pre-Chorus
                                         Slightly Faster Q=143
          E5         B5  Bb5 A5  G5  F#F5   C5               G5     D5
  PM----|            PM----------------|
  S S S S E E H      S E S E S E S E E E    W                H      H
|------------------|---------------------||----------------|-------------|
|------------------|---------------------||----------------|-------------|
|------------------|---------------------||----------------|-------------|
|------------------|-4-4-3-3-2-2---------||-5--------------|--------7----|
|---------2--------|-2-2-1-1-0-0-5-5-4-3-||-3--------------|-5------5----|
|-0-0-0-0-0--------|-------------3-3-2-1-||----------------|-3-----------|
|
| S S S S E E H      S E S E S E S E E E    H    +E  E E E   Q  E E H
|------------------|---------------------||----------------|-------------|
|------------------|---------------------||----------------|----2-1-0----|
|------------------|-2-2-1-1-0-0---------||-3----(3)-------|-------------|
|-0-0-0-0-0--------|-------------3-3-2-1-||----------0-1-2-|-3-----------|


              G5                         F5
  PM--------|                PM--------|
  S S S S E S  S  +H         S S S S E S  S  +H
|--------------------------|--------------------------|
|--------------------------|--------------------------|
|--------------------------|--------------------------|
|-------------12-(12)------|-------------10-(10)------|
|-------------10-(10)------|--------------8--(8)------|
|-0-0-0-0-0-0--------------|-0-0-0-0-0-0--------------|
|
| S S S S E E      Q   Q     S S S S E E      Q   Q
|--------------------------|--------------------------|
|--------------------------|--------------------------|
|----------------------7\--|----------------------7\--|
|-0-0-0-0-0----------------|-0-0-0-0-0----------------|


              G5             B5  Bb5 A5  G5  F#F5
  PM--------|                PM----------------|
  S S S S E S  S  +H         S E S E S E S E E E
|--------------------------|----------------------|
|--------------------------|----------------------|
|--------------------------|----------------------|
|-------------12-(12)------|-4-4-3-3-2-2----------|
|-------------10-(10)------|-2-2-1-1-0-0-5-5-4-3--|
|-0-0-0-0-0-0--------------|-------------3-3-2-1--|
|
| S S S S E E      Q   Q     S E S E S E S E E E
|--------------------------|----------------------|
|--------------------------|----------------------|
|----------------------7\--|-2-2-1-1-0-0----------|
|-0-0-0-0-0----------------|-------------3-3-2-1--|


  C5               G5     F5
  W                H      H
|----------------|-------------|
|----------------|-------------|
|----------------|-------------|
|-5--------------|-------------|
|-3--------------|-5------3----|
|----------------|-3------1----|
|
| H    +E  E E E   Q  E E H
|----------------|-------------|
|----------------|-------------|
|-3----(3)-------|-------------|
|----------0-1-2-|-3--3-2-1----|


              G5                         F5
  PM--------|                PM--------|
  S S S S E S  S  +H         S S S S E S  S  +H
|--------------------------|-------------------------------|
|--------------------------|-------------------------------|
|--------------------------|-------------------------------|
|-------------12-(12)------|-------------10-(10)-----------|
|-------------10-(10)------|--------------8--(8)-----------|
|-0-0-0-0-0-0--------------|-0-0-0-0-0-0-------------------|
|
|                                                  ~~~~~~~
| S S S S E E      Q   Q     S S S S E Q           E  +Q
|--------------------------|-------------------------------|
|--------------------------|-------------------------------|
|----------------------7\--|---------------------/13-(13)--|
|-0-0-0-0-0----------------|-0-0-0-0-0---------------------|


              G5             G5A5B5C5 D5
  PM--------|              PM--------------
                           |-3-| |--3--|
  S S S S E S S +H         Q Q Q Q  Q  Q
|------------------------|---------------||
|------------------------|---------------||
|------------------------|---------------||
|-------------7-(7)------|---------------||
|-------------5-(5)------|---5-7-9-10-12-||
|-0-0-0-0-0-0------------|-0-3-5-7--8-10-||
|
|                          |-3-| |--3--|
| S S S S E E    Q   Q     Q Q Q Q  Q  Q
|------------------------|---------------||
|------------------------|-------------0-||
|--------------------7\--|-----0-2--3----||
|-0-0-0-0-0--------------|-0-3-----------||


 Chorus
      E5D5E5      D5E5        D5E5    G5A5G5
 ---|       PM|         PM|       PM|
  E S E S E E S E S E   E S E S E E S E S E
|---------------------|----------------------|
|---------------------|----------------------|
|---------------------|----------------------|
|-----9-7-9-----9-7-9-|-----9-7-9------------|
|-----7-5-7-----7-5-7-|-----7-5-7-----5-7-5--|
|-0-0-------0-0-------|-0-0-------0-0-3-5-3--|
|
| E S E S E E S E S E   E S E S E E S E S E
|---------------------|----------------------|
|---------------------|----------------------|
|-----7-5-7-----7-5-7-|-----7-5-7------------|
|-0-0-------0-0-------|-0-0-------0-0-3-5-3--|


      E5D5E5      D5E5      E5D5E5    A5BbG5        E5D5E5        D5E5
  PM|       PM|         PM|       PM|         PM--|       PM--|
  E S E S E E S E S E   E S E S E E S E S E   S S S E S E S S S E S E
|---------------------|---------------------|--------------------------|
|---------------------|---------------------|--------------------------|
|---------------------|---------------------|--------------------------|
|-----9-7-9-----9-7-9-|-----9-7-9-----------|-------9-7-9-------9-7-9--|
|-----7-5-7-----7-5-7-|-----7-5-7-----7-8-5-|-------7-5-7-------7-5-7--|
|-0-0-------0-0-------|-0-0-------0-0-5-6-3-|-0-0-0-------0-0-0--------|
|
| E S E S E E S E S E   E S E S E E S E S E   E   S E S E E   S E S E
|---------------------|---------------------|--------------------------|
|---------------------|---------------------|--------------------------|
|-----7-5-7-----7-5-7-|-----7-5-7-----------|-------7-5-7-------7-5-7--|
|-0-0-------0-0-------|-0-0-------0-0-5-6-3-|-0---0-------0---0--------|


        E5D5E5      G5A5G5        E5D5E5        D5E5
  PM--|       PM--|         PM--|       PM--|
  S S S E S E S S S E S E   S S S E S E S S S E S E
|-------------------------|-------------------------|
|-------------------------|-------------------------|
|-------------------------|-------------------------|
|-------9-7-9-------------|-------9-7-9-------9-7-9-|
|-------7-5-7-------5-7-5-|-------7-5-7-------7-5-7-|
|-0-0-0-------0-0-0-3-5-3-|-0-0-0-------0-0-0-------|
|
| E   S E S E E   S E S E   E   S E S E E   S E S E
|-------------------------|-------------------------|
|-------------------------|-------------------------|
|-------7-5-7-------------|-------7-5-7-------7-5-7-|
|-0---0-------0---0-3-5-3-|-0---0-------0---0-------|


              B5    C5    C#5   D5
 6/4
  PM--|         PM|   PM|   PM|
              |-3-| |-3-| |-3-|
  S S S E S E E E E E E E E E E Q
|-----------------------------------|
|-----------------------------------|
|-----------------------------------|
|-------9-7-9-4-4-4-5-5-5-6-6-6-7\--|
|-------7-5-7-2-2-2-3-3-3-4-4-4-5\--|
|-0-0-0-----------------------------|
|
|             |-3-| |-3-| |-3-|
| E   S E S E E E E E E E E E E Q
|-----------------------------------|
|-----------------------------------|
|-------7-5-7-2-2-2-3-3-3-4-4-4-5\--|
|-0---0-----------------------------|


  1.
  A5                                  E5
 4/4
                              PM----|            PM----|
  W          +H.       Q      S S S S E E H      S S S S E E H
|----------|----------------|------------------|------------------|
|----------|----------------|------------------|------------------|
|----------|----------------|------------------|------------------|
|----------|----------------|------------------|------------------|
|-7--------|-(7)-------7\---|---------2--------|---------2--------|
|-5--------|-(5)-------5\---|-0-0-0-0-0--------|-0-0-0-0-0--------|
|
| W          +H.      +Q      S S S S E E H      S S S S E E H
|----------|----------------|------------------|------------------|
|----------|----------------|------------------|------------------|
|----------|----------------|------------------|------------------|
|-5--------|-(5)------(5)\--|-0-0-0-0-0--------|-0-0-0-0-0--------|


                                            2.
          E5         B5  Bb5 A5  G5  F#F5    A5
  PM----|            PM----------------|
  S S S S E E H      S E S E S E S E E E     W          +H.      Q
|------------------|----------------------||----------|-------------|
|------------------|---------------------o||----------|-------------|
|------------------|----------------------||----------|-------------|
|------------------|-4-4-3-3-2-2----------||----------|-------------|
|---------2--------|-2-2-1-1-0-0-5-5-4-3-o||-7--------|-(7)---------|
|-0-0-0-0-0--------|-------------3-3-2-1--||-5--------|-(5)------3--|
|
| S S S S E E H      S E S E S E S E E E     W          +W
|------------------|----------------------||----------|-------------|
|------------------|---------------------o||----------|-------------|
|------------------|-2-2-1-1-0-0---------o||----------|-------------|
|-0-0-0-0-0--------|-------------3-3-2-1--||-5--------|-(5)---------|


                                       Sl
  A5
   /1______________________\6       |
   ~~~~~~~~~~~~~~~~~~~~~~~~~~~
  +H      +H       +H     +H        a
|----------------|---------------------||
|----------------|---------------------||
|----------------|---------------------||
|----------------|---------------------||
|----------------|---------------------||
|-(3)-----(3)----|-(3)----(3)------(3)-||
|
|  W               +H.         Q
|----------------|---------------------||
|----------------|---------------------||
|----------------|---------------------||
|--5-------------|-(5)---------5\------||


 Bridge
 ightly Faster Q=145
          E5                   E5
  PM----|   PM|        PM----|   PM|
  S S S S E S S H      S S S S E S S H
|--------------------|--------------------|
|--------------------|--------------------|
|--------------------|--------------------|
|---------9----------|---------9----------|
|---------7----------|---------7----------|
|-0-0-0-0---0-0------|-0-0-0-0---0-0------|
|
| S S S S E S S H      S S S S E S S H
|--------------------|--------------------|
|--------------------|--------------------|
|---------7----------|---------7----------|
|-0-0-0-0---0-0------|-0-0-0-0---0-0------|


          E5                   E5
  PM----|   PM|        PM----|   PM|
  S S S S E S S H      S S S S E S S H
|--------------------|-----------------------|
|--------------------|-----------------------|
|--------------------|-----------------------|
|---------9----------|---------9-------------|
|---------7----------|---------7-------------|
|-0-0-0-0---0-0------|-0-0-0-0---0-0---------|
|
| S S S S E S S H      S S S S E S S E E Q
|--------------------|-----------------------|
|--------------------|-----------------------|
|---------7----------|---------7-------7-7\--|
|-0-0-0-0---0-0------|-0-0-0-0---0-0---------|


  G5                    F5
   W                     W
|---------------------|----------------------------|
|---------------------|----------------------------|
|---------------------|----------------------------|
|-12------------------|-10-------------------------|
|-10------------------|--8-------------------------|
|---------------------|----------------------------|
|
|  S S S S E S S H       S S S S E S S Q  S S S S
|---------------------|----------------------------|
|---------------------|----------------------------|
|----------7----------|--5-7-----7------------5h7--|
|--0-0-0-0---0-0------|------0-0---0-0----5h7------|


  E5
  W                    +W
|--------------------|-------------------------|
|--------------------|-------------------------|
|--------------------|-------------------------|
|-2------------------|-(2)---------------------|
|-2------------------|-(2)---------------------|
|-0------------------|-(0)---------------------|
|
| S S S S E S S H       S  S S S E S S E E E E
|--------------------|-------------------------|
|--------------------|-------------------------|
|-5-7-----7----------|--5--7-----7-------7-7---|
|-----0-0---0-0------|-------0-0---0-0-------7-|


  G5                F5
   W                 W
|-----------------|---------------------------|
|-----------------|---------------------------|
|-----------------|---------------------------|
|-12--------------|-10------------------------|
|-10--------------|--8------------------------|
|-----------------|---------------------------|
|
|  E E E S S H       S S S S E S S Q  S S S S
|-----------------|---------------------------|
|-----------------|---------------------------|
|------7----------|--5-7-----7------------5h7-|
|--0-0---0-0------|------0-0---0-0----5h7-----|


  D5
                                                      \2
                                          ~~~~~~~~~~~~
  W                     Q        +Q      +Q      +E  +E
|--------------------|-----------------------------------||
|--------------------|-----------------------------------||
|-7------------------|-<5>b11====(5)-----(5)-----(5)r(5)-||
|-7------------------|-<5>b11====(5)-----(5)-----(5)r(5)-||
|-5------------------|-----------------------------------||
|--------------------|--0--------(0)-----(0)-----(0)-(0)-||
|
| S S S S E S S H       E      E  S  S E  E  S S  Q
|--------------------|-----------------------------------||
|--------------------|-----------------------------------||
|-5-7-----7----------|--7------------7-7--7-------7\-----||
|-----0-0---0-0------|---------0-------------0-0---------||


 Guitar Solo
  Q        S  S  S  S  S  S  S  S  S  S  S  S
|---------13p12h13-16-13p12-13p12----12-13p12-|
|---------------------------------15----------|
|---------------------------------------------|
|---------------------------------------------|
|---------------------------------------------|
|---------------------------------------------|
|
| S S S S  E     S  S  H
|---------------------------------------------|
|---------------------------------------------|
|-5-7------7----------------------------------|
|-----0-0--------0--0-------------------------|


                                        ~~~~~~~
   S  S  S  S  S  S  S  S   S  S  S  S  Q
|-13p12----12---------------------------------|
|-------15----15-13-12-----13-12----12--------|
|----------------------14--------14----13-----|
|---------------------------------------------|
|---------------------------------------------|
|---------------------------------------------|
|
|  S  S  S  S  E     S  E.        E     S S E
|---------------------------------------------|
|---------------------------------------------|
|--5--7--------7----------------------------5-|
|--------0--0--------0--0---------0-----5-7---|


 ~~~~~~                ~~~                     ~
   +Q        E E      +Q   E S  S   E    E   E H          +E
|---------------------------------|-----------------------------|
|---------------------------------|-----------------------------|
|-(13)---------9b10r==(9)---------|-9---10---9------------------|
|----------------------------9h10-|-----------------------------|
|---------------------------------|------------7----------(7)\--|
|------------0-------------0------|-----------------------------|
|
|   S  S S S E S    S  H            S S  S S E S E. E S S  E
|---------------------------------|-----------------------------|
|---------------------------------|-----------------------------|
|---5--7-----7--------------------|-5-7------7-------------5----|
|--------0-0---0----0-------------|------0-0---0-0--0-5-7-------|


   |--------6---------|  |--------6--------|  |-------6-------|  |------6-------|
   S  S    S  S  S    S  S  S   S  S  S    S  S  S  S  S  S   S  S  S  S  S  S  S
|---------------------------------------------------------------------------------|
|---------------------------------------------------------------------------------|
|-----------------------------------------------------12h15--------------12h15h18-|
|-----------------------12h15----------------12h15h18-------h19-12h15h18----------|
|------------12h15h==19-------h19-12h15h==18--------------------------------------|
|-12h15h==18----------------------------------------------------------------------|
|
|  S    S     S    S     E         S    S     H
|---------------------------------------------------------------------------------|
|---------------------------------------------------------------------------------|
|--5----7----------------7--------------------------------------------------------|
|-------------0----0---------------0----0-----------------------------------------|


   |--------6---------|  |--------6--------|  |------6-------|  |-------6--------|
   S  S    S  S  S    S  S  S  S  S  S     S  S  S  S  S  S  S  S  S    S  S  S  S
|--------------------------------------------12h15h18p15p12-------12h==15h19p15p14----|
|-12h15h==18------------12h14h18p14p12h===18----------------19p15---------------------|
|------------12h15h==18---------------------------------------------------------------|
|-------------------------------------------------------------------------------------|
|-------------------------------------------------------------------------------------|
|-------------------------------------------------------------------------------------|
|
|  S    S     S    S     E        S    E.              E        S    S     E
|-------------------------------------------------------------------------------------|
|-------------------------------------------------------------------------------------|
|--5----7----------------7-------------------------------------------------5----------|
|-------------0----0--------------0----0---------------0--------5----7----------------|


   |-----------7-----------|  |----------7----------|  |--------7--------|  |--------7--------|
   S  S    S  S    S  S    S  S  S  S  S    S  S    S  S  S  S  S  S  S  S  S  S  S  S  S  S  S
|-22-22---22-22---22-18------22-22-22-22---22-18------22-22-22-22-22-18----22-22-22-22-22-18----|
|-------------------------20-----------------------20-------------------20-------------------20-|
|-----------------------------------------------------------------------------------------------|
|-----------------------------------------------------------------------------------------------|
|-----------------------------------------------------------------------------------------------|
|-----------------------------------------------------------------------------------------------|
|
|  S    S       S       S     E          S       S     H
|-----------------------------------------------------------------------------------------------|
|-----------------------------------------------------------------------------------------------|
|--5----7---------------------7-----------------------------------------------------------------|
|---------------0-------0----------------0-------0----------------------------------------------|


   |--------6---------|  |--------6--------|  |------6-------|  |-------6--------|
   S  S    S  S  S    S  S  S  S  S  S     S  S  S  S  S  S  S  S  S    S  S  S  S
|-21-21---21-21-18------21-21-21-21-18-------21-21-21-21-18----21-21---21-21-18-------||
|--------------------20-------------------20----------------20------------------20----||
|-------------------------------------------------------------------------------------||
|-------------------------------------------------------------------------------------||
|-------------------------------------------------------------------------------------||
|-------------------------------------------------------------------------------------||
|
|  S    S     S    S     E        S    E.              E        S    S     E
|-------------------------------------------------------------------------------------||
|-------------------------------------------------------------------------------------||
|--5----7----------------7-------------------------------------------------5----------||
|-------------0----0--------------0----0---------------0--------5----7----------------||


 Harmony Guitar Section
  C5                                      G5        D5
  Gtr I
   W                                        H       H
   |                                        |       |
   /                                        /       /

  Gtr III
                                            ~~~~
   E      +E   +Q    +Q      E      +E     +W
|-22b24==(22)-(22)--(22)r---22b24==(22)r|=(22)------------|
|---------------------------------------|-----------------|
|---------------------------------------|-----------------|
|---------------------------------------|-----------------|
|---------------------------------------|-----------------|
|---------------------------------------|-----------------|
|
| Gtr IV
|                                           ~~~~
|  E      +E   +Q    +Q      E      +E     +W
|---------------------------------------|-----------------|
|-22b24==(22)-(22)--(22)r---22b24==(22)r|=(22)------------|
|---------------------------------------|-----------------|
|---------------------------------------|-----------------|
|---------------------------------------|-----------------|
|---------------------------------------|-----------------|
|
| Gtr II
|  H                 +E   E  E       E      Q   E E Q  Q
|---------------------------------------|-----------------|
|---------------------------------------|-------2-1-0--0--|
|--3-----------------(3)----------------|-----------------|
|-------------------------0--1-------2--|---3-------------|


   H                            H
   |
   o

                                            ~~~~
   |----3----|    |---3---|     |---3---|
   E    E    E    E  E    E     E  E    E  +Q
|-19---20---17---19-15---17----14-15---12-(12)------|
|---------------------------------------------------|
|---------------------------------------------------|
|---------------------------------------------------|
|---------------------------------------------------|
|---------------------------------------------------|
|
|                                           ~~~~
|  |----3----|    |---3---|     |---3---|
|  E    E    E    E  E    E     E  E    E  +Q
|---------------------------------------------------|
|-19---20---17---19-15---17----13-15---12-(12)------|
|---------------------------------------------------|
|---------------------------------------------------|
|---------------------------------------------------|
|---------------------------------------------------|
|
|  S S    S    S  E    S    E.       E      S  S E
|---------------------------------------------------|
|---------------------------------------------------|
|--5-7------------7------------------------------5--|
|---------0----0-------0----0--------0------5--7----|


   |----3----|    |---3---|
   E    E    E    E  E    E     +Q         +E   +E
|-14---15--------14-15-------------------------------|
|-----------17-----------17----(17)b19====(17)-(17)r-|
|----------------------------------------------------|
|----------------------------------------------------|
|----------------------------------------------------|
|----------------------------------------------------|
|
|  |----3----|    |---3---|
|  E    E    E    E  E    E     +Q         +E   +E
|----------------------------------------------------|
|-13---15--------13-15-------------------------------|
|-----------16-----------16----(16)b18====(16)-(16)r-|
|----------------------------------------------------|
|----------------------------------------------------|
|----------------------------------------------------|
|
|  S S    S    S  E    S    E.          E   Q
|----------------------------------------------------|
|----------------------------------------------------|
|--5-7------------7----------------------------------|
|---------0----0-------0----0-----------0------------|


                                                                       ~~
   e    e    e  e     S  S  S  S  S  S  S  S        +Q         +E   E  H
|-17---16---15-14----15-14-13-14-13-12----12b15==|=(12)r======(12)-10h12---------|
|--------------------------------------15--------|-------------------------------|
|------------------------------------------------|-------------------------------|
|------------------------------------------------|-------------------------------|
|------------------------------------------------|-------------------------------|
|------------------------------------------------|-------------------------------|
|
|                                                                      ~~
|  e    e    e  e     S  S  S  S  S  S  S  S        +Q         +E   E  H
|-----------------------------------------12b15==|=(12)r======(12)-10h12---------|
|-17---16---15-13----15-13-12-13-12--------------|-------------------------------|
|-----------------------------------14-12--------|-------------------------------|
|------------------------------------------------|-------------------------------|
|------------------------------------------------|-------------------------------|
|------------------------------------------------|-------------------------------|
|
|  S S  S S  E  S E.        E     S  S  E            S  S S S   E   Q    E E E
|------------------------------------------------|-------------------------------|
|------------------------------------------------|-----------------------7-8-9---|
|--5-7-------7--------------------------5--------|---5--7-----------7------------|
|-------0-0-----0-0---------0-----5--7-----------|--------0-0---0----------------|


  C5                         G5        F5/C
               \1/
                    ~~~~~~~~~~~~~~~~~~~~~
  H       +E  +E   +E  +E    +Q    Q   H
|--------------------------|-----------------|
|--------------------------|-----------------|
|--------------------------|-----------------|
|-5b9=====(5)-(5)--(5)-(5)-|-(5)r--5---------|
|--------------------------|-----------3-----|
|--------------------------|-----------------|
|
| W                           H        H
|--------------------------|-----------------|
|--------------------------|-----------------|
|--------------------------|-----------------|
|-5------------------------|-----------3-----|
|-3------------------------|--5--------3-----|
|--------------------------|--3--------------|
|
| H       +E   E    E   E     Q    E E Q  Q
|--------------------------|-----------------|
|--------------------------|-----------------|
|-3-------(3)--------------|-----------------|
|--------------0----1---2--|--3----3-2-1--1--|


  C5
   |------6-------| |------6------|  |------6-------|  |------6-------|
   S  S  S  S  S  S S  S  S S  S  S  S  S  S  S  S  S  S  S  S  S  S  S
|-------------------------------------------------------------------------|
|-------------------------------------------------------------------------|
|-------------------------------------------------------------------------|
|-----------------------------------------------------10-12-14-10-12-14---|
|-------------------9-10-12-9-10-12-10-12-14-10-12-14---------------------|
|-10-12-14-10-12-14-------------------------------------------------------|
|
|  PM----------------------------------------------------------|
|  E        E       E       E        E        E        E        E
|-------------------------------------------------------------------------|
|-------------------------------------------------------------------------|
|-------------------------------------------------------------------------|
|--5--------5-------5-------5--------5--------5--------5--------5---------|
|--3--------3-------3-------3--------3--------3--------3--------3---------|
|-------------------------------------------------------------------------|
|
|  E        E       E       E        E        E        E        E
|-------------------------------------------------------------------------|
|-------------------------------------------------------------------------|
|--3--------3-------3-------3--------3--------3--------3--------3---------|
|-------------------------------------------------------------------------|


  C#5
   |------6-------|  |------6-------|  |------6-------|  |------6-------|
   S  S  S  S  S  S  S  S  S  S  S  S  S  S  S  S  S  S  S  S  S  S  S  S
|-------------------------------------------------------------------------|
|-------------------------------------12-13-15-12-13-15-14-15-17-15-16-18-|
|-11-12-14-11-12-14-12-13-15-12-13-15-------------------------------------|
|-------------------------------------------------------------------------|
|-------------------------------------------------------------------------|
|-------------------------------------------------------------------------|
|
|  PM----------------------------------------------------------------------
|  E        E        E        E        E        E        E        E
|-------------------------------------------------------------------------|
|-------------------------------------------------------------------------|
|-------------------------------------------------------------------------|
|--6--------6--------6--------6--------6--------6--------6--------6-------|
|--4--------4--------4--------4--------4--------4--------4--------4-------|
|-------------------------------------------------------------------------|
|
|  E        E        E        E        E        E        E        E
|-------------------------------------------------------------------------|
|-------------------------------------------------------------------------|
|--4--------4--------4--------4--------4--------4--------4--------4-------|
|-------------------------------------------------------------------------|


  Slow Down Q=120
  D5
   |------6-------|  |------6-------|  |------6-------|  |------6-------|
   S  S  S  S  S  S  S  S  S  S  S  S  S  S  S  S  S  S  S  S  S  S  S  S
|-------------------15-17-19-15-17-19-17-19-20-17-19-20-19-20-22-19-20-22--|
|-15-17-19-15-17-19--------------------------------------------------------|
|--------------------------------------------------------------------------|
|--------------------------------------------------------------------------|
|--------------------------------------------------------------------------|
|--------------------------------------------------------------------------|
|
|----------------------------------------------------------------|
|  E        E        E        E        E        E        E        E
|--------------------------------------------------------------------------|
|--------------------------------------------------------------------------|
|--------------------------------------------------------------------------|
|--7--------7--------7--------7--------7--------7--------7--------7--------|
|--5--------5--------5--------5--------5--------5--------5--------5--------|
|--------------------------------------------------------------------------|
|
|  E        E        E        E        E        E        E        E
|--------------------------------------------------------------------------|
|--------------------------------------------------------------------------|
|--5--------5--------5--------5--------5--------5--------5--------5--------|
|--------------------------------------------------------------------------|


  And Slower Q=100                               S
  Eb5
                                             \2
             ~~~~~~~~~~~~~              ~~~~
   E        +E   +E   +E   E      +E   +E   +E
|-22b23.5==(22)-(22)-(22)-22b25==(22)-(22)-(22)r-|
|-------------------------22b25==(22)-(22)-(22)r-|
|------------------------------------------------|
|------------------------------------------------|
|------------------------------------------------|
|------------------------------------------------|
|
|  PM---------------------------------------------
|  E         E    E    E   E       E    E    E
|------------------------------------------------|
|------------------------------------------------|
|------------------------------------------------|
|--8---------8----8----8---8-------8----8----8---|
|--6---------6----6----6---6-------6----6----6---|
|------------------------------------------------|
|
|  E         E    E    E   E       E    E    E
|------------------------------------------------|
|------------------------------------------------|
|--6---------6----6----6---6-------6----6----6---|
|------------------------------------------------|


   Breakdown
 low Heavy Rock Q=82
    F5
    PM--------------------|     PM--------------|
    S S e S S e S S e S S e   E S S e S S e S S e E  4x
||--------------------------|------------------------||
||o-------------------------|-----------------------o||
||--------------------------|------------------------||
||--------------------------|------------------------||
||o-3-3-3-3-3-3-3-3-3-3-3-3-|---3-3-3-3-3-3-3-3-3---o||
||--1-1-1-1-1-1-1-1-1-1-1-1-|---1-1-1-1-1-1-1-1-1----||
|
|-----------------------------------------------|
|   S S e S S e S S e S S e   E S S e S S e S S e E  4x
||--------------------------|------------------------||
||o-------------------------|-----------------------o||
||--------------------------|------------------------||
||--------------------------|------------------------||
||o-3-3-3-3-3-3-3-3-3-3-3-3-|---3-3-3-3-3-3-3-3-3---o||
||--1-1-1-1-1-1-1-1-1-1-1-1-|---1-1-1-1-1-1-1-1-1----||
|
|   S S e S S e S S e S S e   E S S e S S e S S e E  4x
||--------------------------|------------------------||
||o-------------------------|-----------------------o||
||o-------------------------|-----------------------o||
||--1-1-1-1-1-1-1-1-1-1-1-1-|---1-1-1-1-1-1-1-1-1----||


   Guitar Break
    F5
    Gtr I
     S     S     e           S     S     e           S     S     e           S     S     e
     |     |     |           |     |     |           |     |     |           |     |     |
     /     /     /           /     /     /           /     /     /           /     /     /

     T  T  T  T  T  T  T  T  T  T  T  T  T  T  T  T  T  T  T  T  T  T  T  T  T  T  T  T  T  T  T T
||--20-16-15-16-20-16-15-16-20-16-15-16-20-16-15-16-20-16-15-16-20-16-15-16-20-16-15-16-20-16-15-16|
||o------------------------------------------------------------------------------------------------|
||-------------------------------------------------------------------------------------------------|
||-------------------------------------------------------------------------------------------------|
||o------------------------------------------------------------------------------------------------|
||-------------------------------------------------------------------------------------------------|
|
|    T  T  T  T  T  T  T  T  T  T  T  T  T  T  T  T  T  T  T  T  T  T  T  T  T  T  T  T  T  T  T T
||-------------------------------------------------------------------------------------------------|
||o-21-18-17-18-21-18-17-18-21-18-17-18-21-18-17-18-21-18-17-18-21-18-17-18-21-18-17-18-21-18-17-18|
||-------------------------------------------------------------------------------------------------|
||-------------------------------------------------------------------------------------------------|
||o------------------------------------------------------------------------------------------------|
||-------------------------------------------------------------------------------------------------|
|
|    S     S     e           S     S     e           S     S     e           S     S     e
||-------------------------------------------------------------------------------------------------|
||o------------------------------------------------------------------------------------------------|
||o------------------------------------------------------------------------------------------------|
||---1-----1-----1-----------1-----1-----1-----------1-----1-----1-----------1-----1-----1---------|


              F5
   E           S     S     e           S     S     e         S     S e           E
               |     |     |           |     |     |         |     |     |
             /     /     /           /     /     /           /     /     /

   T  T  T  T  T  T  T  T  T  T  T  T  T  T  T  T  T  T  T  T  T  T  T  T  T  T  T  T  T  T  T  T4x
|-19-16-15-16-19-16-15-16-19-16-15-16-19-16-15-16-19-16-15-16-19-16-15-16-19-16-15-16-19-16-15-16--|
|-------------------------------------------------------------------------------------------------o|
|--------------------------------------------------------------------------------------------------|
|--------------------------------------------------------------------------------------------------|
|-------------------------------------------------------------------------------------------------o|
|--------------------------------------------------------------------------------------------------|
|
|  T  T  T  T  T  T  T  T  T  T  T  T  T  T  T  T  T  T  T  T  T  T  T  T  T  T  T  T  T  T  T  T4x
|--------------------------------------------------------------------------------------------------|
|-21-18-17-18-21-18-17-18-21-18-17-18-21-18-17-18-21-18-17-18-21-18-17-18-21-18-17-18-21-18-17-18-o|
|--------------------------------------------------------------------------------------------------|
|--------------------------------------------------------------------------------------------------|
|-------------------------------------------------------------------------------------------------o|
|--------------------------------------------------------------------------------------------------|
|
|  E           S     S     e           S     S     e           S     S     e           E   4x
|--------------------------------------------------------------------------------------------------|
|-------------------------------------------------------------------------------------------------o|
|-------------------------------------------------------------------------------------------------o|
|--------------1-----1-----1-----------1-----1-----1-----------1-----1-----1-----------------------|


   Outro
    F#5                                 F5
    PM|     PM|     PM|     PM|         PM--------------|
    S S E   S S E   S S E   S S E     E S S e S S e S S e E
||----------------------------------|-----------------------|
||o---------------------------------|-----------------------|
||----------------------------------|-----------------------|
||----------------------------------|-----------------------|
||o-4-4-----4-4-----4-4-----4-4-----|---3-3-3-3-3-3-3-3-3---|
||--2-2-----2-2-----2-2-----2-2-----|---1-1-1-1-1-1-1-1-1---|
|
|       PM|     PM|     PM|     PM|     PM--------------|
|   E   S S E   S S E   S S E   S S   E S S e S S e S S e E
||----------------------------------|-----------------------|
||o---------------------------------|-----------------------|
||----------------------------------|-----------------------|
||----------------------------------|-----------------------|
||o-----4-4-----4-4-----4-4-----4-4-|---3-3-3-3-3-3-3-3-3---|
||------2-2-----2-2-----2-2-----2-2-|---1-1-1-1-1-1-1-1-1---|
|
|   S S S S S S S S S S S S S S S S   E S S e S S e S S e E
||----------------------------------|-----------------------|
||o---------------------------------|-----------------------|
||o---------------------------------|-----------------------|
||--2-2-2-2-2-2-2-2-2-2-2-2-2-2-2-2-|---1-1-1-1-1-1-1-1-1---|


  F#5                           G5    F5
  PM|     PM|     PM|     PM|         PM--------------|
  S S E   S S E   S S E   S S E     E S S e S S e S S e E
|---------------------------------|------------------------||
|---------------------------------|-----------------------o||
|---------------------------------|------------------------||
|---------------------------------|------------------------||
|-4-4-----4-4-----4-4-----4-4-----|---3-3-3-3-3-3-3-3-3---o||
|-2-2-----2-2-----2-2-----2-2-----|---1-1-1-1-1-1-1-1-1----||
|
|     PM|     PM|     PM|     PM|     PM|   PM|   PM|
| E   S S E   S S E   S S E   S S   E S S E S S E S S e E
|---------------------------------|------------------------||
|---------------------------------|-----------------------o||
|---------------------------------|------------------------||
|---------------------------------|------------------------||
|-----4-4-----4-4-----4-4-----4s5-|---3-3---3-3---3-3-3---o||
|-----2-2-----2-2-----2-2-----2s3-|---1-1---1-1---1-1-1----||
|
| S S S S S S S S S S S S S S S S   E S S e S S e S S e E
|---------------------------------|------------------------||
|---------------------------------|-----------------------o||
|---------------------------------|-----------------------o||
|-2-2-2-2-2-2-2-2-2-2-2-2-2-2-2-2-|---1-1-1-1-1-1-1-1-1----||



Duration Legend
---------------
W - whole; H - half; Q - quarter; E - 8th; S - 16th; T - 32nd; X - 64th; a - acciaccatura
+ - note tied to previous; . - note dotted; .. - note double dotted
Uncapitalized letters represent notes that are staccato (1/2 duration)
Irregular groupings are notated above the duration line
Duration letters will always appear directly above the note/fret number it represents the
duration for.  Duration letters with no fret number below them represent rests.  Multi-
bar rests are notated in the form Wxn, where n is the number of bars to rest for.  Low
melody durations appear below the staff

Tablature Legend
----------------
 h   - hammer-on
 p   - pull-off
 b   - bend
 pb  - pre-bend
 r   - bend release (if no number after the r, then release immediately)
 /\  - slide into or out of (from/to "nowhere")
 s   - legato slide
 S   - shift slide
 - natural harmonic
[n]  - artificial harmonic
n(n) - tapped harmonic
 ~   - vibrato
 tr  - trill
 T   - tap
 TP  - trem. picking
 PM  - palm muting
\n/  - tremolo bar dip; n = amount to dip
 \n  - tremolo bar down
 n/  - tremolo bar up
/n\  - tremolo bar inverted dip
 =   - hold bend; also acts as connecting device for hammers/pulls
 <> - volume swell (louder/softer)
 x   - on rhythm slash represents muted slash
 o   - on rhythm slash represents single note slash

Misc Legend
-----------
 |  - bar
||  - double bar
||o - repeat start
o|| - repeat end
*|  - double bar (ending)
 :  - bar (freetime)
 $  - Segno
 &  - Coda
Tempo markers -  = BPM(8/16=s8/s16), where s8 = swing 8ths, s16 = swing 16ths

comments
print report bad tab
I want to post or [tab]
guest
You may want to rate the tab now too:
select rating
Please do not post tabs as comments. Select "correction" instead!