Oops, an error
Loading. Please wait.

Far Beyond Driven Tab

20,508 views 12 this week
7 commentsread comments
1 2 3 4 5
worth learning
x 6
Autoscroll
+/-
esc
set tempo
stop
Contributor
NEW! There's an official Ultimate Guitar app which is ideal
for learning songs when you're away from computer. Get the app
WARNING: You are trying to view
                                    content from Ultimate-Guitar.com
                                    in an unauthorized application,
                                    which is prohibited.

                                    Please use an official Ultimate
                                    Guitar Tabs application for iPhone,
                                    iPad or Android to access legitimate
                                    chords, guitar, bass, and drum tabs
                                    from Ultimate-Guitar.com database.

                                    Type "ultimate guitar tabs" in Apple
                                    App Store's or Android Market's
                                    search to find the application.
R.I.P.:DIMEBAG DARRELL

1.STRENGTH BEYOND STRENGTH

Intro Riff:
|------------------------|
|------------------------|
|------------------------|
|------------------------|
|-7\-6--6--6\-5--5--5\-4-|
|-5\-4--4--4\-3--3--3\-4-|


|-----------------------------|
|-----------------------------|
|-2-----2----------2-----2----|
|-2-----2----------2-----2-5--|
|-0-----0----------0-----0-5--|
|---------1~~~-------------3--|



|---------------------------------------------------|
|---------------------------------------------------|
|-2-----2----------2-----2--------------------------|
|-2-----2----------2-----2--------------------------|
|-0-----0----------0-----0-7-7\-6--6--6\-5--5--5\-4-|
|---------1~~~-------------5-5\-4--4--4\-3--3--3\-4-|


|-----------------------------|
|-----------------------------|
|-2-----2----------2-----2----|
|-2-----2----------2-----2-5--|
|-0-----0----------0-----0-5--|
|---------1~~~-------------3--|

|----------------------------------------------------|
|----------------------------------------------------|
|-2-----2----------2-----2---------------------------|
|-2-----2----------2-----2---------------------------|
|-0-----0----------0-----0-7--8--8--7--8--8--7--8--8-|
|---------1~~~-------------5--6--6--5--6--6--5--6--6-|


|-------------|
|-------------|
|-------------|
|-------------|
|-4--4--4--3--|
|-2--2--2--1--|


|----------------------------------------------|
|----------------------------------------------|
|----------------------------------------------|
|----------------------------------------------|
|-----------------------------------6--6--6--3-|
|--1--1--1--1--1--1--1--1--1--1--1--4--4--4--1-|


                       |-Triplet-| |-Triplet-|
|---------------------------------------------|
|---------------------------------------------|
|---------------------------------------------|
|---------------------------------------------|
|-------------------------------4-------6---3-|
|--1--1--1--1--1--1--1--3---6-------4---------|


|-------------|
|-------------|
|-------------|
|-------------|
|-4--4--4--3--|
|-2--2--2--1--|


|----------------------------------------------|
|----------------------------------------------|
|----------------------------------------------|
|----------------------------------------------|
|-----------------------------------6--6--6--3-|
|--1--1--1--1--1--1--1--1--1--1--1--4--4--4--1-|


                        |Triplet|
|-----------------------------------|
|-----------------------------------|
|-----------------------------------|
|-----------------------------------|
|------------------------2--2--2--2-|
|--1--1--1--1--1--1--1---0--0--0--0-|


|------------------------|
|------------------------|
|------------------------|
|------------------------|
|-7\-6--6--6\-5--5--5\-4-|
|-5\-4--4--4\-3--3--3\-4-|



|---------------------------------|
|---------------------------------|
|---------------------------------|
|---------------------------------|
|---------------------------------|
|-0h1-1-0h1-1-0h1-2p1-1-1-2p1-1-1-|
(repeat several times)


|-----------------------------------------|
|-----------------------------------------|
|-----------------------------------------|
|-----------------------------------------|
|------------------7\-6--6--6\-5--5--5\-4-|
|-0h1-1-0h1-1-0h1--5\-4--4--4\-3--3--3\-4-|


|-------------|
|-------------|
|-------------|
|-------------|
|-4--4--4--3--|
|-2--2--2--1--|


|----------------------------------------------|
|----------------------------------------------|
|----------------------------------------------|
|----------------------------------------------|
|-----------------------------------6--6--6--3-|
|--1--1--1--1--1--1--1--1--1--1--1--4--4--4--1-|


                       |-Triplet-| |-Triplet-|
|---------------------------------------------|
|---------------------------------------------|
|---------------------------------------------|
|---------------------------------------------|
|-------------------------------4-------6---3-|
|--1--1--1--1--1--1--1--3---6-------4---------|


|-------------|
|-------------|
|-------------|
|-------------|
|-4--4--4--3--|
|-2--2--2--1--|


|----------------------------------------------|
|----------------------------------------------|
|----------------------------------------------|
|----------------------------------------------|
|-----------------------------------6--6--6--3-|
|--1--1--1--1--1--1--1--1--1--1--1--4--4--4--1-|


                        |Triplet|
|-----------------------------------|
|-----------------------------------|
|-----------------------------------|
|-----------------------------------|
|------------------------2--2--2--2-|
|--1--1--1--1--1--1--1---0--0--0--0-|



|-----------------|
|-----------------|
|-----------------|
|-----------------|
|--3--3--3----3-4-|
|--1--0--1----1-2-|
"weve grown into a monster!!"(repeat several times)


on the last repeat of this riff^, this fill is heard.
|-------------------------|
|-3--2--------------------|
|-------4--3----3~~--(3)\-|
|-------------------------|
|-------------------------|
|-------------------------|


Tighten your locking nut!! here comes some massive whammy torture
|----------------------------|
|--13~~~---------------------|
|-(AH)-----------------------|
|----------------------------|
|----------------------------|
|---------0------------------|
          ^dive bar this note


Here is the tab with whammy bar patterns:
| \           /   |
|  \         /    |
|   \      \/     |
|-1------3/4------|
|-3------3/4------|
|-3------1/2------|
(play many times)


|--------|
|--------|
|--------|
|-3\-----|
|-3\-----|
|-1\-----|
gradual dive

SOLO!!
Two guitars play this part!!

_   (with harmonizer effect)     (1/2)   
|   |----------------------------11b------------------|
|   |--13---------------12-h-13------13------------13-|
|   |-------------------------------------------------|
|   |-------------------------------------------------|
|   |-------------------------------------------------|
|   |-------------------------------------------------|
|  (with harmonizer effect)      (1/2)   
|   |-------------------------------------------------|
|   |-------------------------------------------------|
|   |----------------------------4b-------------------|
|   |--6----------------5----6---------------------6--|
|   |--------------------------------6----------------|
|   |-------------------------------------------------|
_


_                (1/2)
|   |----------18-17b----(17)~~~--20-19----------------|
|   |-12-13/20--------------------------20-19----------|
|   |-----------------------------------------17-16-17-|
|   |--------------------------------------------------|
|   |--------------------------------------------------|
|   |--------------------------------------------------|
|          
|   |--------------------------------------------------|
|   |----------4---------------------------------------|
|   |------/5-----5\------(5)----/11-10----------------|
|   |-5--6/----(tremelo dive)-----------11-10----------|
|   |-----------------------------------------10-9-10--|
|   |--------------------------------------------------|
_


_   
|   |-20-19----------------20-19-------------20-19-------------|
|   |-------19-18----------------19-18-------------19-18-------|
|   |-------------17-16-17-------------16-17-------------16-17-|
|   |----------------------------------------------------------|
|   |----------------------------------------------------------|
|   |----------------------------------------------------------|
|  
|   |----------------------------------------------------------|
|   |----------------------------------------------------------|
|   |/12-11----------------13-12-------------13-12-------------|
|   |-------12-11----------------13-12-------------13-12-------|
|   |-------------11-10-11-------------11-12-------------11-13-|
|   |----------------------------------------------------------|
_
           (1/2)     (1/2)
   |----------------------|
   |--------8b--6---------|
   |--7---------------11b-|
   |-----6---------9------|
   |----------------------|
   |----------------------|
  
   |----------------------11-13p12-13-16p13p12-16p15-16-19p16p15-|
   |----------12-13-12-13----------------------------------------|
   |-13-12-13----------------------------------------------------|
   |-------------------------------------------------------------|
   |-------------------------------------------------------------|
   |-------------------------------------------------------------|

|-----------------|
|-----------------|
|-----------------|
|-----------------|
|--3--3--3----3/4-|
|--1--0--1----1/2-|
(play several times)

2.BECOMING

Intro Riff
|----------------------------------------------------|
|----------------------------------------------------|
|----------------------------------------------------|
|-7-7-7-----7-7-7-----7-7-7--7-7-7-----7-7-7-----7-7-|
|-7-7-7-----7-7-7-----7-7-7--7-7-7-----7-7-7-----7-7-|
|-5-5-5-----5-5-5-----5-5-5--5-5-5-----5-5-5-----5-5-|


play this twice: but be aware there is another version below
for people who do not have a second guitarist to play the screach! 

|---------------------------------------------|
|---------------------------------------------|
|---------------------------------------------|
|---------------------------------------------|
|----------------------------------------4--5-|
|-0--0----2-1-0--0----2-1-0--0----2-1-0--2--3-|

on the recording, dime cheats with a second guitar playing
the high part between the riffs. heres the fill:

|--19-|
|-----|i know dime uses a synth effect,
|--16-|and im going to guess that
|-----|he uses a whammy on this too
|-----|
|-----|

ok here you go. i like to imitate the little sqeal deal by simply 
sliding my fingers up the three highest strings. check it out:
|------2s9---------------------2s9------------|
|------2s9---------------------2s9------------|
|------2s9---------------------2s9------------|
|---------------------------------------------|
|----------------------------------------4--5-|
|-0--0----2-1-0--0----2-1-0--0----2-1-0--2--3-|


|---------------------------------------------|
|---------------------------------------------|
|---------------------------------------------|
|---------------------------------------------|
|---------1P0H1-------1P0H1-------1p0----4--5-|
|-0--0----0---0--0----0---0--0----0---0--2--3-|

^^Play this for a while, until the double time, when Phil starts to scream: 
no more, the small one,... which is when you play the other riff


Now for the chorus!
|---------------------------------------------|
|---------------------------------------------|
|---------------------------------------------|
|----------------7--------------------------7-|
|-9---7\---------7--------------------------7-|
|-7---5\---0--0--5----2/---7--6--5~~~-0--0--5-|

3.5 MINUTES ALONE

100 bpm
|-------|-----------------------|-------------------------|
|-------|-----------------------|-------------------------|
|-------|-----------------------|-------------------------|
|-------|-----------------------|-------------------------|
|-------|-5/7-2-x-5-7-2---x-x-2-|-5/7-2-x-85-2---x-x-x-2-|
|-------|-3/5-0-x-3/5-0---x-x-0-|-3/5-0-x-63-0---x-x-x-0-|
  S H     s+s e e s+s e E s e s   s+s e e s+s e S s s e s

                                                 riff 1
|-----------------------|-----------------------|-------------------------|
|-----------------------|-----------------------|-------------------------|
|-----------------------|-----------------------|-------------------------|
|-----------------------|-----------------------|-------------------------|
|-5/7-2-x-5/7-2---x-x-2-|-5/7-2-x-85-2-x-x-x-2-|-5/7-2-x-5/7-2---x-x-x-2-|
|-3/5-0-x-3/5-0---x-x-0-|-3/5-0-x-63-0-x-x-x-0-|-3/5-0-x-3/5-0---x-x-x-0-|
  s+s e e s+s e E s e s   s+s e e s+s e e s e s   s+s e e s+s e S s s e s

                                                                  end riff 1
|-------------------------|-------------------------|-----------------------|
|-------------------------|-------------------------|-----------------------|
|-------------------------|-------------------------|-----------------------|
|-------------------------|-------------------------|-----------------------|
|-5/7-2-x-85-2---x-x-x-2-|-5/7-2-x-5/7-2---x-x-x-2-|-5/7-2-x-85-2-x-x-x-x-|
|-3/5-0-x-63-0---x-x-x-0-|-3/5-0-x-3/5-0---x-x-x-0-|-3/5-0-x-63-0-x-x-x-x-|
  s+s e e s+s e S s s e s   s+s e e s+s e S s s e s   s+s e e s+s e e s e s

 fill 1 -------------------------|
|---------------------------------||
|---------------------------------||
|---------------------------------||
|-----9---------------------------||
|-/9----9-8-75---5-----4-----2---||
|---------------7---53---31---1-||
   e  s s s s+s s s s+s s s+s s s

  verse 1
 riff 2                                            end riff 2  2x
||------------------------|-----|-----------------------|------||
||------------------------|-----|-----------------------|------||
||o-----------------------|-----|-----------------------|-----o||
||o---2-2-2-2-2-2---2-2-2-|--%--|---1-1-1-1-1-1---1-1-1-|--%--o||
||----2-2-2-2-2-2---2-2-2-|-----|---1-1-1-1-1-1---1-1-1-|------||
||----0-0-0-0-0-0---0-0-0-|-----|---0-0-0-0-0-0---0-0-0-|------||
    E e e e e s s S s s s         E e e e e s s S s s s

              f   f                           f
|-------------------|-----|-----|-----------------||
|-------------------|-----|-----|-----------------||
|-------------------|-----|-----|-----------------||
|------5---------7b-|--%--|--%--|------5----------||
|---/8---6----------|-----|-----|---/8---6--------||
|-0----------4br----|-----|-----|-0----------4br-||
| e  e e e+s e.  q  |     |     | e  e e e+s e.+q ||
|                   |     |     |                 ||
|             f   f |     |     |               2 ||
|-------------------|-----|-----|-----------------||
|-------------------|-----|-----|-----------------||
|-------------------|-----|-----|-----------------||
|------5---------7b-|--%--|--%--|------5----------||
|---/8---6----------|-----|-----|---/8---6--------||
|-0----------4br----|-----|-----|-0----------4b---||
| e  e e e+s e.  q              | e  e e e+s e.+q


  pre-chorus
  riff 4
|-----------------------|-----|-----------|---------------------------|
|-----------------------|-----|-----------|---------------------------|
|-----------------------|-----|-----------|---------------------------|
|---2-2-2-2-2-2---2-2-2-|--%--|-----------|---------------------------|
|---2-2-2-2-2-2---2-2-2-|-----|-----------|-5/7-2-x-x-5/7-2---x-x-x---|
|---0-0-0-0-0-0---0-0-0-|-----|-/7~-2~-1~-|-3/5-0-x-x-3/5-0---x-x-x-3/|
  E e e e e s s S s s s          h  q  q    s+s e s s s+s e S s s e s +

|-----------|---------------------------|-----------|
|-----------|---------------------------|-----------|
|-----------|---------------------------|-----------|
|-----------|---------------------------|-----------|
|-----------|-5/7-2-x-x-5/7-2---x-x-x---|-----------|
|-/7~-6~-1~-|-3/5-0-x-x-3/5-0---x-x-x-3/|-/7~-6~-5~-|
+  h  q  q    s+s e s s s+s e S s s e s +  h  q  q

                                end riff 4
|---------------------------|-----------||
|---------------------------|-----------||
|---------------------------|-----------||
|---------------------------|-----------||
|-5/7-2-x-x-5/7-2---x-x-x---|-----------||
|-3/5-0-x-x-3/5-0---x-x-x-3/|-/7~-2~-1~-||
  s+s e s s s+s e S s s e s +  h  q  q

chorus

  play riff 1 2x

  play fill 1 1x

verse 2

  play riff 2 2x

              f   f                           f
|-------------------|-----|-----|-----------------||
|-------------------|-----|-----|-----------------||
|-------------------|-----|-----|-----------------||
|------5---------7b-|--%--|--%--|------5----------||
|---/8---6----------|-----|-----|---/8---6--------||
|-0----------4br----|-----|-----|-0----------4br-||
| e  e e e+s e.  q  |     |     | e  e e e+s e.+q ||
|                   |     |     |                 ||
|             f   f |     |     |             f 2 ||
|-------------------|-----|-----|-----------------||
|-------------------|-----|-----|-----------------||
|-------------------|-----|-----|-----------------||
|------5---------7b-|--%--|--%--|------5----------||
|---/8---6----------|-----|-----|---/8---6--------||
|-0----------4br----|-----|-----|-0----------4brb-||
| e  e e e+s e.  q              | e  e e e+s e.+q

pre-chorus

  play riff 4 1x

chorus

  play riff 1 2x

                                                                      2x
||----------------------------------|----------------------------------||
||----------------------------------|----------------------------------||
||o---------------------------------|---------------------------------o||
||o-----9---------------------------|----9----------------------------o||
||---/9---9-8-75---5---------4-----|-/9---9-8-75---5-----4-----2-----||
||----------------7---7-6-53---31-|--------------7---53---31---1---||
      e s s s s+s s s s s s+s s s+s    e s s s s+s s s s+s s s+s s s

|--------------------------------|-----|-----|
|--------------------------------|-----|-----|
|--------------------------------|-----|-----|
|--------------------------------|--%--|--%--|
|----5---------5-----4-----3-----|-----|-----|
|-/7---7-6-54---43---32---21-|-----|-----|
   e s s s s+s s s+s s s+s s s+s

|--------------------------------||-------------------------|
|--------------------------------||-------------------------|
|--------------------------------||-------------------------|
|--------------------------------||-------------------------|
|----5---------5-76-65-54-43-||-5/7-2-x-5/7-2---x-x-x-2-|
|-/7---7-6-54---54-43-32-21-||-3/5-0-x-3/5-0---x-x-x-0-|
   e s s s s+s s s+s s+s s+s s+s    s+s e e s+s e S s s e s

              harm. ----------------|
|------------------------------------|-------------------------|
|------------------------------------|-------------------------|
|-------------4-4-4-4-4-4-4-4-4--2.6-|-------------------------|
|-------------4-4-4-4-4-4-4-4-4--2.6-|-------------------------|
|-5/7-2-x-85------------------------|-5/7-2-x-5/7-2---x-x-x-2-|
|-3/5-0-x-63------------------------|-3/5-0-x-3/5-0---x-x-x-0-|
  s+s e e s+s s s s s s s s s s  e     s+s e e s+s e S s s e s
              {    6    } { 3 }

                         w/bar
                           -1.5     1/2           1/2
|-----------------------|-------||---------------------------------|
|-----------------------|-------||-5brp3-5---3---5brp3-5---5-5-3-0-|
|-----------------------|-------||-5brp3-5---3---5brp3-5---5-5-3-0-|
|-----------------------|-------||---------------------------------|
|-5/7-2-x-85-2-x-x-x-x-|-------||---------------------------------|
|-3/5-0-x-63-0-x-x-x-x-|-0---r-||---------------------------------|
  s s e e s s e e s e s   w        e   s s S s S s+s s s S s s s s

   1/2         f      f    f     1/2         f      f    f
|-----------------------6-----|-----------------------9-----|
|-5brp3-5---3----6---6b---6b~-|-8brp6-8---6----9---9b---9b~-|
|-5brp3-5---3-5b---5----------|-8brp6-8---6-8b---8----------|
|-----------------------------|-----------------------------|
|-----------------------------|-----------------------------|
|-----------------------------|-----------------------------|
  e   s s S s e  s s e  s e.    e   s s S s e  s s e  s e.

|---------------------------------|
|-8brp6-8---6/--------------------|
|-8brp6-8---6/--------------------|
|---------------------------------|
|--------------x-x-x-x-x-x-x------|
|--------------x-x-x-x-x-x-x-/17-|
| e   s s S e  s s s s s s s  e
|             trem. pick -----------------------------------------------
|          A.H.-------------------|        1.5            r     1.5 hold-|
|------------19-------------------|-(19)----------|-(19)---------------|
|---------------------------------|---------------|--------------------|
|---------------------------------|---------------|--------------------|
|---------------------------------|---------------|--------------------|
|---------------------------------|---------------|--------------------|
|---------------------------------|---------------|--------------------|
   Q    E    e + h                + h  +   h      +  e + h +   q.      +
                                 bend & release gradually

------------------|
                   both notes
        r         1.5  vib.    1.5                f
|-(19)------------|-19-------19b-19-18-17----17------|
|-----------------|-19--------------------20----20br-|
|-----------------|----------------------------------|
|-----------------|----------------------------------|
|-----------------|----------------------------------|
|-----------------|----------------------------------|
+  q. + e + h     | q..      s+s s  s  s  s  s  e    +
|                 |                                  |
|-----------------|----------------------------------|
|-----------------|----------------------------------|
|-----------------|----------------------------------|
|-----------------|----------------------------------|
|-----------------|----------------------------------|
|-----------------|----------x/xx-/x-x-/x-x-/x-x-|
                             s+s+s +s +s +s +s +s +s
                            pick scrapes

                          trem pick -------|
   1/2   vib.             A.H.-------------|
|-------------------------19------|-(19)----------------------------|
|---b---17-----------------------|---------------------------------|
|---------------------------------|---------------------------------|
|---------------------------------|---------------------------------|
|---------------------------------|---------------------------------|
|---------------------------------|---------------------------------|
+ e+s   s+q   +   e + e   q       +  q      Q        H              |
|                                 |                                 |
|  1/2           1/2              |  1/2           1/2              |
|---------------------------------|---------------------------------|
|-5brp3-5---3---5brp3-5---5-5-3-0-|-8brp6-8---6---8brp6-8---8-8-6---|
|-5brp3-5---3---5brp3-5---5-5-3-0-|-8brp6-8---6---8brp6-8---8-8-6---|
|---------------------------------|---------------------------------|
|---------------------------------|---------------------------------|
|---------------------------------|---------------------------------|
  e   s s S s S s+s s s S s s s s   e   s s S s S s+s s s S s s s S

    1/2             1/2                     1/2            f
|---------------------------------------|-------------------------||
|-10brp8-10---8---10brp8-10---10-10-8---|-12brp10-12--10-13b------||
|-10brp8-10---8---10brp8-10---10-10-8---|-------------------------||
|---------------------------------------|-------------------------||
|---------------------------------------|-------------------------||
|---------------------------------------|---------------------13-||
  e    s s  S s S e    s s  S s  s  s S | e    s  s+s s  e+q  q   ||
                                        |                         ||
                                        |           A.H.(both)    ||
                                        |-----------19b-----------||
                                        |-----------17b-----------||
                                        |-------------------------||
                                        |-------------------------||
                                        |-------------------------||
                                        |-------------------------||
                                          Q.        e + h
                                           bend top note 1.5, lower
                                           note 1/2

                                              4x
||--------------------|------------------------||----------------------------|
||--------------------|------------------------||----------------------------|
||o-------------------|-----------------------o||----------------------------|
||o-------3-----------|---------3-------------o||----------------------------|
||--3-----1-3-2-----4-|-4-2-----1-2-4-2---3/5--||-2-4-2---3/5-2-4-2---3/5/13-|
||--1-------1-0-----2-|-2-0-------0-2-0---1/3--||-0-2-0---1/3-0-2-0---1/3----|
    e E E e s s E E e   s s E E e e s s+s s+e     e s s+s s+e e s s+s s+s+s

 2/4               4/4  chorus
|-----------------||
|-----------------||    play riff 1 2x
|-----------------||
|-x-x-x-x-x-x-x-x-||
|-x-x-x-x-x-x-x-x-||
|-x-x-x-x-x-x-x-x-||
  s s s s s s s s


    let open E string ring -------------------|                  2x
||----------------|------------|--------------|-------------------||
||----------------|--------6---|--------------|-------------------||
||o--4------7--/9-|-4------3---|-4------7--/9-|-5---x-x-5-x-x-5--o||
||o--2------5--/7-|-2------3---|-2------5--/7-|-3---x-x-3-x-x-3--o||
||---2------5--/7-|-2----------|-2------5--/7-|-3---x-x-3-x-x-3---||
||---0------------|-0----------|-0------------|-1---x-x-1-x-x-1---||
||   h + e. s+e+e | h + e. s+q | h + e. s+e+e | q.. s s e s s e.  ||
||                |            |              |                   ||
||----------------|------------|--------------|-------------------||
||----------------|------------|--------------|-------------------||
||o---------------|------------|--------------|------------------o||
||o--2------5--/7-|-2-----/8---|-2------5--/7-|-3---x-x-3-x-x-3--o||
||----------------|------------|--------------|-------------------||
||---0------3--/5-|-0-----/6---|-0------3--/5-|-1---x-x-1-x-x-1---||
     h + e. s+e+e   h + e. s+q   h + e. s+e+e   q.. s s e s s e.

                                                              4x
||------------------------------|------------------------------||
||------------------------------|------------------------------||
||o-----------------------------|-----------------------------o||
||o-----------------------------|-----------------------------o||
||--5/7-2-----5/7-2-------------|-5/7-2-----85-2--------------||
||--3/5-0-0-0-3/5-0-0-0-0-0-0-0-|-3/5-0-0-0-63-0-0-0-0-0-0-0--||
    s+s e s s s+s e s s s s s s   s+s e s s s+s e s s s s s s

                                                     repeat & fade
||----------------------------|----------------------------||
||----------------------------|----------------------------||
||o---------------------------|---------------------------o||
||o---------------------------|---------------------------o||
||--5/7-2-----5/7-2-----85-2-|-----5/7-2-----85-2-5-7-8--||
||--3/5-0-0-0-3/5-0-0-0-63-0-|-0-0-3/5-0-0-0-63-0-3-5-6--||
    s+s e s s s+s e s s s+s e   s s s+s e s s s+s e s s e

4.I'M BROKEN

INTRO       PLAY 4x     PLAY 4x               (1rst,3rd)      (2nd)       (4th)
|---------------------|--------------------|------------|-------------|-------------
|---------------------|--------------------|------------|-------------|-------------
|o-------------------o|o-------------------|-----------o|---------7~--|-------------
|o-0h2-0h2-0---------o|o-0h2-0h2-0---------|-----7-5~--o|-----7/9-----|-2-2--2-2--2-
|------------2p0------|-----------2p0------|-7-5--------|-7-5---------|-2-2--2-2--2-
|----------------3-0--|---------------3-0--|------------|-------------|-0-0--0-0--0-


Verse Riff play a bunch of times      Fill
|--------------------------------|------------|----------------------|
|--------------------------------|------------|----------------------|
|o------------------------------o|------------|o--------------------o|
|o------------------------------o|---------5--|o--------------------o|
|--------------------------------|------------|-5b-5b-----5b-5b------|
|-5b-5b-0-0-5b-5b-0-0-5b-5b-0-0--|-4-5-6-7----|-------0-0-------0-0--|


Part after verse
|-----------------------|
|-----------------------|
|-----------------------|
|-----------------------|
|-----------------------|
|-5-6-5-3-0--2-3-2-1-0--|

Then play the intro/chorus


This is the riff you fade out on
|--------------------------------|
|--------------------------------|
|--------------------------------|
|--------------------------5-----|
|-2-2--2-2--2-2--------------7\--|
|-0-0--0-0--0-0--7-6-5-6-7-------|

5.GOOD FRIENDS AND A BOTTLE OF PILLS

Don't Know

6.HARD LINES,SUNKEN CHEEKS

Don't Know

7.SLAUGHTERED

Tune Down 1/4 Step

Riff 1

E ------------------------------------
B ------------------------------------
G ----------6-------------------------
D ----------6--5--3-------3--------3--
A ----------4--5--3-------3--------3--
E -00-00-00----3--1-00-00-1--00-00-1--

Riff 1A

E ---------------------------------
B ---------------------------------
G ----------6----------------------
D ----------6--5--3-------8---8--8-
A ----------4--5--3-------8---8--8-
E -00-00-00----3--1-00-00-6---6--6-

Riff 2

E --------------------------------
B --------------------------------
G --------------------------------
D -2-2-2--------------------------
A -2-2-2-4/9\5--5/10\6--6/11\7----
E -0-0-0-2/7\3--3/8 \4--4/9 \5--1-

Riff 3

E ------------------------------------
B ------------------------------------
G ----------9-------------------------
D ----------9--8--7-------5--------7--
A -00-00-00-7--8--7-------5--------7--
E -------------6--5-55-55-3--55-55-5--

Riff 4

E -----------------------------------------------
B -----------------------------------------------
G -----------------------------------------------
D -------------------------55--55--55--55--55--5-
A -------------------------44--44--44--44--44--4-
E -00-00-00-00-00-00-00-00-33--33--33--33--33--3-

Riff 5 

E -----------------------------
B -----------------------------
G -----------------------------
D -2----------------------8--3-
A -2----------------------8--3-
E -0---------------------06--1-

Riff 5A

E --------------------------------------------------
B --------------------------------------------------
G --------------------------------------------------
D -2-2-2-2-2-2-2-2-2-2-2-2-2-2-2-2-2-2-2-2-2--8-8-8-
A -2-2-2-2-2-2-2-2-2-2-2-2-2-2-2-2-2-2-2-2-2--8-8-8-
E -0-0-0-0-0-0-0-0-0-0-0-0-0-0-0-0-0-0-0-0-0-06-6-6-

Riff 5B

E ------------------------------------------------------------------------------------------
B ------------------------------------------------------------------------------------------
G -------------------------------------------------------------------------------------4--4-
D -3---4---2---3-----------------------------------3---4---2---3-----------------------4--4-
A -----------------3---4---2---3---0---1---2---3-------------------3---4---2---3---0---2--2-
E ---0---0---0---0---0---0---0---0---0---0---0---0---0---0---0---0---0---0---0---0---0-2--2-

Riff 5C

E -------------------------------------------------------------------------------------------------------
B -------------------------------------------------------------------------------------------------------
G -------------------------------------------------------------------------------------4--4---------4--4-
D -3---4---2---3-----------------------------------3---4---2---3-----------------------4--4---------4--4-
A -----------------3---4---2---3---0---1---2---3-------------------3---4---2---3---0---2--2---------2--2-
E ---0---0---0---0---0---0---0---0---0---0---0---0---0---0---0---0---0---0---0---0---0-2--2-0-00-00-2--2-

8.25 YEARS

Heavy Distortion
Tuning= down 1 whole step

Intro

D|--------------------------------------------------
A|--------------------------------------------------
F|--------------------------------------------6~~~--
C|-------3--1-------------------8--6--------6-------
G|-------------1---3/6----------------6--8----------
D|----1------------------4---6----------------------

D|--------------------------------------------------
A|--------------------------------------------------
F|--------------------------------------------------
C|-------3--1-------------------8--6-----6--5--4--3-
G|-------------1---3/6----------------8--6--5--4--3-
D|----1------------------4---6-----------4--3--2--1-

D|--------------------------------------------------
A|--------------------------------------------------
F|--------------------------------------------6~~~--
C|-------3--1-------------------8--6--------6-------
G|-------------1---3/6----------------6--8----------
D|----1------------------4---6----------------------

D|--------------------------------------------------
A|--------------------------------------------------
F|--------------------------------------------------
C|-------3--1-------------------7+--6--5--4--3------
G|-------------1---3/6----------7+--6--5--4--3------
D|----1------------------4---6--5+--4--3--2--1------
_____________________________________________________

Riff 1

D|--------------------------------------------------
A|--------------------------------------------------
F|--------------------------------------------------
C|-------8^-----------------------------------------
G|---*/--8^--(let ring)-----------------------------
D|---*/--6^-----------------------------------------
           (*note: pick scrape up to about fret 10)

D|--------------------------------------------------
A|--------------------------------------------------
F|--------------------------------------------------
C|---15--8^------15--8^---------------------------
G|---15--8^------15--8^---------------------------
D|---13--6^------13--6^---------------------------
______________________________________________________

Verse Riff
(this is pretty basic)

D|---------------------------------
A|---------------------------------
F|---------------------------------
C|---3-3-3-3-3-3-------------------
G|---3-3-3-3-3-3------quarter notes
D|---1-1-1-1-1-1-------------------

(repeat riff 1)

then it changes to this:

D|---------------------------------
A|---------------------------------
F|---------------------------------
C|---+3-+3-+3-+3-+3----------------
G|---+3-+3-+3-+3-+3-------(off beat)
D|---+1-+1-+1-+1-+1----------------

(repeat riff 1)
_____________________________________________________

Fill

D|---------------------------------
A|---------------------------------
F|---------------------------------
C|---------------------------------
G|----------4--7-------------2--5--
D|---2--5^------------1--3^--------

vocals: "Dont touch me.."
        "Dont touch me.."
        "Dont touch me.."

(repeat fill)

_____________________________________________________

Outro
(uptempo)
vocals: "I vow...less I die tomorrow"
                            tomorrow"
                            tomorrow"

D|---------------------------------
A|---------------------------------
F|---------------------------------
C|--------4^---------4-------------
G|---------------------------------
D|---1111----1111--3----3----------

Vocals: "WERE FUCKIN YOU BACK"
             "FUCKIN YOU BACK"
        "WERE FUCKIN YOU BACK..."

fade out
end

9.SHEDDING SKIN

Intro, Chorus:

riff 1a, 3 times		riff 1b
|--------------------------|    |----------------------------|
|--------------------------|	|----------------------------|
|--------------------------|	|----------------------------|
|-------------2-2----------|	|----------------------------|
|-------2--3-------3--2----|	|-2-2----2-2----1-1----0-0---|
|-0-0-3------------------3-|	|-----3------3------2------1-|
P.m........................	P.m..........................


Verses 1&2:
riff 2
Let ring.............................................|N.H.|
|---------0---------------0---------------0---------------|
|-----3-----3---------4-----4---------2-----2-------------|
|-------0-----0---------0-----0---------0-----0---------5-|
|---------------4---------------5---------------3-----5---|
|---2---------------3---------------1---------------0-----|
|-0---------------0---------------0---------------0-------|


riff 3a, 2 times		      riff 3b
|------------------------------|      |------------------------------------|
|------------------------------|      |------------------------------------|
|------------------------------|      |------------------------------------|
|-----------------2------------|      |-------------2----------------------|
|------------------------------|      |-----------------------2b-rbrbr-----|
|-0-0-0-0-0-0-0-0----0-0-3/5-0-|      |-0-0-0-0-0-0---0-0-3/5---------3--0-|

In riff 3b, the last 3 is a 1 on the second time and the 0 is a 1 on the
last time.
All the bends are 1/2 a step.

riff 4
|---------------------|
|--6---------5-----4--|
|--3------------------|
|--0---------0-----0--|
|------------0--------|
|------------------4--|


play the chorus and the verse again.


riff 5a, 17 times
|--------------------------|
|--------------------------|
|--------------------------|
|--------------------------|
|--1h2p1---1-----1---------|
|--------3-----3-----0-3---|
        P.m..............|


riff 5b
|--------------------------------------------------------------------------------------|
|--------------------------------------------------------------------------------------|
|--------------------------------------------------------------------------------------|
|--------------------------------------------------------------------------------------|
|-2h3p2---2------3h4p3---3------4h5p4---4------5h6p5---5----------2h3p3---2--7--5--4--3|
|-------4---2-5--------5---3-6--------6---4-7--------7---7-6-5-3--------5----5--3--2--1|


verse 3:
riff 6a				  riff 6b
|---------------------------|     |------------------------------|
|---------------------------|     |------------------------------|
|----------9\3/9--3----3--3-|     |----------12\3-12---3----3--3-|
|-----------------3----3--3-|     |--------------------3----3--3-|
|----------7\1/7--1----1--1-|     |----------10\1-10---1----1--1-|
|-0-0-0-0---------1----1--1-|     |-0-0-0-0------------1----1--1-|
P.m......| 			  P.m......|


play riff 6a and 6b again.


riff 7a				   riff 7b
|----------------------------|     |----------------------------|
|----------------------------|     |----------------------------|
|---------11\3/11--5----5--5-|     |---------14\5/14--5----5--5-|
|------------------5----5--5-|     |------------------5----5--5-|
|----------9\1/9---3----3--3-|     |---------12\3/12--3----3--3-|
|-2-2-2-2----------3----3--3-|     |-2-2-2-2----------3----3--3-|
P.m......|			   P.m......|


play riff 6a and 6b again


riff 8
|------------|
|------------|
|------------|
|------------|
|-X-X---X-X--|
|-X-X---X-X--|


1st Solo:
|-------------------------------------------------------------------------------------------|
|-------------------------------------------------------------------------------------------|
|-------------------------------12----14----12-14b-r-p12----14----12------------------------|
|----------12----14----12-13-14----14----14--------------14----14----14p12------------------|
|-13-13-14----14----14-----------------------------------------------------14\12p10-7-------|
|-------------------------------------------------------------------------------------10~~~~|
P.M.........................................|


|-17-12----12h18----12-19----------------------------------------|
|-------15-------15-----------17------15------13p12--------------|
|--------------------------15----15-16--16p14-------15p14p12\11--|
|----------------------------------------------------------------|
|----------------------------------------------------------------|
|----------------------------------------------------------------|


|------------------------------------------------|
|-12p11p10----------11p10p9----------------------|
|----------13p12p10---------12p11-9/11\5/12\5/13\|
|------------------------------------------------|
|------------------------------------------------|
|------------------------------------------------|


							A.H.
|---------17b(1)-14-------14-----------------------------------------|
|--/14-17----------17p14----17p16-----17-16\14----16----16gb(1/2)----|
|----------------------------------16----------14----14--------------|
|--------------------------------------------------------------------|
|--------------------------------------------------------------------|
|--------------------------------------------------------------------|



|-----------------------------------------|
|---16---18--14---------------------------|
|---------------16------------------------|
|------------------16---------------------|
|----------------------15~~~~~~~~~~~~~15--|
|-----------------------------------------|


    //    //    //    //     //
|----------------------------------------------18/19--X--13/16-X--19b(2)~~~~~~~~~~~~~~-|
|--/15---/15---/15---/15----/15---16--16-/17-X-17/18--X--12/15-X-----------------------|
|--/16---/16---/16---/16----/16---14--14-/15-X-----------------------------------------|
|--------------------------------------------------------------------------------------|
|--------------------------------------------------------------------------------------|
|--------------------------------------------------------------------------------------|
   

play riff 8 then play verse 3


Interlude:

Gtr.1 A.H..............................................
||------------------------------------------------------|
||------------------------------------------------------|
||---------------12--------------------12---------------|
||----------/14------13~~~~~------/14------13~~~~~------|
||------------------------------------------------------|
||-----0-----------------------0------------------------|
|
|
|Gtr.2
||------------------------------------------------------|
||------------------------------------------------------|
||------------------------------------------------------|
||---------------5---------------------5----------------|
||-------/7----------6~~~~~-------/7-------6~~~~~~------|
||-----0----------------------0-------------------------|



Gtr.1 A.H................................................
||----------------------------------------------------------------|
||----------------------------------------------------------------|
||----12--12\11------11--11\10------10--10\9------9~~~~~~---------|
||---------------12-------------11------------10------------------|
||----------------------------------------------------------------|
||----------------------------------------------------------------|
|
|
|
|Gtr.2
||----------------------------------------------------------------|
||----------------------------------------------------------------|
||----------------------------------------------------------------|
||-----5---5\4--------4---4\3--------3---3\2------2~~~~~~---------|
||----------------5--------------4-------------3------------------|
||----------------------------------------------------------------|


Gtr.1&2 A.H.........................................
|---------------------------------------------------|
|---------------------------------------------------|
|--------2b(1)-2b(1)---2b(1)---2b(1)--3b(1)--3b(1)--|
|---------------------------------------------------|
|---------------------------------------------------|
|---------------------------------------------------|



Gtr.1&2 A.H................     w/bar    w/bar
||-----------------------------------------------------------------------------|
||-----------------------------------------------------------------------------|
||-------3b(1)--------------3b(1)-\------0-\-----------------------------------|
||---------------------------------\----------\--------------------------------|
||----------------------------------\------------\-----------------------------|
||-----------------------------------\--------------\--------------------------|
|
|
|
|Gtr.3
||-----------------------------------------------------------------------------|
||-----------------------------------------15-17-19-15h17h19-15-17-19-15h17h19-|
||-----13-14-17-13h14h17-13-14-17-14h16h18-------------------------------------|
||-----------------------------------------------------------------------------|
||-----------------------------------------------------------------------------|
||-----------------------------------------------------------------------------|
      P.M.....|          P.M....|


2nd Solo
Gtr.3
|-------------------------------------------------------------------------|
|-------------------------------------13-14-17-13h14h17-13-14-17-13h14h17-|
|-13-14-17-13h14h17-13-14-17-13h14h17-------------------------------------|
|-------------------------------------------------------------------------|
|-------------------------------------------------------------------------|
|-------------------------------------------------------------------------|
P.M.....|          P.M....|          P.M....|          P.M....|


|-13--------13-------13-14-17-13h14h17-13-15-17-13h14h17-13-15-17-13h14h17--|
|----14-17-----14h17--------------------------------------------------------|
|---------------------------------------------------------------------------|
|---------------------------------------------------------------------------|
|---------------------------------------------------------------------------|
|---------------------------------------------------------------------------|


      hold bend..|
|---19b(1/2)--19-------------------------------------------------------------------|
|--------------------------19b(1-1/2)-19b(1-1/2)-19b(1-1/2)-19b(1-1/2)-19b(1-1/2)--|
|----------------------------------------------------------------------------------|
|----------------------------------------------------------------------------------|
|----------------------------------------------------------------------------------|
|----------------------------------------------------------------------------------|
   

play riff 8 then the outro

outro:
riff 9, 4 times
|-----------------------------|
|-----------------------------|
|------------3----------------|
|------------3----------------|
|------------1----X-X---X-X---|
|--0-0-1-1---1----X-X---X-X---|
  P.M.....|

riff 10, 9 times
|------------------------------------|
|------------------------------------|
|------------3-----------------------|
|------------3-----------------------|
|------------1----X-X-X-X-X-X-X-X----|
|--0-0-1-1---1----X-X-X-X-X-X-X-X----|
P.m.......|       P.m.............|


Then riff 9 once.

10.USE MY THIRD ARM

Don't Know

11.THROES OF REJECTION

Don't Know

12.PLANET CARAVAN

Tune down to Eb

eb|--------0-0-------------------------------|
Bb|--------0-0---------0---------------------|
Gb|------0-----------0-------0-2-------------|
Db|-----4------2---4-------4-----------------|
Ab|--------------5-------5-------------------|
Eb|---0-----------------------------------------------------|

Solo is pretty hard even though its slow.....Im not too sure about my ending though

|-------------------------------------------------------~--------------~-----|
|------------------------------------------1/4-------------------------------|
|--------------------------h-p-p----------b----------------------------------|
|-4----------------5-7----7-8-7-5---7-5---5--------p-----------54-----------|
|----5--7----/7-----------------------------------7-5---7--5/7------5--7----|
|----------------------------------------------------------------------------|

|---------------------------------~-------------------------p----------------|
|--------------------------------------------------------7-8-7--5-7----------|
|------------------------------------------------------x-------------76-----|
|------5-7--87---87--87---5----5-------5-4---------x----------------------|
|55-5---------------------------7------7-------7------^----------------------|
|-----------------------------------------------fluiddownstroke--------------|

|------------~--------------p--------------p-----------------p---------------|
|--p--------------------7--8-7----10---7--8-7--7---10----7--8-7-----7---7----|
|-7-6--7--------------x---------7----------------------7---------9-----------|
|----------74------x--------------------------------------------------------|
|-------------------^--------------------------------------------------------|
|-----------------downstroke-------------------------------------------------|

|---p--------------------------------------------------~---------~-----------|
|--8-75--7--p-------p-------------------------------------------------------|
|-----------7-6--7--7-64--6---p----p--------p-------------------------------|
|-----------------------------7-5--7-5---4--5-4---4-----------/9-5-----------|
|-----------------------------------------------5----5/7-(7)----------------|
|----------------------------------------------------------------------------|

|-----------------------------------------------------b----~-----------------|
|-----------------------------------------------------8--------------------11|
|------------------h-p-p-------------------------7-9-------9---(9)/(7)--9---|
|--5--7---7/8--7--7-8-7-5---7-5----------5--7/8------------------------------|
|-------------------------------7--(7)--------------------------------------|
|----------------------------------------------------------------------------|

     1/2                                                full
|---b---R--p---------------h--p--------------------------b--R~---------------|
|--10--(10)-8---10----8--10-11-10----(8)-10-----8-10-10--8-(8)--(8)---------|
|-------------9----9--------------------9-----------------------------/12----|
|----------------------------------------------------------------------------|
|----------------------------------------------------------------------------|
|----------------------------------------------------------------------------|
                                                         
                                                         full
|-------p------------------p------------------p-----------b~--R--------12----|
|-15--15-14----------14--14-13---------13---13-11--------10--(10)----x-------|
|------------15--12------------14--11-------------13-10-----------x----------|
|----------------------------------------------------------------------------|
|----------------------------------------------------------------------------|
|---------------------------------------------------------------downstroke---|

                 b(full)     b(full) R                      full
|----14-15-17---17--~-------17------(17)---1514---p---15---b-----~----------|
|------------------------------------------------17-15-----15----(15)--------|
|----------------------------------------------------------------------------|
|----------------------------------------------------------------------------|
|----------------------------------------------------------------------------|
|----------------------------------------------------------------------------|

        1/4
|--------b---R--p---------~----------------------h-p-h-p-----------~---------|
|-------15--(15)-12----------------------h------7-8-7-8-7---9----7/9---------|
|-----x----------------15-14---(14)-----6-76--------------------------------|
|---x------------------------------------------------------------------------|
|----------------------------------------------------------------------------|
|-downstroke-----------------------------------------------------------------|
  
                                            12
|----------------------------------------------------------------------------|
|-----h-p--------------------------------------------------------------------|
|----6-7-6-------6-------p--------4------------------------------------------|
|-------------9-----7---5-4--5/7-----5/75-----------------------------------|
|--------------------------------------------b---R-----5----/11--------------|
|--------------------------------------------5--(5)--3-----------------------|

|--------------------------------------------------------------12----p-------|
|----------------------h-------12-----12----12----p--p--h--h-------15-12-----|
|-----------12--14---12-14--15----15-----15-----15-14-12-14-15---------------|
|-12--14--14--14--14---------------------------------------------------------|
|---14--14-------------------------------------------------------------------|
|----------------------------------------------------------------------------|

           full     full      2 steps    2 steps                    h  h
|-----------b---12---b---12---b------12----b-------12---~---------17-18-19---|
|--p--p----15-------15--------15----------15-----------15------x-------------|
|15-14-12----------------------------------------------------x---------------|
|----------------------------------------------------------------------------|
|----------------------------------------------------------------------------|
|----------------------------------------------------------------------------|

   p  p                              p
|15-14-12---~-----------------17---16-15-----17----------------------------~~|
|----------15--------------x--------------17----1715---12--15----p----------|
|------------------------x--------------------------------------15-12---14---|
|---------------------------------------------------------------------14--14-|
|----------------------------------------------------------------------------|
|----------------------------------------------------------------------------|

       b 1/2  R  p                 full                  1/2  
|-----14-----(14)-12---15-----12---b---------p-----------b----R--p-----------|
|---x---------------------15-------15----(15)-12-----12-14---(14)-12---------|
|-x-----------------------------------------------15-------------------------|
|----------------------------------------------------------------------------|
|----------------------------------------------------------------------------|
|----------------------------------------------------------------------------|

    1/4
|------------------~----------~-----------~----------------------------------|
|----b--R----p-----------------------------------p--------p------------------|
|---14--(14)--12--14--------(14)------11-------14-12----12-11---11-----------|
|---------------------------------14------12--------------------------------|
|----------------------------------------------------------------------------|
|----------------------------------------------------------------------------|

|----------------------------------------------------------------------------|
|----------------------------------------------------------------------------|
|----p------------p----------------------------------------------------------|
|--14-1211-----12-11-------p------------------------------------12-13-14----|
|-------------------------14-1210-----------9--10---------12-14-------------|
|---------------------------------------------------10/12-------------------|

         1/2                1/2                                 b full  R
|----------------------------------~----------------------------17-----(17)--|
|---------b---R---------------b---R---------------------------x--------------|
|-12-14--14--(14)---12--14---14--(14)-----12----14----------x----------------|
|-----------------------------------------------------14---------------------|
|----------------------------------------------------------------------------|
|----------------------------------------------------------------------------|

              b full R                 b full R  p         b 1 1/2 steps
|--15---17---17-----(17)----15----17---17----(17)--15--17--------------------|
|----------------------------------------------------------17----------------|
|----------------------------------------------------------------------------|
|----------------------------------------------------------------------------|
|----------------------------------------------------------------------------|
|----------------------------------------------------------------------------|

Dimebag is a god up there.
comments
print report bad tab
7 comments total. Showing first comments.
0 reply
AngusYoung II wrote on May 24 2006, 03:44 am

Legends Never Die (1966 - 2004 R.I.P Darrell "Dimebag" Abbott)

0 reply
a_n_e wrote on July 13 2007, 06:59 am

Good work man....
DIME LIVES THROUGH US!!!!
FOREVER STRONGER THAN ALL!!!

0 reply
jefffelker40 wrote on July 13 2008, 05:22 pm

it's like you got lazy with some songs and didn't finish it.

I want to post or [tab]
guest
You may want to rate the tab now too:
select rating
Please do not post tabs as comments. Select "correction" instead!