Oops, an error
Loading. Please wait.

Official Live101 Proof Tab

4,372 views 1 this week
6 commentsread comments
1 2 3 4 5
worth learning
x 6
Autoscroll
+/-
esc
set tempo
stop
Contributor
Hey! There's an official Ultimate Guitar app which is ideal
for learning songs when you're away from computer. Get the app
WARNING: You are trying to view
                                    content from Ultimate-Guitar.com
                                    in an unauthorized application,
                                    which is prohibited.

                                    Please use an official Ultimate
                                    Guitar Tabs application for iPhone,
                                    iPad or Android to access legitimate
                                    chords, guitar, bass, and drum tabs
                                    from Ultimate-Guitar.com database.

                                    Type "ultimate guitar tabs" in Apple
                                    App Store's or Android Market's
                                    search to find the application.
R.I.P.:DIMEBAG DARRELL

1.NEW LEVEL

Don't Know

2.WALK

Drop D Tuning (D,A,D,G,B,E)

                                                                         2x
||------------------------|---------------------|-----|--------------------||
||------------------------|---------------------|-----|--------------------||
||o-----------------------|---------------------|-----|-------------------o||
||o-----------------------|---------------------|--%--|----------------x\-o||
||------------------------|---------------------|-----|-------------x\-----||
||--0---0-2-1-0---0-2-1-0-|---0-2-1-0---0-2-1-0-|-----|---0-2-1-0----------||
    e E e e e e E e e e e   E e e e e E e e e e         E e e e e E q  q
    { 3 } { 3 }     { 3 }       { 3 }     { 3 }             { 3 } {3}

||--------------------|-------------------|-------------------|
||--------------------|-------------------|-------------------|
||o-------------------|-------------------|-------------------|
||o-------------------|-------------------|-------------------|
||------------------8-|-----------------6-|-----------------4-|
||--0---0-2-1-0---0-8-|-0---0-2-1-0---0-6-|-0---0-2-1-0---0-6-|
    e E e e e e E e q   e E e e e e E e q   e E e e e e E e q
    { 3 } { 3 }         { 3 } { 3 }         { 3 } { 3 }

                          2x
|--------------------------||-------------------------||
|--------------------------||-------------------------||
|-------------------------o||-------------------------||
|-------------------------o||-------------------------||
|--------------------------||-------------------------||
|-0-0-0-1-0-3-0-4-0-3-0-1--||-0-0-0-1-0-3-0-4-0-3-0-1-||
  e e e e e e e e e e e e     e e e e e e e e e e e e
  { 3 } { 3 } { 3 } { 3 }     { 3 } { 3 } { 3 } { 3 }

   verse 1                                                              2x
||------------------------|---------------------|-----|------------------||
||------------------------|---------------------|-----|------------------||
||o-----------------------|---------------------|-----|-----------------o||
||o-----------------------|---------------------|--%--|-----------------o||
||------------------------|---------------------|-----|-------------4-4--||
||--0---0-2-1-0---0-2-1-0-|---0-2-1-0---0-2-1-0-|-----|---0-2-1-0---6-6--||
    e E e e e e E e e e e   E e e e e E e e e e         E e e e e E e q
    { 3 } { 3 }     { 3 }       { 3 }     { 3 }             { 3 }

   pre-chorus                                                2x
||-----|--------|-----------------------|----------------------||
||-----|--------|-----------------------|----------------------||
||o----|--------|-----------------------|---------------------o||
||o----|--------|-----------------------|---------------------o||
||--3--|--6--7--|-----------------------|----------------------||
||--5--|--6--7--|-0---0-2-1-0---0-2-1-0-|---0-2-1-0---0-2-1-0--||
    w     h  h    e E e e e e E e e e e   E e e e e E e e e e
                  { 3 } { 3 }     { 3 }       { 3 }     { 3 }

|---------|---------|---------|----------------||
|---------|---------|---------|----------------||
|---------|---------|---------|----------------||
|---------|---------|---------|----------------||
|--3------|--6------|--3------|--2------1------||
|--5------|--6------|--3------|--2------1------||
   w         w         w         h      h

  chorus
||--------------------|-------------------|-------------------|
||--------------------|-------------------|-------------------|
||o-------------------|-------------------|-------------------|
||o-------------------|-------------------|-------------------|
||------------------8-|-----------------6-|-----------------4-|
||--0---0-2-1-0---0-8-|-0---0-2-1-0---0-6-|-0---0-2-1-0---0-6-|
    e E e e e e E e q   e E e e e e E e q   e E e e e e E e q
    { 3 } { 3 }         { 3 } { 3 }         { 3 } { 3 }

                          2x
|--------------------------||-------------------------||
|--------------------------||-------------------------||
|-------------------------o||-------------------------||
|-------------------------o||-------------------------||
|--------------------------||-------------------------||
|-0-0-0-1-0-3-0-4-0-3-0-1--||-0-0-0-1-0-3-0-4-0-3-0-1-||
  e e e e e e e e e e e e     e e e e e e e e e e e e
  { 3 } { 3 } { 3 } { 3 }     { 3 } { 3 } { 3 } { 3 }

|-----------------------|---------------------|-----|-------------------||
|-----------------------|---------------------|-----|-------------------||
|-----------------------|---------------------|-----|-------------------||
|-----------------------|---------------------|--%--|----------------x\-||
|-----------------------|---------------------|-----|-------------x\----||
|-0---0-2-1-0---0-2-1-0-|---0-2-1-0---0-2-1-0-|-----|---0-2-1-0---------||
  e E e e e e E e e e e   E e e e e E e e e e         E e e e e E q  q
  { 3 } { 3 }     { 3 }       { 3 }     { 3 }             { 3 } {3}

   verse 2                                                              2x
||------------------------|---------------------|-----|------------------||
||------------------------|---------------------|-----|------------------||
||o-----------------------|---------------------|-----|-----------------o||
||o-----------------------|---------------------|--%--|-----------------o||
||------------------------|---------------------|-----|-------------4-4--||
||--0---0-2-1-0---0-2-1-0-|---0-2-1-0---0-2-1-0-|-----|---0-2-1-0---6-6--||
    e E e e e e E e e e e   E e e e e E e e e e         E e e e e E e q
    { 3 } { 3 }     { 3 }       { 3 }     { 3 }             { 3 }

   pre-chorus                                                2x
||-----|--------|-----------------------|----------------------||
||-----|--------|-----------------------|----------------------||
||o----|--------|-----------------------|---------------------o||
||o----|--------|-----------------------|---------------------o||
||--3--|--6--7--|-----------------------|----------------------||
||--5--|--6--7--|-0---0-2-1-0---0-2-1-0-|---0-2-1-0---0-2-1-0--||
    w     h  h    e E e e e e E e e e e   E e e e e E e e e e
                  { 3 } { 3 }     { 3 }       { 3 }     { 3 }

|---------|---------|---------|----------------||
|---------|---------|---------|----------------||
|---------|---------|---------|----------------||
|---------|---------|---------|----------------||
|--3------|--6------|--3------|--2------1------||
|--5------|--6------|--3------|--2------1------||
   w         w         w         h      h

  chorus
||--------------------|-------------------|-------------------|
||--------------------|-------------------|-------------------|
||o-------------------|-------------------|-------------------|
||o-------------------|-------------------|-------------------|
||------------------8-|-----------------6-|-----------------4-|
||--0---0-2-1-0---0-8-|-0---0-2-1-0---0-6-|-0---0-2-1-0---0-6-|
    e E e e e e E e q   e E e e e e E e q   e E e e e e E e q
    { 3 } { 3 }         { 3 } { 3 }         { 3 } { 3 }

                          4x
|--------------------------||-------------------------|-----|-----||
|--------------------------||-------------------------|-----|-----||
|-------------------------o||-------------------------|-----|-----||
|-------------------------o||-------------------------|--%--|--%--||
|--------------------------||-------------------------|-----|-----||
|-0-0-0-1-0-3-0-4-0-3-0-1--||-0-0-0-1-0-3-0-4-0-3-0-1-|-----|-----||
  e e e e e e e e e e e e     e e e e e e e e e e e e
  { 3 } { 3 } { 3 } { 3 }     { 3 } { 3 } { 3 } { 3 }

  guitar solo
  full      full
|----------|----------------------------10----------------------10-------|
|-12b---13b|-~--10----10-------------------13-10-------------------13-10-|
|-12b------|-------13----13-12-10-12-13----------13-12-10-12-13----------|
|----------|-------------------------------------------------------------|
|----------|-------------------------------------------------------------|
|----------|-------------------------------------------------------------|
  h..   e  + q  s  s  s  s  s  s  s  s  s  s  s  s  s  s  s  s  s  s  s
                {      6       }  {      6       }  {        7        }

          full vib.     full  2  full
|----------12b~---10-12-----10b-----10-|
|-----------------------13b-----13b----|
|-13-12-10-----------------------------|
|--------------------------------------|
|--------------------------------------|
|--------------------------------------|
  s  s  s  e.+ q  e  e  e   q   s   s
  {    6    }     {  3  }   {   3   }

   full
|--------10-14-10---10-14-10-14-10----10-------------|
|-13b------------------------------13----13-10-13-10-|
|----------------------------------------------------|
|----------------------------------------------------|
|----------------------------------------------------|
|----------------------------------------------------|
  q + e. s  s  s  S s  s  s  s  s  s  s  s  s  s  s
         {  3  }  {      6      }  {       6      }

|-----------------------------------------------------|
|----10-----------------------------------------------|
|-13----13-12-10----12----10h11----10-11-10----10h11b-|
|----------------12----12-------------------12--------|
|-----------------------------------------------------|
|-----------------------------------------------------|
  s  s  s  s  s  s  s  s  s  e + q s  s  s  s  s  s  +
  {       6      }  {  3  }        {       6      }

    2 vib.     2 hold-|     2.5 vib.                          1.5
|--------------------------------|-------|-13----15----16----18b----|
|--------------------------------|-------|--------------------------|
|-(11b)~--10-11b--11----10-11b~~-|-~~~---|--------------------------|
|--------------------------------|-------|--------------------------|
|--------------------------------|-------|--------------------------|
|--------------------------------|-------|--------------------------|
+  q      e  q    q     s  s + q +  w      e  E  e  E  e  E  h
          { 3}    {   3    }               {       3      }

                                  2  full full  vib. w/bar---
|----------6-7-6---|-------------------------|--------------|
|-3--------------8-|-5-6-5-------------------|--------------|
|-3----------------|-------7-4-5-4br---5b-5b-|-3~~~-5-/--5/-|
|-3--5-3-5---------|-------------------------|--------------|
|------------------|-------------------------|--------------|
|------------------|-------------------------|--------------|
  q  e e q e s s s   e s s s s s e + q q  q    q.   e+q  q
             { 3 }     { 3 }

-------------vib.
|-----------------|--------------------------------------|
|-----------------|--------------------------------------|
|---------12~~~~~-|-----12-------12-------12-------12----|
|-/x-5-/----------|-/12----12-11----11h12----12-11----11-|
|-----------------|--------------------------------------|
|-----------------|--------------------------------------|
   e q.   h          e  e  e  e  e  e  e  e  e  e  e  e  +
                     {  3  }  {  3  }  {  3  }  {  3  }

                   full vib.
|----------------------------|----8------10-------14-------17-----|
|-------------------------3/-|-/7---7/10----10/13----13/16----16/-|
|-----12----12----12b~~~-----|------------------------------------|
|-h12----12----12------------|------------------------------------|
|----------------------------|------------------------------------|
|----------------------------|------------------------------------|
+  e  e  e  e  e  e + q.  e  +  e e e+e  e  e +e  e  e +e  e  e   +
   {  3  }  {  3  }             { 3 } {  3  }  {  3  }  {  3  }

                   1.5     A.H. dive w/bar
|-----20----20----20b-----|------------||
|-/19----19----19---------|-x----\-----||
|-------------------------|------------||
|-------------------------|------------||
|-------------------------|------------||
|-------------------------|------------||
   e  e  e  e  e  e + h     w
   {  3  }  {  3  }

|-----------------------|---------------------|-----|-------------------||
|-----------------------|---------------------|-----|-------------------||
|-----------------------|---------------------|-----|-------------------||
|-----------------------|---------------------|--%--|----------------x\-||
|-----------------------|---------------------|-----|-------------x\----||
|-0---0-2-1-0---0-2-1-0-|---0-2-1-0---0-2-1-0-|-----|---0-2-1-0---------||
  e E e e e e E e e e e   E e e e e E e e e e         E e e e e E q  q
  { 3 } { 3 }     { 3 }       { 3 }     { 3 }             { 3 } {3}

  chorus
||--------------------|-------------------|-------------------|
||--------------------|-------------------|-------------------|
||o-------------------|-------------------|-------------------|
||o-------------------|-------------------|-------------------|
||------------------8-|-----------------6-|-----------------4-|
||--0---0-2-1-0---0-8-|-0---0-2-1-0---0-6-|-0---0-2-1-0---0-6-|
    e E e e e e E e q   e E e e e e E e q   e E e e e e E e q
    { 3 } { 3 }         { 3 } { 3 }         { 3 } { 3 }

                          4x
|--------------------------||-------------------------||
|--------------------------||-------------------------||
|-------------------------o||-------------------------||
|-------------------------o||-------------------------||
|--------------------------||-------------------------||
|-0-0-0-1-0-3-0-4-0-3-0-1--||-0-0-0-1-0-3-0-4-0-3-0-1-||
  e e e e e e e e e e e e     e e e e e e e e e e e e
  { 3 } { 3 } { 3 } { 3 }     { 3 } { 3 } { 3 } { 3 }

  outro                 repeat & fade
||-----------------------||
||-----------------------||
||o---------------------o||
||o---------------------o||
||--------1-0-------1-0--||
||--0-0-0-1-0-0-0-0-1-0--||
    e e e e e e e e e e
    { 3 }     { 3 }

3.BECOMING

Intro Riff
|----------------------------------------------------|
|----------------------------------------------------|
|----------------------------------------------------|
|-7-7-7-----7-7-7-----7-7-7--7-7-7-----7-7-7-----7-7-|
|-7-7-7-----7-7-7-----7-7-7--7-7-7-----7-7-7-----7-7-|
|-5-5-5-----5-5-5-----5-5-5--5-5-5-----5-5-5-----5-5-|


play this twice: but be aware there is another version below
for people who do not have a second guitarist to play the screach! 

|---------------------------------------------|
|---------------------------------------------|
|---------------------------------------------|
|---------------------------------------------|
|----------------------------------------4--5-|
|-0--0----2-1-0--0----2-1-0--0----2-1-0--2--3-|

on the recording, dime cheats with a second guitar playing
the high part between the riffs. heres the fill:

|--19-|
|-----|i know dime uses a synth effect,
|--16-|and im going to guess that
|-----|he uses a whammy on this too
|-----|
|-----|

ok here you go. i like to imitate the little sqeal deal by simply 
sliding my fingers up the three highest strings. check it out:
|------2s9---------------------2s9------------|
|------2s9---------------------2s9------------|
|------2s9---------------------2s9------------|
|---------------------------------------------|
|----------------------------------------4--5-|
|-0--0----2-1-0--0----2-1-0--0----2-1-0--2--3-|


|---------------------------------------------|
|---------------------------------------------|
|---------------------------------------------|
|---------------------------------------------|
|---------1P0H1-------1P0H1-------1p0----4--5-|
|-0--0----0---0--0----0---0--0----0---0--2--3-|

^^Play this for a while, until the double time, when Phil starts to scream: 
no more, the small one,... which is when you play the other riff


Now for the chorus!
|---------------------------------------------|
|---------------------------------------------|
|---------------------------------------------|
|----------------7--------------------------7-|
|-9---7\---------7--------------------------7-|
|-7---5\---0--0--5----2/---7--6--5~~~-0--0--5-|

4.5 MINUTES ALONE

100 bpm
|-------|-----------------------|-------------------------|
|-------|-----------------------|-------------------------|
|-------|-----------------------|-------------------------|
|-------|-----------------------|-------------------------|
|-------|-5/7-2-x-5-7-2---x-x-2-|-5/7-2-x-85-2---x-x-x-2-|
|-------|-3/5-0-x-3/5-0---x-x-0-|-3/5-0-x-63-0---x-x-x-0-|
  S H     s+s e e s+s e E s e s   s+s e e s+s e S s s e s

                                                 riff 1
|-----------------------|-----------------------|-------------------------|
|-----------------------|-----------------------|-------------------------|
|-----------------------|-----------------------|-------------------------|
|-----------------------|-----------------------|-------------------------|
|-5/7-2-x-5/7-2---x-x-2-|-5/7-2-x-85-2-x-x-x-2-|-5/7-2-x-5/7-2---x-x-x-2-|
|-3/5-0-x-3/5-0---x-x-0-|-3/5-0-x-63-0-x-x-x-0-|-3/5-0-x-3/5-0---x-x-x-0-|
  s+s e e s+s e E s e s   s+s e e s+s e e s e s   s+s e e s+s e S s s e s

                                                                  end riff 1
|-------------------------|-------------------------|-----------------------|
|-------------------------|-------------------------|-----------------------|
|-------------------------|-------------------------|-----------------------|
|-------------------------|-------------------------|-----------------------|
|-5/7-2-x-85-2---x-x-x-2-|-5/7-2-x-5/7-2---x-x-x-2-|-5/7-2-x-85-2-x-x-x-x-|
|-3/5-0-x-63-0---x-x-x-0-|-3/5-0-x-3/5-0---x-x-x-0-|-3/5-0-x-63-0-x-x-x-x-|
  s+s e e s+s e S s s e s   s+s e e s+s e S s s e s   s+s e e s+s e e s e s

 fill 1 -------------------------|
|---------------------------------||
|---------------------------------||
|---------------------------------||
|-----9---------------------------||
|-/9----9-8-75---5-----4-----2---||
|---------------7---53---31---1-||
   e  s s s s+s s s s+s s s+s s s

  verse 1
 riff 2                                            end riff 2  2x
||------------------------|-----|-----------------------|------||
||------------------------|-----|-----------------------|------||
||o-----------------------|-----|-----------------------|-----o||
||o---2-2-2-2-2-2---2-2-2-|--%--|---1-1-1-1-1-1---1-1-1-|--%--o||
||----2-2-2-2-2-2---2-2-2-|-----|---1-1-1-1-1-1---1-1-1-|------||
||----0-0-0-0-0-0---0-0-0-|-----|---0-0-0-0-0-0---0-0-0-|------||
    E e e e e s s S s s s         E e e e e s s S s s s

              f   f                           f
|-------------------|-----|-----|-----------------||
|-------------------|-----|-----|-----------------||
|-------------------|-----|-----|-----------------||
|------5---------7b-|--%--|--%--|------5----------||
|---/8---6----------|-----|-----|---/8---6--------||
|-0----------4br----|-----|-----|-0----------4br-||
| e  e e e+s e.  q  |     |     | e  e e e+s e.+q ||
|                   |     |     |                 ||
|             f   f |     |     |               2 ||
|-------------------|-----|-----|-----------------||
|-------------------|-----|-----|-----------------||
|-------------------|-----|-----|-----------------||
|------5---------7b-|--%--|--%--|------5----------||
|---/8---6----------|-----|-----|---/8---6--------||
|-0----------4br----|-----|-----|-0----------4b---||
| e  e e e+s e.  q              | e  e e e+s e.+q


  pre-chorus
  riff 4
|-----------------------|-----|-----------|---------------------------|
|-----------------------|-----|-----------|---------------------------|
|-----------------------|-----|-----------|---------------------------|
|---2-2-2-2-2-2---2-2-2-|--%--|-----------|---------------------------|
|---2-2-2-2-2-2---2-2-2-|-----|-----------|-5/7-2-x-x-5/7-2---x-x-x---|
|---0-0-0-0-0-0---0-0-0-|-----|-/7~-2~-1~-|-3/5-0-x-x-3/5-0---x-x-x-3/|
  E e e e e s s S s s s          h  q  q    s+s e s s s+s e S s s e s +

|-----------|---------------------------|-----------|
|-----------|---------------------------|-----------|
|-----------|---------------------------|-----------|
|-----------|---------------------------|-----------|
|-----------|-5/7-2-x-x-5/7-2---x-x-x---|-----------|
|-/7~-6~-1~-|-3/5-0-x-x-3/5-0---x-x-x-3/|-/7~-6~-5~-|
+  h  q  q    s+s e s s s+s e S s s e s +  h  q  q

                                end riff 4
|---------------------------|-----------||
|---------------------------|-----------||
|---------------------------|-----------||
|---------------------------|-----------||
|-5/7-2-x-x-5/7-2---x-x-x---|-----------||
|-3/5-0-x-x-3/5-0---x-x-x-3/|-/7~-2~-1~-||
  s+s e s s s+s e S s s e s +  h  q  q

chorus

  play riff 1 2x

  play fill 1 1x

verse 2

  play riff 2 2x

              f   f                           f
|-------------------|-----|-----|-----------------||
|-------------------|-----|-----|-----------------||
|-------------------|-----|-----|-----------------||
|------5---------7b-|--%--|--%--|------5----------||
|---/8---6----------|-----|-----|---/8---6--------||
|-0----------4br----|-----|-----|-0----------4br-||
| e  e e e+s e.  q  |     |     | e  e e e+s e.+q ||
|                   |     |     |                 ||
|             f   f |     |     |             f 2 ||
|-------------------|-----|-----|-----------------||
|-------------------|-----|-----|-----------------||
|-------------------|-----|-----|-----------------||
|------5---------7b-|--%--|--%--|------5----------||
|---/8---6----------|-----|-----|---/8---6--------||
|-0----------4br----|-----|-----|-0----------4brb-||
| e  e e e+s e.  q              | e  e e e+s e.+q

pre-chorus

  play riff 4 1x

chorus

  play riff 1 2x

                                                                      2x
||----------------------------------|----------------------------------||
||----------------------------------|----------------------------------||
||o---------------------------------|---------------------------------o||
||o-----9---------------------------|----9----------------------------o||
||---/9---9-8-75---5---------4-----|-/9---9-8-75---5-----4-----2-----||
||----------------7---7-6-53---31-|--------------7---53---31---1---||
      e s s s s+s s s s s s+s s s+s    e s s s s+s s s s+s s s+s s s

|--------------------------------|-----|-----|
|--------------------------------|-----|-----|
|--------------------------------|-----|-----|
|--------------------------------|--%--|--%--|
|----5---------5-----4-----3-----|-----|-----|
|-/7---7-6-54---43---32---21-|-----|-----|
   e s s s s+s s s+s s s+s s s+s

|--------------------------------||-------------------------|
|--------------------------------||-------------------------|
|--------------------------------||-------------------------|
|--------------------------------||-------------------------|
|----5---------5-76-65-54-43-||-5/7-2-x-5/7-2---x-x-x-2-|
|-/7---7-6-54---54-43-32-21-||-3/5-0-x-3/5-0---x-x-x-0-|
   e s s s s+s s s+s s+s s+s s+s    s+s e e s+s e S s s e s

              harm. ----------------|
|------------------------------------|-------------------------|
|------------------------------------|-------------------------|
|-------------4-4-4-4-4-4-4-4-4--2.6-|-------------------------|
|-------------4-4-4-4-4-4-4-4-4--2.6-|-------------------------|
|-5/7-2-x-85------------------------|-5/7-2-x-5/7-2---x-x-x-2-|
|-3/5-0-x-63------------------------|-3/5-0-x-3/5-0---x-x-x-0-|
  s+s e e s+s s s s s s s s s s  e     s+s e e s+s e S s s e s
              {    6    } { 3 }

                         w/bar
                           -1.5     1/2           1/2
|-----------------------|-------||---------------------------------|
|-----------------------|-------||-5brp3-5---3---5brp3-5---5-5-3-0-|
|-----------------------|-------||-5brp3-5---3---5brp3-5---5-5-3-0-|
|-----------------------|-------||---------------------------------|
|-5/7-2-x-85-2-x-x-x-x-|-------||---------------------------------|
|-3/5-0-x-63-0-x-x-x-x-|-0---r-||---------------------------------|
  s s e e s s e e s e s   w        e   s s S s S s+s s s S s s s s

   1/2         f      f    f     1/2         f      f    f
|-----------------------6-----|-----------------------9-----|
|-5brp3-5---3----6---6b---6b~-|-8brp6-8---6----9---9b---9b~-|
|-5brp3-5---3-5b---5----------|-8brp6-8---6-8b---8----------|
|-----------------------------|-----------------------------|
|-----------------------------|-----------------------------|
|-----------------------------|-----------------------------|
  e   s s S s e  s s e  s e.    e   s s S s e  s s e  s e.

|---------------------------------|
|-8brp6-8---6/--------------------|
|-8brp6-8---6/--------------------|
|---------------------------------|
|--------------x-x-x-x-x-x-x------|
|--------------x-x-x-x-x-x-x-/17-|
| e   s s S e  s s s s s s s  e
|             trem. pick -----------------------------------------------
|          A.H.-------------------|        1.5            r     1.5 hold-|
|------------19-------------------|-(19)----------|-(19)---------------|
|---------------------------------|---------------|--------------------|
|---------------------------------|---------------|--------------------|
|---------------------------------|---------------|--------------------|
|---------------------------------|---------------|--------------------|
|---------------------------------|---------------|--------------------|
   Q    E    e + h                + h  +   h      +  e + h +   q.      +
                                 bend & release gradually

------------------|
                   both notes
        r         1.5  vib.    1.5                f
|-(19)------------|-19-------19b-19-18-17----17------|
|-----------------|-19--------------------20----20br-|
|-----------------|----------------------------------|
|-----------------|----------------------------------|
|-----------------|----------------------------------|
|-----------------|----------------------------------|
+  q. + e + h     | q..      s+s s  s  s  s  s  e    +
|                 |                                  |
|-----------------|----------------------------------|
|-----------------|----------------------------------|
|-----------------|----------------------------------|
|-----------------|----------------------------------|
|-----------------|----------------------------------|
|-----------------|----------x/xx-/x-x-/x-x-/x-x-|
                             s+s+s +s +s +s +s +s +s
                            pick scrapes

                          trem pick -------|
   1/2   vib.             A.H.-------------|
|-------------------------19------|-(19)----------------------------|
|---b---17-----------------------|---------------------------------|
|---------------------------------|---------------------------------|
|---------------------------------|---------------------------------|
|---------------------------------|---------------------------------|
|---------------------------------|---------------------------------|
+ e+s   s+q   +   e + e   q       +  q      Q        H              |
|                                 |                                 |
|  1/2           1/2              |  1/2           1/2              |
|---------------------------------|---------------------------------|
|-5brp3-5---3---5brp3-5---5-5-3-0-|-8brp6-8---6---8brp6-8---8-8-6---|
|-5brp3-5---3---5brp3-5---5-5-3-0-|-8brp6-8---6---8brp6-8---8-8-6---|
|---------------------------------|---------------------------------|
|---------------------------------|---------------------------------|
|---------------------------------|---------------------------------|
  e   s s S s S s+s s s S s s s s   e   s s S s S s+s s s S s s s S

    1/2             1/2                     1/2            f
|---------------------------------------|-------------------------||
|-10brp8-10---8---10brp8-10---10-10-8---|-12brp10-12--10-13b------||
|-10brp8-10---8---10brp8-10---10-10-8---|-------------------------||
|---------------------------------------|-------------------------||
|---------------------------------------|-------------------------||
|---------------------------------------|---------------------13-||
  e    s s  S s S e    s s  S s  s  s S | e    s  s+s s  e+q  q   ||
                                        |                         ||
                                        |           A.H.(both)    ||
                                        |-----------19b-----------||
                                        |-----------17b-----------||
                                        |-------------------------||
                                        |-------------------------||
                                        |-------------------------||
                                        |-------------------------||
                                          Q.        e + h
                                           bend top note 1.5, lower
                                           note 1/2

                                              4x
||--------------------|------------------------||----------------------------|
||--------------------|------------------------||----------------------------|
||o-------------------|-----------------------o||----------------------------|
||o-------3-----------|---------3-------------o||----------------------------|
||--3-----1-3-2-----4-|-4-2-----1-2-4-2---3/5--||-2-4-2---3/5-2-4-2---3/5/13-|
||--1-------1-0-----2-|-2-0-------0-2-0---1/3--||-0-2-0---1/3-0-2-0---1/3----|
    e E E e s s E E e   s s E E e e s s+s s+e     e s s+s s+e e s s+s s+s+s

 2/4               4/4  chorus
|-----------------||
|-----------------||    play riff 1 2x
|-----------------||
|-x-x-x-x-x-x-x-x-||
|-x-x-x-x-x-x-x-x-||
|-x-x-x-x-x-x-x-x-||
  s s s s s s s s


    let open E string ring -------------------|                  2x
||----------------|------------|--------------|-------------------||
||----------------|--------6---|--------------|-------------------||
||o--4------7--/9-|-4------3---|-4------7--/9-|-5---x-x-5-x-x-5--o||
||o--2------5--/7-|-2------3---|-2------5--/7-|-3---x-x-3-x-x-3--o||
||---2------5--/7-|-2----------|-2------5--/7-|-3---x-x-3-x-x-3---||
||---0------------|-0----------|-0------------|-1---x-x-1-x-x-1---||
||   h + e. s+e+e | h + e. s+q | h + e. s+e+e | q.. s s e s s e.  ||
||                |            |              |                   ||
||----------------|------------|--------------|-------------------||
||----------------|------------|--------------|-------------------||
||o---------------|------------|--------------|------------------o||
||o--2------5--/7-|-2-----/8---|-2------5--/7-|-3---x-x-3-x-x-3--o||
||----------------|------------|--------------|-------------------||
||---0------3--/5-|-0-----/6---|-0------3--/5-|-1---x-x-1-x-x-1---||
     h + e. s+e+e   h + e. s+q   h + e. s+e+e   q.. s s e s s e.

                                                              4x
||------------------------------|------------------------------||
||------------------------------|------------------------------||
||o-----------------------------|-----------------------------o||
||o-----------------------------|-----------------------------o||
||--5/7-2-----5/7-2-------------|-5/7-2-----85-2--------------||
||--3/5-0-0-0-3/5-0-0-0-0-0-0-0-|-3/5-0-0-0-63-0-0-0-0-0-0-0--||
    s+s e s s s+s e s s s s s s   s+s e s s s+s e s s s s s s

                                                     repeat & fade
||----------------------------|----------------------------||
||----------------------------|----------------------------||
||o---------------------------|---------------------------o||
||o---------------------------|---------------------------o||
||--5/7-2-----5/7-2-----85-2-|-----5/7-2-----85-2-5-7-8--||
||--3/5-0-0-0-3/5-0-0-0-63-0-|-0-0-3/5-0-0-0-63-0-3-5-6--||
    s+s e s s s+s e s s s+s e   s s s+s e s s s+s e s s e

5.SANDBLASTED SKIN

tune 6 one octave lower than 5 
these are the main riffs of the song. 
 
------|---------------------------------------------|------------------------- 
------|---------------------------------------------|------------------------- 
------|---------------------------------------------|------------------------- 
------|---------------------------------------------|------------------------- 
------|-3------3--------3--------3------------------|------------------------- 
-15\--|----5b------5b-------5b-------5b--3---0------|------------------------- 
                                                                               
 
-----------------------------------------------------|------------------------ 
-----------------------------------------------------|------------------------ 
-----------------------------------------------------|------------------------ 
-----------------------------------------------------|------------------------ 
-3---------3----------3----------3-------------------|------------------------ 
------5b--------5b---------5b---------5b-----3---0---|------------------------ 
                                                                               
 
-------------------|-----------------|---------------|------------------------ 
-------------------|-----------------|---------------|------------------------ 
-------------------|-----------------|---------------|------------------------ 
-------------------|-----------------|---------------|------------------------ 
-------------------|-----------------|---------------|------------------------ 
--0----0---0---5h3-|--0---0--0---5h3-|-0---0--0--5h3-|--5b--(5b)-(5b)-(5b)-(5b) 
                                                        Bend up and down on this..
 
-------------------------|---------------------------------------------------- 
-------------------------|---------------------------------------------------- 
-------------------------|---------------------------------------------------- 
-2----2-----5\4-----2----|--/8-----7\----------------------------------------- 
-0----0-----3\2-----0----|--/6-----5\----------------------------------------- 
-0----0-----3\2-----0----|--/6-----5\----------------------------------------- 
  *play twice         then    play this

6.SUICIDE NOTE PT.2

 = Whammy pedal


Riff A
			 *    *    * *                  *    *    * *
|------------------6----6----6-6------------------6----6----6-6---|
|-----------------------------------------------------------------|
|-----------------------------------------------------------------|
|-----------------------------------------------------------------|
|-----------------------------------------------------------------|
|---00000000000--------------------00000000000--------------------|
Repeat 2x

Riff B
			 * * * * *                 * * * * *
|------------------6-6-6-6-6-----------------6-6-6-6-6------------|
|-----------------------------------------------------------------|
|-----------------------------------------------------------------|
|-----------------------------------------------------------------|
|-----------------------------------------------------------------|
|----00000000000---------------00000000000------------------------|
Repeat 2x

Riff C

|-----------------------------------------------------------------|
|-----------------------------------------------------------------|
|-----------------------------------------------------------------|
|-----------------------------------------------------------------|
|-0-----------3/5---3/5---3/5-----0-----------3/5---3/5---3/5-----|
|-0---0-0-0-0-3/5-0-3/5-0-3/5-0-0-0---0-0-0-0-3/5-0-3/5-0-3/5-----|
Repeat 2x

Riff D

|-----------------------------------------------------------------|
|-----------------------------------------------------------------|
|-----------------------------------------------------------------|
|-----------------------------------------------------------------|
|---5-----10-----3--------3-3--5----------------------------------|
|---5-----10-----3--------3-3--5----------------------------------|


Riff E

|------------------------------------------------------------------------|
|------------------------------------------------------------------------|
|------------------------------------------------------------------------|
|------------------------------------------------------------------------|
|-----------1----0------------3/5/8------------1----0------------3/5/6---|
|-0----0----1----0----0-0-0-0-3/5/8--0----0----1----0----0-0-0-0-3/5/6---|

7.WAR NERVE

***TUNE DOWN 1 1/2 STEPS*** 
 
                              |Repete this-------------------------| 
|------------|---------------||-------------------|----------------|| 
|------------|---------------||-------------------|----------------|| 
|------------|---------------||-------------------|----------------|| 
|-/7b---7--5-|-2-----8--7--5-||--2-----/7b---7--5-|-2-----8--7--5--|| 
|--x----x--x-|-2-----x--x--x-||--2------x----x--x-|-2-----x--x--x--|| 
|-/5b---5--3-|-0-----6--5--3-||--0-----/5b---5--3-|-0-----6--5--3--|| 
 
|-----------|--------|------|----------------------------| 
|-----------|--------|------|----------------------------| 
|-----------|--------|------|----------------------------| 
|-2----3--3-|--------|-7--3-|-2-2-2-2--2-2-2-2-2------5b-| 
|-2----3--3-|-10--10-|-7--3-|-2-2-2-2--2-2-2-2-2------x--| 
|-0----1--1-|--8---7-|-5--1-|-0-0-0-0--0-0-0-0-0---x--3b-| 
                              .................. 
 
|----------------------------| 
|----------------------------| 
|----------------------------| 
|-2-2-2-2--2-2-2-2-2------7b-| 
|-2-2-2-2--2-2-2-2-2------x--| 
|-0-0-0-0--0-0-0-0-0---x--5b-| 
  .................. 
 
|----------------------------| 
|----------------------------| 
|----------------------------| 
|-2-2-2-2--2-2-2-2-2------5b-| 
|-2-2-2-2--2-2-2-2-2------x--| 
|-0-0-0-0--0-0-0-0-0---x--3b-| 
  .................. 
 
|----------------------------| 
|----------------------------| 
|----------------------------| 
|-2-2-2-2--2-2-2-2-2------7b-| 
|-2-2-2-2--2-2-2-2-2------x--| 
|-0-0-0-0--0-0-0-0-0---x--5b-| 
  .................. 
 
|----------------------------| 
|----------------------------| 
|----------------------------| 
|-2-2-2-2--2-2-2-2-2------8b-| 
|-2-2-2-2--2-2-2-2-2------x--| 
|-0-0-0-0--0-0-0-0-0---x--6b-| 
  .................. 
 
Play this 4 times 
||-----------------------------|| 
||-----------------------------|| 
||-----------------------------|| 
||-2-2-2-2--2-2-2-2-2-----/13b-|| 
||-2-2-2-2--2-2-2-2-2------x---|| 
||-0-0-0-0--0-0-0-0-0---x-/11b-|| 
   .................. 
 
|--------------------| 
|--------------------| 
|--------------------| 
|-2-2-2-2--2-2-2-2-2-| 
|-2-2-2-2--2-2-2-2-2-| 
|-0-0-0-0--0-0-0-0-0-| 
  .................. 
 
Play this 3 times 
||----------------------------|| 
||----------------------------|| 
||----------------------------|| 
||-2-2-2-2--2-2-2-2-2------3b-|| 
||-2-2-2-2--2-2-2-2-2------x--|| 
||-0-0-0-0--0-0-0-0-0---x--1b-|| 
   .................. 
 
|-----------------------------| 
|-----------------------------| 
|-----------------------------| 
|-2-2-2-2--2-2-2-2-2-----/13b-| 
|-2-2-2-2--2-2-2-2-2------x---| 
|-0-0-0-0--0-0-0-0-0---x-/11b-| 
  .................. 
 
Verse: Play this a bunch 
|-----------------------------| 
|-----------------------------| 
|-----------------------------| 
|-2-2-2-2--2-2-2-2-2-----/13b-| 
|-2-2-2-2--2-2-2-2-2------x---| 
|-0-0-0-0--0-0-0-0-0---x-/11b-| 
  .................. 
 
 
*CHORUS* 
|--------------------|---------------------|--------------------|--------------------| 
|--------------------|---------------------|--------------------|--------------------| 
|--------------------|---------------------|--------------------|--------------------| 
|-----4-4b--4-2h4----|---------------------|------5-7b--7-5h7---|--------------------| 
|--------------------|---------------------|--------------------|--------------------| 
|-0----------------6~|-(6)---6/9--6--3p2-0-|-(0)--------------6~|-(6)--6/9--6--3p2-0-| 
 
|--------------------|---------------------|--------------------|--------------------| 
|--------------------|---------------------|--------------------|--------------------| 
|--------------------|---------------------|--------------------|--------------------| 
|-----4-4b--4-2h4----|---------------------|------5-7b--7-5-----|--------------------| 
|--------------------|---------------------|----------------7---|--------------------| 
|-0----------------6~|-(6)---6/9--6--3p2-0-|-(0)--------------6*|-(6)*---------------| 
 
Play 3 times 
||------------------------------|| 
||------------------------------|| 
||------------------------------|| 
||------------------------------|| 
||------------------------------|| 
||-11b~---0--11----11b~---0--11-|| 
 
|---------------------------| 
|---------------------------| 
|---------------------------| 
|----------------/7b---7--5-| 
|-----------------x----x--x-| 
|-/11b---0--11\--/5b---5--3-| 
 
Play 3 times 
||------------------------------|| 
||------------------------------|| 
||------------------------------|| 
||------------------------------|| 
||------------------------------|| 
||-11b~---0--11----11b~---0--11-|| 
 
|--------------------| 
|--------------------| 
|--------------------| 
|--------------------| 
|-----------9---3--3-| 
|-/11b---0--7---1--1-| 
 
*BRIDGE* 
Play 2 times 
||--------------------------------|--------------------------------|| 
||--------------------------------|--------------------------------|| 
||--------------------------------|--------------------------------|| 
||--------------------------------|--------------------------------|| 
||--------------------------------|--------------------------------|| 
||-0--3-3-3-3-3-3-3p0-3-3-3p0-3-3-|-0--3-3-3-3-3-3-3p0-3-3-3p0-3-3-|| 
   ............................................................... 
 
|-----------------------------|------------------------------| 
|-----------------------------|------------------------------| 
|-----------------------------|------------------------------| 
|-----------------------------|------------------------------| 
|-----------------------7---6-|------------------------------| 
|-0--0-0-0-0-0-0-2h3p2----0---|-0--0-0-0-0-0-0-5h6p5--3-0-3b-| 
  ................                 .............. 
 
 HATE MAIL        NOT READ... 
|---------------|---------------| 
|---------------|---------------| 
|---------------|---------------| 
|---------------|---------------| 
|---------2-3---|---------2-3---| 
|-11\---1-----1-|-11\---1-----1-| 
 
*OUTRO* 
|------------------------|-------------------------|-------------------------| 
|------------------------|-------------------------|-------------------------| 
|------------------------|-------------------------|-------------------------| 
|------------------------|-------------------------|-------------------------| 
|-2-2-2-2-2-2-2--8-8-7-5-|-2-2-2-2-2----8-8-8-7--5-|-2-2-2-2-2-2-2--8-8-7--5-| 
|-0-0-0-0-0-0-0--6-6-5-3-|-0-0-0-0-0-0--6-6-6-5--3-|-0-0-0-0-0-0-0--6-6-5--3-| 
 
|---------------------------|------| 
|---------------------------|------| 
|---------------------------|------| 
|---------------------------|-2----| 
|-2-2-2-2-2-2-2-2-3-3-3-3-3-|-2----| 
|-0-0-0-0-0-0-0-0-1-1-1-1-1-|-0----| 



8.STRENGTH BEYOND STRENGTH

Intro Riff:
|------------------------|
|------------------------|
|------------------------|
|------------------------|
|-7\-6--6--6\-5--5--5\-4-|
|-5\-4--4--4\-3--3--3\-4-|


|-----------------------------|
|-----------------------------|
|-2-----2----------2-----2----|
|-2-----2----------2-----2-5--|
|-0-----0----------0-----0-5--|
|---------1~~~-------------3--|



|---------------------------------------------------|
|---------------------------------------------------|
|-2-----2----------2-----2--------------------------|
|-2-----2----------2-----2--------------------------|
|-0-----0----------0-----0-7-7\-6--6--6\-5--5--5\-4-|
|---------1~~~-------------5-5\-4--4--4\-3--3--3\-4-|


|-----------------------------|
|-----------------------------|
|-2-----2----------2-----2----|
|-2-----2----------2-----2-5--|
|-0-----0----------0-----0-5--|
|---------1~~~-------------3--|

|----------------------------------------------------|
|----------------------------------------------------|
|-2-----2----------2-----2---------------------------|
|-2-----2----------2-----2---------------------------|
|-0-----0----------0-----0-7--8--8--7--8--8--7--8--8-|
|---------1~~~-------------5--6--6--5--6--6--5--6--6-|


|-------------|
|-------------|
|-------------|
|-------------|
|-4--4--4--3--|
|-2--2--2--1--|


|----------------------------------------------|
|----------------------------------------------|
|----------------------------------------------|
|----------------------------------------------|
|-----------------------------------6--6--6--3-|
|--1--1--1--1--1--1--1--1--1--1--1--4--4--4--1-|


                       |-Triplet-| |-Triplet-|
|---------------------------------------------|
|---------------------------------------------|
|---------------------------------------------|
|---------------------------------------------|
|-------------------------------4-------6---3-|
|--1--1--1--1--1--1--1--3---6-------4---------|


|-------------|
|-------------|
|-------------|
|-------------|
|-4--4--4--3--|
|-2--2--2--1--|


|----------------------------------------------|
|----------------------------------------------|
|----------------------------------------------|
|----------------------------------------------|
|-----------------------------------6--6--6--3-|
|--1--1--1--1--1--1--1--1--1--1--1--4--4--4--1-|


                        |Triplet|
|-----------------------------------|
|-----------------------------------|
|-----------------------------------|
|-----------------------------------|
|------------------------2--2--2--2-|
|--1--1--1--1--1--1--1---0--0--0--0-|


|------------------------|
|------------------------|
|------------------------|
|------------------------|
|-7\-6--6--6\-5--5--5\-4-|
|-5\-4--4--4\-3--3--3\-4-|



|---------------------------------|
|---------------------------------|
|---------------------------------|
|---------------------------------|
|---------------------------------|
|-0h1-1-0h1-1-0h1-2p1-1-1-2p1-1-1-|
(repeat several times)


|-----------------------------------------|
|-----------------------------------------|
|-----------------------------------------|
|-----------------------------------------|
|------------------7\-6--6--6\-5--5--5\-4-|
|-0h1-1-0h1-1-0h1--5\-4--4--4\-3--3--3\-4-|


|-------------|
|-------------|
|-------------|
|-------------|
|-4--4--4--3--|
|-2--2--2--1--|


|----------------------------------------------|
|----------------------------------------------|
|----------------------------------------------|
|----------------------------------------------|
|-----------------------------------6--6--6--3-|
|--1--1--1--1--1--1--1--1--1--1--1--4--4--4--1-|


                       |-Triplet-| |-Triplet-|
|---------------------------------------------|
|---------------------------------------------|
|---------------------------------------------|
|---------------------------------------------|
|-------------------------------4-------6---3-|
|--1--1--1--1--1--1--1--3---6-------4---------|


|-------------|
|-------------|
|-------------|
|-------------|
|-4--4--4--3--|
|-2--2--2--1--|


|----------------------------------------------|
|----------------------------------------------|
|----------------------------------------------|
|----------------------------------------------|
|-----------------------------------6--6--6--3-|
|--1--1--1--1--1--1--1--1--1--1--1--4--4--4--1-|


                        |Triplet|
|-----------------------------------|
|-----------------------------------|
|-----------------------------------|
|-----------------------------------|
|------------------------2--2--2--2-|
|--1--1--1--1--1--1--1---0--0--0--0-|



|-----------------|
|-----------------|
|-----------------|
|-----------------|
|--3--3--3----3-4-|
|--1--0--1----1-2-|
"weve grown into a monster!!"(repeat several times)


on the last repeat of this riff^, this fill is heard.
|-------------------------|
|-3--2--------------------|
|-------4--3----3~~--(3)\-|
|-------------------------|
|-------------------------|
|-------------------------|


Tighten your locking nut!! here comes some massive whammy torture
|----------------------------|
|--13~~~---------------------|
|-(AH)-----------------------|
|----------------------------|
|----------------------------|
|---------0------------------|
          ^dive bar this note


Here is the tab with whammy bar patterns:
| \           /   |
|  \         /    |
|   \      \/     |
|-1------3/4------|
|-3------3/4------|
|-3------1/2------|
(play many times)


|--------|
|--------|
|--------|
|-3\-----|
|-3\-----|
|-1\-----|
gradual dive

SOLO!!
Two guitars play this part!!

_   (with harmonizer effect)     (1/2)   
|   |----------------------------11b------------------|
|   |--13---------------12-h-13------13------------13-|
|   |-------------------------------------------------|
|   |-------------------------------------------------|
|   |-------------------------------------------------|
|   |-------------------------------------------------|
|  (with harmonizer effect)      (1/2)   
|   |-------------------------------------------------|
|   |-------------------------------------------------|
|   |----------------------------4b-------------------|
|   |--6----------------5----6---------------------6--|
|   |--------------------------------6----------------|
|   |-------------------------------------------------|
_


_                (1/2)
|   |----------18-17b----(17)~~~--20-19----------------|
|   |-12-13/20--------------------------20-19----------|
|   |-----------------------------------------17-16-17-|
|   |--------------------------------------------------|
|   |--------------------------------------------------|
|   |--------------------------------------------------|
|          
|   |--------------------------------------------------|
|   |----------4---------------------------------------|
|   |------/5-----5\------(5)----/11-10----------------|
|   |-5--6/----(tremelo dive)-----------11-10----------|
|   |-----------------------------------------10-9-10--|
|   |--------------------------------------------------|
_


_   
|   |-20-19----------------20-19-------------20-19-------------|
|   |-------19-18----------------19-18-------------19-18-------|
|   |-------------17-16-17-------------16-17-------------16-17-|
|   |----------------------------------------------------------|
|   |----------------------------------------------------------|
|   |----------------------------------------------------------|
|  
|   |----------------------------------------------------------|
|   |----------------------------------------------------------|
|   |/12-11----------------13-12-------------13-12-------------|
|   |-------12-11----------------13-12-------------13-12-------|
|   |-------------11-10-11-------------11-12-------------11-13-|
|   |----------------------------------------------------------|
_
           (1/2)     (1/2)
   |----------------------|
   |--------8b--6---------|
   |--7---------------11b-|
   |-----6---------9------|
   |----------------------|
   |----------------------|
  
   |----------------------11-13p12-13-16p13p12-16p15-16-19p16p15-|
   |----------12-13-12-13----------------------------------------|
   |-13-12-13----------------------------------------------------|
   |-------------------------------------------------------------|
   |-------------------------------------------------------------|
   |-------------------------------------------------------------|

|-----------------|
|-----------------|
|-----------------|
|-----------------|
|--3--3--3----3/4-|
|--1--0--1----1/2-|
(play several times)

9.HOLLOW

standard tuning, slightly flat

Intro

Gtr 1. (w/dist)                                                      2x
|--------------|--------------10b|10-10b-10---|----------|-----------|
|--------------|------8---12-----|----------12|----------|-----------|
|-------------9|~~-9-------------|------------|---------9|-9----9----|
|-7~~--7--10---|-----------------|------------|7---7-10--|-----------|
|--------------|-----------------|------------|----------|---10b--9b-|
|--------------|-----------------|------------|----------|-----------|
|                                                                    |
|Gtr. 2 (w/dist)                                                     |
|--------------|------7---10--10b|10-10b-10---|----------|-----------|
|-------------8|~~-8-------------|----------12|---------8|-8----8----|
|-5~~--5---9---|-----------------|------------|5---5--9--|-----------|
|--------------|-----------------|------------|----------|----9---8--|
|--------------|-----------------|------------|----------|-----------|
|--------------|-----------------|------------|----------|-----------|

Rhythm behind leads/ Verse (12 str. acous)
|------------------------------------------------|
|-------0-----------0----------0-----------0-----|
|-----5---5-------5---5------5---5-------5---5---|
|---2-------2---2-------2--2-------2---2-------2-|
|-0-----------3----------------------0-----------|
|-------------------------3----------------------|

End of Verse 
|-----------------------------------------------------------------------------------|
|------0----------0-----------0-----------0----------0-----------0-----------0------|
|----5---5------5---5-------5---5-------5---5------5---5-------5---5-------5---5----|
|--2-------2--2-------2-----------0-----------0----------0-----------0---2-------2--|
|-------------------------3-----------3-----------2----------2----------------------|
|0----------0-----------2-----------2-----------3----------3-----------0-----------0|

Solo 
Gtr 3. (w/dist)
|---------------------------------------------5------------------------------|
|-8br-8p5---5h8----8b-8-5---5---------------5---5h8p5-6----------------------|
|---------8---------------8---7h8p7h5-5h7h8-------------8-8p7p5-8p5p7-5h7h8--|
|----------------------------------------------------------------------------|
|----------------------------------------------------------------------------|
|----------------------------------------------------------------------------|

|-------------------------------------------------------------------------|
|-5---------------------------20-20-------------20-17-----------20b-20-20b|
|---8p7p5-----------------19b--------19b-19-19b-------19b-19-19b----------|
|---------7p5h7v----------------------------------------------------------|
|----------------5v-3-5---------------------------------------------------|
|-------------------------------------------------------------------------|

Bridge (acous)                                                         3x
|------------|------------|------------|------------|------------------|
|------------|------------|------------|------------|------------------|
|------0-----|------0-----|-------0----|-------0----|-----0---0-----0--|
|----4---4---|----4---4---|-----4---4--|-----4---4--|---0-------4-----3|
|--2-------2-|--2-------2-|---2-------2|---2-------2|------------------|
|0-----------|0-----------|-0----------|-0----------|3------2-----1----|

|---------------------------------------|
|---------------------------------------|
|---------0---0-----0-----0----0--------|
|-------4---------2-----2----2-----0----|
|-5-/-7-----5---4-----3----2------------|
|--------------------------------3---2-1|

Breakdown (w/ dist)
|--------------|----------------|
|--------------|----------------|
|--------------|---------3-3-3-3|
|---------0-1-2|----------------|
|-2-2-2-2-0-1-2|-2-2-2-2-1-1-1-1|
|-0-0-0-3------|-0-0-0-0--------|

2nd breakdown (there are a couple of variations on this riff)
|-----------------------------|-----------------------------|
|-----------------------------|-----------------------------|
|-----------------------------|-----------------------------|
|-----------------------------|-----------------------------|
|-----------------------------|-----------------------------|
|-0-/8b-6b--0-/8b-6b--0-6-0-6-|-0-/8b-6b--0-/8b-6b--6-6-7-8-|

Bridge

Gtr. 1 (acous)
|---------------------------------------|
|---------------------------------------|
|---------0---0-----0-----0----0--------|
|-------4---------2-----2----2-----0----|
|-5-/-7-----5---4-----3----2------------|
|--------------------------------3---1-0|
|
|Gtr. 2 (w/ dist)
|---------------------------------------|
|---------------------------------------|
|---------------------------------------|
|-----9-----7---6-----5----4------------|
|-----7-----5---4-----3----2-----------2|
|--------------------------------3---1-0|

At the end...
Gtr. 2 w/dist
n.h..................
|------------------12-------------------|
|---------7-----------------------------|
|---5-----------------------------------|
|---------------------------------------|
|---------------------------------------|
|---------------------------------------|

Outro
w/dist
|-----------------------------|-----------------------------|
|-----------------------------|-----------------------------|
|-----------------------------|-----------------------------|
|-----------------------------|-----------------------------|
|-----------------------------|-----------------------------|
|-0-/8b-6b--0-/8b-6b--0-6-0-6-|-0-/8b-6b--0-/8b-6b--6-6-7-8-|

10.THIS LOVE

Tune down one half step (Eb,Ab,Db,Gb,Bb,Eb)


102 bpm, intro
clean elec., let ring
                    4x                    2x
||-------------------|||-------------------||-----------------|-----|
||-------------------|||-------------------||-----------------|-----|
||o-----------------o|||o-----2-----2-----o||-----------------|-----|
||o-----2-----2-----o|||o---4-----4---4---o||-----2-----2-----|--%--|
||----4-----4---4----|||--2-----3-------3--||---4-----4---4---|-----|
||--2-----3-------3--|||-------------------||-2-----3-------3-|-----|
    e e e e e e e e       e e e e e e e e     e e e e e e e e

|-----------------|-----------------|------|---------------|------||
|-----------------|-----------------|------|---------------|------||
|-----0-----0-----|-----2-----0-----|------|-------2-------|-(2)--||
|---2-----2---2---|---2-----2---2---|---%--|-----2-2-------|-(2)--||
|-4-----3-------3-|-4-----3-------3-|------|---2---3-------|-(3)--||
|-----------------|-----------------|------|-4-----5-------|-(5)--||
  e e e e e e e e   e e e e e e e e          e e e e + h   +  w

  verse 1
|-----------------|-----|-----|-----|-----------------|-----|
|-----------------|-----|-----|-----|-----------------|-----|
|-----------------|-----|-----|-----|-----2-----2-----|-----|
|-----2-----2-----|--%--|--%--|--%--|---4-----4---4---|--%--|
|---4-----4---4---|-----|-----|-----|-2-----3-------3-|-----|
|-2-----3-------3-|-----|-----|-----|-----------------|-----|
  e e e e e e e e                     e e e e e e e e

|-----------------|-----|-----------------|-----------------|-----|
|-----------------|-----|-----------------|-----------------|-----|
|-----------------|-----|-----0-----0-----|-----2-----0-----|-----|
|-----2-----2-----|--%--|---2-----2---2---|---2-----2---2---|--%--|
|---4-----4---4---|-----|-4-----3-------3-|-4-----3-------3-|-----|
|-2-----3-------3-|-----|-----------------|-----------------|-----|
  e e e e e e e e         e e e e e e e e   e e e e e e e e

|-----------------|-----------------|-----------------|-----|
|-----------------|-----------------|-----------------|-----|
|-----------------|-----0-----0-----|-----2-----0-----|-----|
|-----2-----2-----|---2-----2---2---|---2-----2---2---|--%--|
|---2-----3---3---|-4-----3-------3-|-4-----3-------3-|-----|
|-4-----5-------5-|-----------------|-----------------|-----|
  e e e e e e e e   e e e e e e e e   e e e e e e e e

                        pre-chorus  w/fill 1
               2/4     4/4                4x
|--------------|-------||-------------------||
|--------------|-------||-------------------||
|-------2------|-(2)---||o-----------------o||
|-----2-2------|-(2)---||o-----2-----2-----o||
|---2---3------|-(3)---||----4-----4---4----||
|-4-----5------|-(5)---||--2-----3-------3--||
  e e e e + h  +  h


 chorus
 w/dist
|------------------------|---------------------|------------------------|
|------------------------|---------------------|------------------------|
|------------------------|---------------------|------------------------|
|------------------------|---------------------|------------------------|
|---4------4---4-----4-4-|---4------4-6--5---1-|---4------4---4-----4-4-|
|-0-2------2-0-2-----2-2-|-0-2------2-8--7---3-|-0-2------2-0-2-----2-2-|
  s s E E. s s s E E s s   s s E E. s e. s+e e   s s E E. s s s E E s s

|---------------------|-----------------|------------------|
|---------------------|-----------------|------------------|
|---------------------|-----------------|------------------|
|---------------------|-----------------|------------------|
|---4------4-6--5---1-|---4-------4-----|---4-----6--5---1-|
|-0-2------2-8--7---3-|-0-2-----0-2-----|-0-2-----8--7---3-|
  s s E E. s e. s+e e   s s E Q s s E Q   s s E Q e. s+e e

                                                                 fdbk.
|-----------------|------------------||-----------------|-----|-----|-----||
|-----------------|------------------||-----------------|-----|-----|-----||
|-----------------|------------------||-----------------|-----|-----|-----||
|-----------------|------------------||-----------------|-----|-----|-----||
|---4-------4-----|---4-----6--5---1-||-4---------------|-(4)-|-(4)-|-(4)-||
|-0-2-----0-2-----|-0-2-----8--7---3-||-2---------------|-(2)-|-(2)-|-(2)-||
  s s E Q s s E Q   s s E Q e. s+e e || w               +  w  +  w  +  w  ||
                                     ||                 |     |     |     ||
                                     ||clean elec.      |     |     |     ||
                                     ||-----------------|-----|-----|-----||
                                     ||-----------------|-----|-----|-----||
                                     ||-----------------|-----|-----|-----||
                                     ||-----2-----2-----|--%--|--%--|--%--||
                                     ||---4-----4---4---|-----|-----|-----||
                                     ||-2-----3-------3-|-----|-----|-----||
                                        e e e e e e e e

  verse 2
|-----------------|-----|-----|-----|-----------------|-----|
|-----------------|-----|-----|-----|-----------------|-----|
|-----------------|-----|-----|-----|-----2-----2-----|-----|
|-----2-----2-----|--%--|--%--|--%--|---4-----4---4---|--%--|
|---4-----4---4---|-----|-----|-----|-2-----3-------3-|-----|
|-2-----3-------3-|-----|-----|-----|-----------------|-----|
  e e e e e e e e                     e e e e e e e e

|-----------------|-----|-----------------|-----------------|-----|
|-----------------|-----|-----------------|-----------------|-----|
|-----------------|-----|-----0-----0-----|-----2-----0-----|-----|
|-----2-----2-----|--%--|---2-----2---2---|---2-----2---2---|--%--|
|---4-----4---4---|-----|-4-----3-------3-|-4-----3-------3-|-----|
|-2-----3-------3-|-----|-----------------|-----------------|-----|
  e e e e e e e e         e e e e e e e e   e e e e e e e e

|-----------------|-----------------|-----------------|-----|
|-----------------|-----------------|-----------------|-----|
|-----------------|-----0-----0-----|-----2-----0-----|-----|
|-----2-----2-----|---2-----2---2---|---2-----2---2---|--%--|
|---2-----3---3---|-4-----3-------3-|-4-----3-------3-|-----|
|-4-----5-------5-|-----------------|-----------------|-----|
  e e e e e e e e   e e e e e e e e   e e e e e e e e

                        pre-chorus   w/fill 2
               2/4     4/4                4x
|--------------|-------||-------------------||
|--------------|-------||-------------------||
|-------2------|-(2)---||o-----------------o||
|-----2-2------|-(2)---||o-----2-----2-----o||
|---2---3------|-(3)---||----4-----4---4----||
|-4-----5------|-(5)---||--2-----3-------3--||
  e e e e + h  +  h


 chorus
 w/dist
|------------------------|---------------------|------------------------|
|------------------------|---------------------|------------------------|
|------------------------|---------------------|------------------------|
|------------------------|---------------------|------------------------|
|---4------4---4-----4-4-|---4------4-6--5---1-|---4------4---4-----4-4-|
|-0-2------2-0-2-----2-2-|-0-2------2-8--7---3-|-0-2------2-0-2-----2-2-|
  s s E E. s s s E E s s   s s E E. s e. s+e e   s s E E. s s s E E s s

|---------------------|-----------------|------------------|
|---------------------|-----------------|------------------|
|---------------------|-----------------|------------------|
|---------------------|-----------------|------------------|
|---4------4-6--5---1-|---4-------4-----|---4-----6--5---1-|
|-0-2------2-8--7---3-|-0-2-----0-2-----|-0-2-----8--7---3-|
  s s E E. s e. s+e e   s s E Q s s E Q   s s E Q e. s+e e

|-----------------|------------------||
|-----------------|------------------||
|-----------------|------------------||
|-----------------|------------------||
|---4-------4-----|---4-----6--5---1-||
|-0-2-----0-2-----|-0-2-----8--7---3-||
  s s E Q s s E Q   s s E Q e. s+e e

||----------------------------------|---------------------------|
||----------------------------------|---------------------------|
||o---------------------------------|---------------------------|
||o-------------4-------------------|-------------4-------------|
||--------4-------4-----------------|-------4-------4---------5-|
||--0-2-2---2-2-----5-2-3-4-5-2-4-5-|-0-2-2---2-2-----5-2-3-4-3-|
    s s s s s s s s s s s s s s s s   s s s s s s s s s s s s q

                                                                2x
|---------------------------------|------------------------------||
|---------------------------------|------------------------------||
|---------------------------------|-----------------------------o||
|-------------4-------------------|-------------4---------------o||
|-------4-------4-----------------|-------4-------4-3-4-5-6-7-8--||
|-0-2-2---2-2-----5-2-3-4-5-2-4-5-|-0-2-2---2-2-----1-2-3-4-5-6--||
  s s s s s s s s s s s s s s s s   s s s s s s s s e e e e e e
                                                    { 3 } { 3 }

 6/4        3/4       4/4
|----------|---------||
|----------|---------||
|----------|---------||
|----------|---------||
|-9--------|-(9)-\---||
|-7--------|-(7)-\---||
  w.       +  h.

 slower 64 bpm                      |1.,2.,3.                    |
||----------------------------------|----------------------------||
||----------------------------------|----------------------------||
||o---------------------------------|---------------------------o||
||o---------------------------------|---------------------------o||
||--3-5---3-5---3-5---3-5---3-6---3-|-5---3-5---3-5---3-6---3-3--||
||--1-3---1-3---1-3---1-3---1-4---1-|-3---1-3---1-3---1-4---1-1--||
    s s S s s S s s S s s S s s S s   s S s s S s s S s s S s q

|4.                         3/4  dive w/bar
|---------------------------|---------||
|---------------------------|---------||
|---------------------------|---------||
|---------------------------|---------||
|-5---3-5---3-5---3-6---3-3-|-(3)--\--||
|-3---1-3---1-3---1-4---1-1-|-(1)--\--||
  s S s s S s s S s s S s q +  q + h

 tempo I 102 bpm
 clean elec.                       w/Guitar solo
|-----------------|-----|-----|-----||-----|-----|-----|-----|
|-----------------|-----|-----|-----||-----|-----|-----|-----|
|-----------------|-----|-----|-----||-----|-----|-----|-----|
|-----2-----2-----|--%--|--%--|--%--||--%--|--%--|--%--|--%--|
|---4-----4---4---|-----|-----|-----||-----|-----|-----|-----|
|-2-----3-------3-|-----|-----|-----||-----|-----|-----|-----|
 e e e e e e e e

|-----------------|-----|-----------------|-----|
|-----------------|-----|-----------------|-----|
|-----2-----2-----|-----|-----------------|-----|
|---4-----4---4---|--%--|-----2-----2-----|--%--|
|-2-----3-------3-|-----|---4-----4---4---|-----|
|-----------------|-----|-2-----3-------3-|-----|
  e e e e e e e e         e e e e e e e e

|-----------------|-----------------|-----------------|-----------------|
|-----------------|-----------------|-----------------|-----------------|
|-----2-----2-----|-----2-----0-----|-----2-----2-----|-----2-----0-----|
|---3-----3---3---|---3-----3---3---|---3-----3---3---|---3-----3---3---|
|-5-----4-------4-|-3-----2-------2-|-5-----4-------4-|-3-----2-------2-|
|-----------------|-----------------|-----------------|-----------------|
  e e e e e e e e   e e e e e e e e   e e e e e e e e   e e e e e e e e

|-----------------|-----|-----|-----||
|-----------------|-----|-----|-----||
|-----------------|-----|-----|-----||
|-----2-----2-----|--%--|--%--|--%--||
|---4-----4---4---|-----|-----|-----||
|-2-----3-------3-|-----|-----|-----||
  e e e e e e e e

 chorus
 w/dist
|------------------------|---------------------|------------------------|
|------------------------|---------------------|------------------------|
|------------------------|---------------------|------------------------|
|------------------------|---------------------|------------------------|
|---4------4---4-----4-4-|---4------4-6--5---1-|---4------4---4-----4-4-|
|-0-2------2-0-2-----2-2-|-0-2------2-8--7---3-|-0-2------2-0-2-----2-2-|
  s s E E. s s s E E s s   s s E E. s e. s+e e   s s E E. s s s E E s s

|---------------------|-----------------|------------------|
|---------------------|-----------------|------------------|
|---------------------|-----------------|------------------|
|---------------------|-----------------|------------------|
|---4------4-6--5---1-|---4-------4-----|---4-----6--5---1-|
|-0-2------2-8--7---3-|-0-2-----0-2-----|-0-2-----8--7---3-|
  s s E E. s e. s+e e   s s E Q s s E Q   s s E Q e. s+e e

|-----------------|------------------||
|-----------------|------------------||
|-----------------|------------------||
|-----------------|------------------||
|---4-------4-----|---4-----6--5---1-||
|-0-2-----0-2-----|-0-2-----8--7---3-||
  s s E Q s s E Q   s s E Q e. s+e e

                                                                4x
||----------------------------------|----------------------------||
||----------------------------------|----------------------------||
||o---------------------------------|---------------------------o||
||o---------------------------------|---------------------------o||
||--3-5---3-5---3-5---3-5---3-6---3-|-5---3-5---3-5---3-6---3-3--||
||--1-3---1-3---1-3---1-3---1-4---1-|-3---1-3---1-3---1-4---1-1--||
    s s S s s S s s S s s S s s S s   s S s s S s s S s s S s q

|-----------|-------------||
|-----------|-------------||
|-----------|-------------||
|-----------|-------------||
|-2--2----3-|-(3)--3---\--||
|-2--0----1-|-(1)--3---\--||
  q. e+q. e +  q.  e+h

  slower 52 bpm                                                 2x
||----------------------------------|----------------------------||
||----------------------------------|----------------------------||
||o---------------------------------|---------------------------o||
||o---------------------------------|---------------------------o||
||--3-5---3-5---3-5---3-5---3-6---3-|-5---3-5---3-5---3-6---3-3--||
||--1-3---1-3---1-3---1-3---1-4---1-|-3---1-3---1-3---1-4---1-1--||
    s s S s s S s s S s s S s s S s   s S s s S s s S s s S s q

   cross fade                                          repeat and fade
||----------------------------------|----------------------------||
||----------------------------------|----------------------------||
||o---------------------------------|---------------------------o||
||o---------------------------------|---------------------------o||
||--3-5---3-5---3-5---3-5---3-6---3-|-5---3-5---3-5---3-6---3-3--||
||--1-3---1-3---1-3---1-3---1-4---1-|-3---1-3---1-3---1-4---1-1--||
    s s S s s S s s S s s S s s S s   s S s s S s s S s s S s q

                          full
                        |-----|------|------|------|
                        |-----|------|------|------|
                        |-9b~-|-(9)~-|-(9)~-|-(9)~-|
                        |-----|------|------|------|
                        |-----|------|------|------|
                        |-----|------|------|------|
 fade in 102 bpm        |  w  +  w   +  w   +  w   +
                        |     |      |
|-----------------|-----|-----|------|
|-----------------|-----|-----|------|
|-----------------|-----|-----|------|
|-----2-----2-----|--%--|--%--|--%---|  repeat till end
|---4-----4---4---|-----|-----|------|
|-2-----3-------3-|-----|-----|------|
  e e e e e e e e

       full,hold--|                                 1/4         1/2
|-------------------|-----------------|-------|--------------------|
|-------------------|-----------------|-------|--------------------|
|-(9)~-11b---11-11r-|--p9----11p9-11~-|-(11)~-|-14-b-----r--b-14br-|
|-------------------|-----11----------|-------|--------------------|
|-------------------|-----------------|-------|--------------------|
|-------------------|-----------------|-------|--------------------|
+ q   h  + e s  s   + s+s e  s +s e+h + w       q + q + e + e s +s +

  1/2  1/2                           w/wah     1/2       full 1/2 full
|-----------|-------------|----------------------------|-------------------|
|-----------|-------------|----------------------14-15-|-17b-r-17b-~-----r-|
|-b-r-b-r-~-|------14---~-|-~-\-/13-13-14-15-15b-------|-------------------|
|-----------|---x---------|----------------------------|-------------------|
|-----------|-x-----------|----------------------------|-------------------|
|-----------|-------------|----------------------------|-------------------|
+ q. + e+h         q + h. + q+e  e  e  e  e  e  e  e     q + e e + q.. + s
                                    {  3  }  {  3  }

  full 1/2 full 1/2 full    full  full        full full full full full
|-----------------------|--------------------|-------------|-14--14-~-|
|-17b-17b-17b-17b-17b~--|-17b---17b~---------|-14--16--17--|-17b-17b~-|
|-----------------------|--------------------|-16b-18b-19b-|----------|
|-----------------------|--------------------|-------------|----------|
|-----------------------|--------------------|-------------|----------|
|-----------------------|-----------------x\-|-------------|----------|
  e.  s   e   e   e + h   q + e e + q + e e    q.  e+q q     q.  e+h
          {   3   }

     1/4    1/4      1/4    1/4         full          full                full
|---17b---17-17b-17-17b-17-17b-17p14-|---------|----------17-21-20-19-17-19brp17-|
|------------------------------------|-17br-~--|-~---19b-------------------------|
|------------------------------------|---------|---------------------------------|
|------------------------------------|---------|---------------------------------|
|------------------------------------|---------|---------------------------------|
|------------------------------------|---------|---------------------------------|
  S s+e+e+e+ e   e  e   e  s  e + s    w         s S s+e. e  e  e  s  s  s s  s
        { 3  }   {  3   }

                                          hold bend       hold bend
   full            1.5       1.5    full   1.5         1.5
|--------|--------21b-|----21br----21b---|-b---21-r---21b-21-|
|-19b--~-|-~----------|------------------|-------------------|
|--------|------------|------------------|-------------------|
|--------|------------|------------------|-------------------|
|--------|------------|------------------|-------------------|
|--------|---x\-0-----|------------------|-------------------|
  h. + q + h q  e e   + q. e+e+s S q     + e. s+e+s S e+q e  +

                             N.H.               vib.
          hold bends          depress bar -5    w/bar
         1.5 1.75  1.5       and release slowly
|---r---21b-21b-21--r----r-|--------------|-------|-----|-----|-----||
|--------------------------|-3------------|-------|-----|-----|-----||
|--------------------------|--------------|-------|-----|-----|-----||
|--------------------------|--------------|-------|-----|-----|-----||
|--------------------------|--------------|-------|-----|-----|-----||
|--------------------------|--------------|-------|-----|-----|-----||
+ e+s S q   e   e + e. + s   w            + h + h +  w  +  w  +  w

11.I'M BROKEN

INTRO       PLAY 4x     PLAY 4x               (1rst,3rd)      (2nd)       (4th)
|---------------------|--------------------|------------|-------------|-------------
|---------------------|--------------------|------------|-------------|-------------
|o-------------------o|o-------------------|-----------o|---------7~--|-------------
|o-0h2-0h2-0---------o|o-0h2-0h2-0---------|-----7-5~--o|-----7/9-----|-2-2--2-2--2-
|------------2p0------|-----------2p0------|-7-5--------|-7-5---------|-2-2--2-2--2-
|----------------3-0--|---------------3-0--|------------|-------------|-0-0--0-0--0-


Verse Riff play a bunch of times      Fill
|--------------------------------|------------|----------------------|
|--------------------------------|------------|----------------------|
|o------------------------------o|------------|o--------------------o|
|o------------------------------o|---------5--|o--------------------o|
|--------------------------------|------------|-5b-5b-----5b-5b------|
|-5b-5b-0-0-5b-5b-0-0-5b-5b-0-0--|-4-5-6-7----|-------0-0-------0-0--|


Part after verse
|-----------------------|
|-----------------------|
|-----------------------|
|-----------------------|
|-----------------------|
|-5-6-5-3-0--2-3-2-1-0--|

Then play the intro/chorus


This is the riff you fade out on
|--------------------------------|
|--------------------------------|
|--------------------------------|
|--------------------------5-----|
|-2-2--2-2--2-2--------------7\--|
|-0-0--0-0--0-0--7-6-5-6-7-------|

12.COWBOYS FROM HELL

|-------------------------------|-------------------------------|
|-------------------------------|-------------------------------|
|-------------------------------|-------------------------------|  play a whole
|-------------------------------|-------------------------------|  load o' times
|-------------------------------|-------------------------------|
|-0-0-0-0-0-0-0-0-0-0-0-0-0-0-0-|0-0-0-0-0-0-0-0-0-0-0-0-0-0-0-0| 

|-------------------------------|-------------------------------|
|-------------------------------|-------------------------------|
|-----------------------------8-|-----------------------------8-|
|---5---5-7-5-7-5-8-5-7-5-7-9---|---5---5-7-5-7-5-8-5-7-5-7-9---|
|-7---7-------------------------|-7---7-------------------------|
|-------------------------------|-------------------------------|
pm...............................................................
|-------------------------------|-------------------------------|
|-------------------------------|-------------------------------|
|-----------------------------8-|-------------------------------|
|---5---5-7-5-7-5-8-5-7-5-7-9---|---5---5-7-5-7-5-8-7-5---------|
|-7---7-------------------------|-7---7-----------------7////---|
|-------------------------------|-------------------------------|
.................................................
|-------------------------------|-------------------------------|
|-------------------------------|-------------------------------|
|-------------------------------|-------------------------------|
|-------------------------------|-------------------------------|
|-----------------------------5-|-----------------------------5-|
|-0-3-0-3-5-3-5-3-6-3-5-3-5-7---|-0-3-0-3-5-3-5-3-6-3-5-3-5-7---|
.................                 ...............
|-------------------------------|-------------------------------|
|-------------------------------|-------------------------------|
|-------------------------------|-------------------------------|
|-------------------------------|-------------------------------|
|-----------------------------5-|-------------------------------|
|-0-3-0-3-5-3-5-3-6-3-5-3-5-7---|-0-3-0-3-5-3-5-3-6-5-3-0-------|
.................                 ...............
|-------------------------------|-------------------------------|
|-------------------------------|-------------------------------|
|-------------------------------|-------------------------------|
|-------------------------------|-------------------------------|
|-----------------------------5-|-----------------------------5-|
|-0-3-0-3-5-3-5-3-6-3-5-3-5-7---|-0-3-0-3-5-3-5-3-6-3-5-3-5-7---|
.................                 ...............
|-------------------------------|-------------------------------|
|-------------------------------|-------------------------------|
|-------------------------------|-------------------------------|
|-------------------------------|-------------------------------|
|-----------------------------5-|-------------------------------|
|-0-3-0-3-5-3-5-3-6-3-5-3-5-7---|-0-3-0-3-5-3-5-3-6-5-3-0-------|
  ...............                 ...............



|-----------------------|-----------------------|
|-----------------------|-----------------------|
|-----------------------|-----------------------|
|---------------------0-|---------------------0-|
|---------------0h1h2---|---------------0h1h2---|
|-0-0-0-0-0-0-0---------|-0-0-0-0-0-0-0---------|

|-----------------------|------------------------|
|-----------------------|------------------------|
|-----------------------|------------------------|
|---------------------0-|----------------0-----0-|
|---------------0h1h2---|-----------0h1h2-0h1h2--|
|-0-0-0-0-0-0-0---------|-0-0-0-0-0--------------|

|-----------------------|----------------------------|
|-----------------------|----------------------------|
|-----------------------|----------------------------|
|---------------------0-|----------------------------|
|---------------0h1h2---|-----------0h1p0---0h1p0----|
|-0-0-0-0-0-0-0---------|-0-0-0-0-0------3-3-----3-1-|

|-----------------------|----------------------------|
|-----------------------|----------------------------|
|-----------------------|----------------------------|
|---------------------0-|----------------------------|
|---------------0h1h2---|-----------0h1p0---0h1p0----|
|-0-0-0-0-0-0-0---------|-0-0-0-0-0------3-3-----3-3-|
...............           .........
|-----------------------|--------------------------|
|-----------------------|--------------------------|
|-----------------------|--------------------------|
|-----------------------|-----------------0--------|
|-----------------------|-----------0h1h2----------|
|-0-0-0-0-0-0-0-0-0-0-0-|-0-0-0-0-0----------------|
  ................................. 
|-----------------------|----------------------------|
|-----------------------|----------------------------|
|-----------------------|----------------------------|
|-----------------------|----------------------------|
|-----------------------|--------0h1p0-----0h1p0-----|
|-0-0-0-0-0-0-0-0-0-0-0-|-0-0-0--------3-3-------3-1-|
............................... 
|-----------------------|--------------------------|
|-----------------------|--------------------------|
|-----------------------|--------------------------|
|-----------------------|-----------------0--------|
|-----------------------|-----------0h1h2----------|
|-0-0-0-0-0-0-0-0-0-0-0-|-0-0-0-0-0----------------|
...................................
|-----------------------|----------------------------|
|-----------------------|----------------------------|
|-----------------------|----------------------------|
|-----------------------|----------------------------|
|-----------------------|--------0h1p0-----0h1p0-----|
|-0-0-0-0-0-0-0-0-0-0-0-|-0-0-0--------3-3-------3-1-|
...............................

|-----------------|--------------------|
|-----------------|--------------------|
|-----------------|--------------------|
|-555555555556--6-|-5555555555510-8--6-|
|-555555555556--6-|-5555555555510-8--6-|
|-333333333334--4-|-333333333338--6--4-|
.............       ...........
|-----------------------|--------------------------|
|-----------------------|--------------------------|
|-----------------------|--------------------------|
|-----------------------|--------------------------|
|-----------------------|--------------------------|
|-0-0-0-0-0-0-0-0-0-0-0-|-0-0-0-0-0-6-5-3-0--------|
................................... 
|-------------------------------|-------------------------------|
|-------------------------------|-------------------------------|
|-------------------------------|-------------------------------|
|-------------------------------|-------------------------------|
|-----------------------------5-|-----------------------------5-|
|-0-3-0-3-5-3-5-3-6-3-5-3-5-7---|-0-3-0-3-5-3-5-3-6-3-5-3-5-7---|
.................                 ...............
|-------------------------------|-------------------------------|
|-------------------------------|-------------------------------|
|-------------------------------|-------------------------------|
|-------------------------------|-------------------------------|
|-----------------------------5-|-------------------------------|
|-0-3-0-3-5-3-5-3-6-3-5-3-5-7---|-0-3-0-3-5-3-5-3-6-5-3-0-------|
.................                 ...............
|-------------------------------|-------------------------------|
|-------------------------------|-------------------------------|
|-------------------------------|-------------------------------|
|-------------------------------|-------------------------------|
|-----------------------------5-|-----------------------------5-|
|-0-3-0-3-5-3-5-3-6-3-5-3-5-7---|-0-3-0-3-5-3-5-3-6-3-5-3-5-7---|
.................                 ...............
|-------------------------------|-------------------------------|
|-------------------------------|-------------------------------|
|-------------------------------|-------------------------------|
|-------------------------------|-------------------------------|
|-----------------------------5-|-------------------------------|
|-0-3-0-3-5-3-5-3-6-3-5-3-5-7---|-0-3-0-3-5-3-5-3-6-5-3-0-------|
.................                 ...............
|-----------------------|------------------------|
|-----------------------|------------------------|
|-----------------------|------------------------|
|---------------------0-|----------------0-----0-|
|---------------0h1h2---|-----------0h1h2-0h1h2--|
|-0-0-0-0-0-0-0---------|-0-0-0-0-0--------------|
...............           .........
|-----------------------|----------------------------|
|-----------------------|----------------------------|
|-----------------------|----------------------------|
|---------------------0-|----------------------------|
|---------------0h1h2---|-----------0h1p0---0h1p0----|
|-0-0-0-0-0-0-0---------|-0-0-0-0-0------3-3-----3-1-|


|-----------------------|----------------------------|
|-----------------------|----------------------------|
|-----------------------|----------------------------|
|---------------------0-|----------------------------|
|---------------0h1h2---|-----------0h1p0---0h1p0----|
|-0-0-0-0-0-0-0---------|-0-0-0-0-0------3-3-----3-3-|
...............           .........
|-----------------------|--------------------------|
|-----------------------|--------------------------|
|-----------------------|--------------------------|
|-----------------------|-----------------0--------|
|-----------------------|-----------0h1h2----------|
|-0-0-0-0-0-0-0-0-0-0-0-|-0-0-0-0-0----------------|
...................................
|-----------------------|----------------------------|
|-----------------------|----------------------------|
|-----------------------|----------------------------|
|-----------------------|----------------------------|
|-----------------------|--------0h1p0-----0h1p0-----|
|-0-0-0-0-0-0-0-0-0-0-0-|-0-0-0--------3-3-------3-1-|
...............................
|-----------------------|--------------------------|
|-----------------------|--------------------------|
|-----------------------|--------------------------|
|-----------------------|-----------------0--------|
|-----------------------|-----------0h1h2----------|
|-0-0-0-0-0-0-0-0-0-0-0-|-0-0-0-0-0----------------|
...................................
|-----------------------|----------------------------|
|-----------------------|----------------------------|
|-----------------------|----------------------------|
|-----------------------|----------------------------|
|-----------------------|--------0h1p0-----0h1p0-----|
|-0-0-0-0-0-0-0-0-0-0-0-|-0-0-0--------3-3-------3-1-|
...............................
|-----------------|--------------------|
|-----------------|--------------------|
|-----------------|--------------------|
|-555555555556--6-|-5555555555510-8--6-|
|-555555555556--6-|-5555555555510-6--4-|
|-333333333334--4-|-333333333338--6--4-|
.............       ...........
|-------------------------------|-------------------------------|
|-------------------------------|-------------------------------|
|-------------------------------|-------------------------------|
|-------------------------------|-------------------------------|
|-----------------------------5-|-----------------------------5-|
|-0-3-0-3-5-3-5-3-6-3-5-3-5-7---|-0-3-0-3-5-3-5-3-6-3-5-3-5-7---|
.................                 ............... 
|-------------------------------|-------------------------------|
|-------------------------------|-------------------------------|
|-------------------------------|-------------------------------|
|-------------------------------|-------------------------------|
|-----------------------------5-|-------------------------------|
|-0-3-0-3-5-3-5-3-6-3-5-3-5-7---|-0-3-0-3-5-3-5-3-6-5-3-0-------|
.................                 ...............

|-------------------------------|-------------------------------|
|-------------------------------|-------------------------------|
|-------------------------------|-------------------------------|
|-------------------------------|-------------------------------|
|-----------------------------5-|-----------------------------5-|
|-0-3-0-3-5-3-5-3-6-3-5-3-5-7---|-0-3-0-3-5-3-5-3-6-3-5-3-5-7---|
.................                 ...............
|-------------------------------|-------------------------------|
|-------------------------------|-------------------------------|
|-------------------------------|-------------------------------|
|-------------------------------|-----------------5---4---3-----|
|-----------------------------5-|-----------------5---4---3-----|
|-0-3-0-3-5-3-5-3-6-3-5-3-5-7---|-0-3-0-3-5-3-5-3-3---2---1-----|
.................                 ...............
Behind the Solo
|------------|------------|------------|-----------------|
|------------|------------|------------|-----------------|
|-----4------|-----5------|-----6------|-----7-----------|
|-----4------|-----5------|-----6------|-----7-5---4---3-|
|-----2------|-----3------|-----4------|-----5-5---4---3-|
|-0-0--------|-0-0--------|-0-0--------|-0-0---3---2---1-|
play this 4 times behind the solo. 
.....          ...          ...          ...
(Solo tabbed at the end)

|---------------------|-----------------------|-----------------------|
|-2p0----2p0---2p0/5*-|----2p0---2p0---2p0/5*-|----2p0---2p0---2p0/5*-|
|---------------------|-----------------------|-----------------------|
|---------------------|-----------------------|-----------------------|
|---------------------|-----------------------|-----------------------|
|-----0-0---0-0-------|-0-0---0-0---0-0-------|-------0-0---0-0-------|
      ...   ...         ...   ...   ...               ...   ...
|-------------------------------------|
|-------------------------------------|
|-------14p12--12p11--11p9--9p7--7p6--|
|-12-12------14-----12----11----9---7-|
|-------------------------------------|
|-------------------------------------|

|---------------------|-----------------------|-----------------------|
|-2p0----2p0---2p0/5*-|----2p0---2p0---2p0/5*-|----2p0---2p0---2p0/5*-|
|---------------------|-----------------------|-----------------------|
|---------------------|-----------------------|-----------------------|
|---------------------|-----------------------|-----------------------|
|-----0-0---0-0-------|-0-0---0-0---0-0-------|-------0-0---0-0-------|
      ...   ...         ...   ...   ...               ...   ...
|-17p15--15p14--14p12--12p10--10p9---|
|------17-----15-----14-----12----10-|
|------------------------------------|
|------------------------------------|
|------------------------------------|
|------------------------------------|


|-------------------------------|-------------------------------|
|-------------------------------|-------------------------------|
|-----------------------------8-|-----------------------------8-|
|---5---5-7-5-7-5-8-5-7-5-7-9---|---5---5-7-5-7-5-8-5-7-5-7-9---|
|-7---7-------------------------|-7---7-------------------------|
|-------------------------------|-------------------------------|
................................................................
|-------------------------------|-------------------------------|
|-------------------------------|-------------------------------|
|-----------------------------8-|-------------------------------|
|---5---5-7-5-7-5-8-5-7-5-7-9---|---5---5-7-5-7-5-8-7-5---------|
|-7---7-------------------------|-7---7-----------------7////---|
|-------------------------------|-------------------------------|
................................................................
|-------------------------------|-------------------------------|
|-------------------------------|-------------------------------|
|-------------------------------|-------------------------------|
|-------------------------------|-------------------------------|
|-----------------------------5-|-----------------------------5-|
|-0-3-0-3-5-3-5-3-6-3-5-3-5-7---|-0-3-0-3-5-3-5-3-6-3-5-3-5-7---|
..................                ...............
|-------------------------------|-------------------------------|
|-------------------------------|-------------------------------|
|-------------------------------|-------------------------------|
|-------------------------------|-------------------------------|
|-----------------------------5-|-------------------------------|
|-0-3-0-3-5-3-5-3-6-3-5-3-5-7---|-0-3-0-3-5-3-5-3-6-5-3-0-------|
.................                 ...............
|-------------------------------|-------------------------------|
|-------------------------------|-------------------------------|
|-------------------------------|-------------------------------|
|-------------------------------|-------------------------------|
|-----------------------------5-|-----------------------------5-|
|-0-3-0-3-5-3-5-3-6-3-5-3-5-7---|-0-3-0-3-5-3-5-3-6-3-5-3-5-7---|
.................                 ...............
|-------------------------------|-------------------------------|
|-------------------------------|-------------------------------|
|-------------------------------|-------------------------------|
|-------------------------------|-------------------------------|
|-----------------------------5-|-------------------------------|
|-0-3-0-3-5-3-5-3-6-3-5-3-5-7---|-0-3-0-3-5-3-5-3-6-5-3-0-------|
.................                 ...............
|---------------------|-----------------------|-----------------------|
|-2p0----2p0---2p0/5*-|----2p0---2p0---2p0/5*-|----2p0---2p0---2p0/5*-|
|---------------------|-----------------------|-----------------------|
|---------------------|-----------------------|-----------------------|
|---------------------|-----------------------|-----------------------|
|-----0-0---0-0-------|-0-0---0-0---0-0-------|-------0-0---0-0-------|
      ...   ...         ...   ...   ...               ...   ...
|-------------------------------|
|-------------------------------|
|-14p12--12p11--11p9--9p7--7p6--|
|------14-----12----11----9---7-|
|-------------------------------|
|-------------------------------|


|---------------------|-----------------------|-----------------------|
|-2p0----2p0---2p0/5*-|----2p0---2p0---2p0/5*-|----2p0---2p0---2p0/5*-|
|---------------------|-----------------------|-----------------------|
|---------------------|-----------------------|-----------------------|
|---------------------|-----------------------|-----------------------|
|-----0-0---0-0-------|-0-0---0-0---0-0-------|-------0-0---0-0-------|
      ...   ...         ...   ...   ...               ...   ...
|-17p15--15p14--14p12--12p10--10p9---|
|------17-----15-----14-----12----10-|
|------------------------------------|
|------------------------------------|
|------------------------------------|
|------------------------------------|

|-------------------------|
|-------------------------|
|-------------------------|
|-----------------------2-|
|-------------0h1p0-----2-|
|-0-0-0-0-0---------3-3-0-|
...........         


Solo
-----------------------------------------------------------------------------------------
-----------------------------------------------------------------------------------------
------------------------------------------------15----15----15^--------------------------
---------------8---8---8---------8/14--------14----14----14------------------------------
-----7-------7---7---7-------------------------------------------------------------11-12-
-0-0-------------------------------------------------------------11-12-15-11-12-15-------

-------------------------------------------------------------------11-12-15p12p11--11-12-
-------------------------------------------------11-12-15-11-12-15-----------------------
-------------------------------11-12-15-11-12-15-----------------------------------------
-------------11-12-15-11-12-15-----------------------------------------------------------
-15-11-12-15-----------------------------------------------------------------------------
-----------------------------------------------------------------------------------------

-15p12p11-15p12h15^^---12-14-17p14p12-12-14-17p14p12-12-14-17p14p12-12-14-17p14p12-12-15-
-----------------------------------------------------------------------------------------
-----------------------------------------------------------------------------------------
-----------------------------------------------------------------------------------------
-----------------------------------------------------------------------------------------
-----------------------------------------------------------------------------------------

-19p15p12h15-20p15p12h15-----------------------------------------------------------------
-------------------------20p15p12h15p12--------------------------------------------------
----------------------------------------20p15p12h15p12-----------------------------------
-------------------------------------------------------20p15p12h15p12-14--------14\5/14--
-----------------------------------------------------------------------------------------
-----------------------------------------------------------------------------------------

----------------------------------------------15-----------------18----18----18^---------
------------------------------15^-----15^--------15^-----15\8/17----17----17-------------
-15----15----15-------15~~~~--------------------------------------------------------7/14-
----14----14-----------------------------------------------------------------------------
-----------------------------------------------------------------------------------------
-----------------------------------------------------------------------------------------

-----------------------------------------------------------------------------------------
-12----------------12----------------12----------------12-----------------12^-12^--------
----15-14-12-14-15----15-14-12-14-15----15-14-12-14-15----15-14-12-14-15--12^-12^--------
---------------------------------------------------------------------------------14p12h14
-----------------------------------------------------------------------------------------
-----------------------------------------------------------------------------------------

-14^^---12-14-----12-15-----12-15------12-------------------15-----19-----20-----21------
--------------15^-------15^--------15^----14^p12-------11/12--12/15--15/17--17/18--18/19-
-------------------------------------------------14\0------------------------------------
-----------------------------------------------------------------------------------------
-----------------------------------------------------------------------------------------
-----------------------------------------------------------------------------------------

Here�s how I play the solo:

-----------------------------------------------------------------------------------------
-----------------------------------------------------------------------------------------
-----------------------------------------------------------15----15----15^^^^14-13-------
-----------------------8---8--8^^^^^-----------8/14^----14----14----14-------------------
-----7^^^^-----------7---7---------------------------------------------------------------
-0-0-------------------------------------------------------------------------------13-12-

-------------------------------------------------------13-12-11-11-13-12-11-11-13^-------
-------------------------------------------13-12-11-11-----------------------------------
-------------------------------13-12-11-11-----------------------------------------------
-------------------13-12-11-11-----------------------------------------------------------
-------13-12-11-11-----------------------------------------------------------------------
-11-11-----------------------------------------------------------------------------------

-17-16-15-15-17-16-15-15-17-16-15-15-17-16-15-15----------------------------------------
-------------------------------------------------17-16-15-15----------------------------
-------------------------------------------------------------17-16-15-15----------------
-------------------------------------------------------------------------17-16-15-15----
-------------------------------------------------------------------------------------17-
----------------------------------------------------------------------------------------

------------------------------------------------------15-----------18----18----18^^^----
---------------------------------------------------15^---15^^\2/17----17----17----------
-----------------------------------15----15---15^^--------------------------------------
----------------------14^^------14----14------------------------------------------------
-16-15-15-------------------------------------------------------------------------------
----------17-16-15-15-------------------------------------------------------------------

----------------------------------------------------14^---------------------------------
-9-8-7-7-9-8-7-7-9-8-7-7-9-8-7-7-12^12^12^----------------15^^^-17-16-15-15-17-16-15-15-
---------------------------------12^12^12^----------------------------------------------
-------------------------------------------14p12h14-------------------------------------
----------------------------------------------------------------------------------------
----------------------------------------------------------------------------------------

-11-10-9-9-13-12-11-11-15-14-13-13-17-16-15-19-21^^^^-----------------------------------
----------------------------------------------------------------------------------------
----------------------------------------------------------------------------------------
----------------------------------------------------------------------------------------
----------------------------------------------------------------------------------------
----------------------------------------------------------------------------------------

13.CEMETERY GATES

e------------------|-----------------|----------------|------0-----------
B----------2-------|------0--0-------|------0--0------|----2-----2-------
G--------2---2-----|----4------4-----|----4------4----|--4---------4-----
D------2-----------|--2--------------|--2----------0--|------------------
A----4----------0--|-----------------|----------------|------------------
E--2---------------|--------------0--|----------------|------------------

e------------------|-----------------|----------------|---------0--------
B----------2-------|------0--0-------|------0--0------|--2--------2------
G--------2---2-----|----4------4-----|----4------4----|----4--------4----
D------2-----------|--2--------------|--2----------0--|------0--------0--
A----4----------0--|-----------------|----------------|------------------
E--2---------------|--------------0--|----------------|------------------

   "Reverend           Reverend          is this some conspiricy..."
e------------------|-----------------|----------------|------0-----------
B----------2-------|------0--0-------|------0--0------|----2-----2-------
G--------2---2-----|----4------4-----|----4------4----|--4---------4-----
D------2-----------|--2--------------|--2----------0--|------------------
A----4----------0--|-----------------|----------------|------------------
E--2---------------|--------------0--|----------------|------------------

   "Crucified    for   no  sins               An image, beneath me..."
e------------------|-----------------|----------------|------0-----------
B----------2-------|------0--0-------|------0--0------|----2-----2-------
G--------2---2-----|----4------4-----|----4------4----|--4---------4-----
D------2-----------|--2--------------|--2----------0--|--------------0---
A----4----------0--|-----------------|----------------|------------------
E--2---------------|--------------0--|----------------|------------------

 "What is with..."
e------------------|-----------------|----------------|------0-----------
B----------2-------|------0--0-------|------0--0------|----2-----2-------
G--------2---2-----|----4------4-----|----4------4----|--4---------4-----
D------2-----------|--2--------------|--2----------0--|------------------
A----4----------0--|-----------------|----------------|------------------
E--2---------------|--------------0--|----------------|------------------

 "I'm  a man..."
e------------------|-----------------|----------------|-----0^^^\------0------
B----------2-------|------0--0-------|------0--0------|-----3-\-5------5-\-7--
G--------2---2-----|----4------4-----|----4------4----|--4--4-\-6------6-\-7--
D------2-----------|--2--------------|--2----------0--|--------------0--------
A----4----------0--|-----------------|----------------|-----------------------
E--2---------------|--------------0--|----------------|-----------------------

1st Guitar Solo
|-----------------|------------
|-----------------|------------
|---9--(9)~~~--8--|~~~--7------
|-----------------|------------
|-----------------|------------
|-----------------|------------


|-------------------------|-----------------|-------------------|-----
|---------10-----(10)-----|---9-----(9)-----|---12-----(12)-----|-----
|-----x----------------6--|--------------9--|----------------8--|-----
|--x----------------------|-----------------|-------------------|-----
|-------------------------|-----------------|-------------------|-----
|-------------------------|-----------------|-------------------|-----


-----------|-------|---------------------------|----------------------
-15--------|-------|---------------------------|----------------------
--------7--|~~~--\\|----------------4-----(4)--|---(4)-----(4)--6-----
-----------|-------|------------4--------------|----------------------
-----------|-------|--------x------------------|----------------------
-----------|-------|-----x---------------------|----------------------


---|-----------------|--------------------------|---------------------
---|---------5--(5)--|--(5)~~~---5---(5)---(5)--|---(5)---(5)~~~------
\4p|--2--------------|--------------------------|---------------------
---|-----2-----------|--------------------------|---------------------
---|-----------------|--------------------------|---------------------
---|-----------------|--------------------------|---------------------

         
|-----------------|---------------|-----------------------------------
|-----------------|--12--(12)/15--|--(15)\12--15/17--(17)p14--17------
|---------6--(6)--|---------------|-----------------------------------
|-----x-----------|---------------|-----------------------------------
|--x--------------|---------------|-----------------------------------
|-----------------|---------------|-----------------------------------

                                                     
-----|-----------------------------------------
p15--|--(15)p12--15/17--(17)p14--17--17~~~~~~--
-----|-----------------------------------------
-----|-----------------------------------------
-----|-----------------------------------------
-----|-----------------------------------------



1:33
Riff 1
e----------------------------------
B----------------------------------
G----------------------------------
D--2--2-2-2-2---------------9------
A--0--0-0-0-0--7-6-7--8-7-8---7-8--
E----------------------------------

e-------------------------------------------
B-------------------------------------------
G-------------------------------------------
D--2--2-2-2-2-------------------------------
A--0--0-0-0-0--7-6-7--8-6-7---6-------------
E---------------------------8---7~~---------

Repeat Riff 1 two more times, then on the third time play Riff 2

Riff 2
e----------------------------------
B----------------------------------
G----------------------------------
D--2--2-2-2-2---------------9------
A--0--0-0-0-0--7-6-7--8-7-8---7-8--
E----------------------------------

e-------------------------------------------
B-------------------------------------------
G-------------------------------------------
D--2--2-2-2-2-----------------2--3----------
A--0--0-0-0-0--7-6-7--8-6-7---0--1----------
E-------------------------------------------

Riff 3
e-------------------------------------------
B-------------------------------------------
G-------------------------------------------
D---------2-2-2--4-4-4--5-------------------
A--4-4-4--0-0-0--2-2-2--3--2--3-------------
E--2-2-2-------------------0--1-------------

Repeat Riff 3 one more time dragging the last two notes out a little, play it again normal,
then play it a final time playing the last note again.

Now comes the softer part of the song. Play this three times:
 
 "Reverend..."
e------------------|-----------------|----------------|------0-----------
B----------2-------|------0--0-------|------0--0------|----2-----2-------
G--------2---2-----|----4------4-----|----4------4----|--4---------4-----
D------2-----------|--2--------------|--2----------0--|------------------
A----4----------0--|-----------------|----------------|------------------
E--2---------------|--------------0--|----------------|------------------

On the fourth time, play this: (with pick)
 "I watch..."
e------------------|-----------------|----------------
B----------2-------|------0--0-------|------0--0------
G--------2---2-----|----4------4-----|----4------4----
D------2-----------|--2--------------|--2----------0--
A----4----------0--|-----------------|----------------
E--2---------------|--------------0--|----------------

Slide the pick down the neck and play:

I cant figure it out.

Then at 3:02, play:

Riff 1
e----------------------------------
B----------------------------------
G----------------------------------
D--2--2-2-2-2---------------9------
A--0--0-0-0-0--7-6-7--8-7-8---7-8--
E----------------------------------

e-------------------------------------------
B-------------------------------------------
G-------------------------------------------
D--2--2-2-2-2-------------------------------
A--0--0-0-0-0--7-6-7--8-6-7---6-------------
E---------------------------8---7~~---------

Then:

Riff 2
e----------------------------------
B----------------------------------
G----------------------------------
D--2--2-2-2-2---------------9------
A--0--0-0-0-0--7-6-7--8-7-8---7-8--
E----------------------------------

e-------------------------------------------
B-------------------------------------------
G-------------------------------------------
D--2--2-2-2-2-----------------2--3----------
A--0--0-0-0-0--7-6-7--8-6-7---0--1----------
E-------------------------------------------

Riff 3
e-------------------------------------------
B-------------------------------------------
G-------------------------------------------
D---------2-2-2--4-4-4--5-------------------
A--4-4-4--0-0-0--2-2-2--3--2--3-------------
E--2-2-2-------------------0--1-------------

Repeat Riff 3 one more time dragging the last two notes out a little,
play it again normal, then play it a final time playing the last note
again. Then play:

  Sometimes when...
e------------------|-----------------|----------------|------0-----------
B----------2-------|------0--0-------|------0--0------|----2-----2-------
G--------2---2-----|----4------4-----|----4------4----|--4---------4-----
D------2-----------|--2--------------|--2----------0--|------------------
A----4----------0--|-----------------|----------------|------------------
E--2---------------|--------------0--|----------------|------------------

Play three more times, then:

e------------------|-----------------|----------------
B----------2-------|------0--0-------|------0--0------
G--------2---2-----|----4------4-----|----4------4----
D------2-----------|--2--------------|--2----------0--
A----4----------0--|-----------------|----------------
E--2---------------|--------------0--|----------------

Slide the pick down the neck, then play:

I cant figure it out

Then at 4:25, play:

Riff 1
e----------------------------------
B----------------------------------
G----------------------------------
D--2--2-2-2-2---------------9------
A--0--0-0-0-0--7-6-7--8-7-8---7-8--
E----------------------------------

e-------------------------------------------
B-------------------------------------------
G-------------------------------------------
D--2--2-2-2-2-------------------------------
A--0--0-0-0-0--7-6-7--8-6-7---6-------------
E---------------------------8---7~~---------

e----------------------------------
B----------------------------------
G----------------------------------
D---------------9------------------
A--7-6-7--8-7-8---7-8--------------
E----------------------------------

e-------------------------------------------
B-------------------------------------------
G-------------------------------------------
D--2--2-2-2-2-------------------------------
A--0--0-0-0-0--7-6-7--8-6-7---6-------------
E---------------------------8---7~~---------

e----------------------------------
B----------------------------------
G----------------------------------
D--2--2-2-2-2---------------9------
A--0--0-0-0-0--7-6-7--8-7-8---7-8--
E----------------------------------

e---------------------------------------------------------
B---------------------------------------------------------
G---------------------------------------------------------
D--2--2-2-2-2---------5--------5--------5--------5--------
A--0--0-0-0-0--7-6-7--3--2--3--3--2--3--3--2--3--3--2--3--
E------------------------0--1-----0--1-----0--1-----0--1--

Now here's the second solo:

4:52
------------------------|-----5-----5--4------
---2-----2--5/7\5--3p2--|~~~-----2------------
------4-----------------|---------------------
------------------------|---------------------
------------------------|---------------------
------------------------|---------------------

|----12--------9---|-------|--12-----10--(10)~~~--10p9--|------9------
|--------9-----10--|--5/9--|------9---------------------|--12---------
|/9---------9------|-------|----------------------------|-------------
|------------------|-------|----------------------------|-------------
|------------------|-------|----------------------------|-------------
|------------------|-------|----------------------------|-------------

                                                     Full   Full
------------|----------------------|--------7-----7-------------------
10~~~--(10)\|/10--9--8--7--6--5h6--|--7~~~-----7------7~~~---(7)------
------------|----------------------|----------------------------------
------------|----------------------|----------------------------------
------------|----------------------|----------------------------------
------------|----------------------|----------------------------------

             Full   Tap                              Tap
----------7-----------------------------|----7h9h10---12p10p9p7h9-----
~~~--(7)------7------8p(7)--(7)p(5)~~~--|/9---------------------------
----------------------------------------|-----------------------------
----------------------------------------|-----------------------------
----------------------------------------|-----------------------------
----------------------------------------|-----------------------------

     Tap                    Tap     Tap           Tap     Tap
h10---12/14--(14)p12p10--|---14p10---14/16p14p12---15p12---15/17------
-------------------------|--------------------------------------------
-------------------------|--------------------------------------------
-------------------------|--------------------------------------------
-------------------------|--------------------------------------------
-------------------------|--------------------------------------------

(17)p16p14--14--19/21--17------17--|------19--16------16--------------
---------------------------19------|--19----------17------17~~~-------
-----------------------------------|----------------------------------
-----------------------------------|----------------------------------
-----------------------------------|-----------------------------7----
-----------------------------------|----------------------------------

---|--------------------------------------------------------|---------
---|--------------------------------------------------------|---------
---|-----------------------------------------9--10--11--12--|---------
---|---------------6--7--8--9--8--9--10--11-----------------|---------
7--|--7--8--9--10-------------------------------------------|--x------
---|--------------------------------------------------------|---------

                  P.SFull                Full                Full
------------------|-----------14------------------14------------------
------------------|-------14------17p14-------14------17p14-----------
---6--------6----\|---16------------------16------------------16------
x--------x--------|---------------------------------------------------
------x-----------|---------------------------------------------------
------------------|---------------------------------------------------

                  Full                    Full     Full     Full
----14--|----------------------14--------------14-------14-------|----
14------|--17p14-------14--14------17p14---17-------17-------17--|----
--------|----------16--------------------------------------------|----
--------|--------------------------------------------------------|----
--------|--------------------------------------------------------|----
--------|--------------------------------------------------------|----

21p14--21p14--21p14--21p14--20--20p14--20--20p14--20p14--|--19h20-----
---------------------------------------------------------|------------
---------------------------------------------------------|------------
---------------------------------------------------------|------------
---------------------------------------------------------|------------
---------------------------------------------------------|------------

p19p17------19h20p19p17------------------------14--16--|--17--16------
--------19---------------19--19--19--19~~~/17----------|--------------
-------------------------------------------------------|--------------
-------------------------------------------------------|--------------
-------------------------------------------------------|--------------
-------------------------------------------------------|--------------

14------14--17h19p17p14--14h17p14h17p14--14--14-----------------------
----17-------------------------------------------19p17p14--17p14------
----------------------------------------------------------------------
----------------------------------------------------------------------
----------------------------------------------------------------------
----------------------------------------------------------------------

|---------------------------------------------------------------------
|--14h15p14h15p14------14---------------------------------------------
|------------------17------17p14--16p14------14--------14h16p14-------
|----------------------------------------16------1/16-----------------
|---------------------------------------------------------------------
|---------------------------------------------------------------------

w/ bar w/ bar        w/ bar
-------------------------------------------------|--------------------
-------------------------------------------------|--------------------
-\(14)\----13p11\10-\---11p10p9--11p1p9--10p9p8--|--10p9p8------------
-------------------------------------------------|--------------------
-------------------------------------------------|--------------------
-------------------------------------------------|--------------------

w/ bar   w/ barw/ bar      P.dive w/ bar
------------------------------------||--------------------------------
------------------------------------||--------------------------------
-/9p(7)-/9----/6------------\\------||--------------------------------
------------------------x-----------||--------------------------------
---------------------x--------------||--------------------------------
------------------------------------||--------------------------------

In the background, another guitar is playing:

e------------------|-----------------|----------------|------0-----------
B----------2-------|------0--0-------|------0--0------|----2-----2-------
G--------2---2-----|----4------4-----|----4------4----|--4---------4-----
D------2-----------|--2--------------|--2----------0--|------------------
A----4----------0--|-----------------|----------------|------------------
E--2---------------|--------------0--|----------------|------------------

Until 5:14, then comes:

Riff 3
e-------------------------------------------
B-------------------------------------------
G-------------------------------------------
D---------2-2-2--4-4-4--5-------------------
A--4-4-4--0-0-0--2-2-2--3--2--3-------------
E--2-2-2-------------------0--1-------------

Repeat 7 more times, then on the 8th time, play:

e-------------------------------------------
B-------------------------------------------
G-------------------------------------------
D---------2-2-2--4-4-4--5--------5----------
A--4-4-4--0-0-0--2-2-2--3--2--3--3--2--3----
E--2-2-2-------------------0--1-----0--1----

Then:

Riff 1
e----------------------------------
B----------------------------------
G----------------------------------
D--2--2-2-2-2---------------9------
A--0--0-0-0-0--7-6-7--8-7-8---7-8--
E----------------------------------

e-------------------------------------------
B-------------------------------------------
G-------------------------------------------
D--2--2-2-2-2-------------------------------
A--0--0-0-0-0--7-6-7--8-6-7---6-------------
E---------------------------8---7~~---------

e----------------------------------
B----------------------------------
G----------------------------------
D---------------9------------------
A--7-6-7--8-7-8---7-8--------------
E----------------------------------

e-------------------------------------------
B-------------------------------------------
G-------------------------------------------
D--2--2-2-2-2-------------------------------
A--0--0-0-0-0--7-6-7--8-6-7---6-------------
E---------------------------8---7~~---------

e----------------------------------
B----------------------------------
G----------------------------------
D--2--2-2-2-2---------------9------
A--0--0-0-0-0--7-6-7--8-7-8---7-8--
E----------------------------------

e---------------------------------------
B---------------------------------------
G---------------------------------------
D--2--2-2-2-2---------5--------5--------
A--0--0-0-0-0--7-6-7--3--2--3--3--2--3--
E------------------------0--1-----0--1--

Then:

6:14
e----------------------------------
B----------------------------------
G----------------------------------
D--2--2-2-2-2----------------------
A--0--0-0-0-0--7-6-7~~~~~~---------
E----------------------------------

e-------------------------------------------
B-------------------------------------------
G-------------------------------------------
D--2--2-2-2-2------------9~~----------------
A--0--0-0-0-0--7-6-7--8---------------------
E------------------------------------------

14.HOSTILE

-||--------------------|------|------|------|---------------||----------------
-||--------------------|------|------|------|---------------||----------------
-||--------------------|------|------|------|---------------||----------------
-||--------------------|------|------|------|-------------5-||----------------
-||-7--8-88-8-8-8888-5-|-^^^^-|-^^^^-|-^^^^-|-5---4---3---3-||----------------
-||-5--6-66-6-6-6666-3-|-^^^^-|-^^^^-|-^^^^-|-3---2---1-----||----------------
 That's basically the main riff you will repeat its a lot so...

-||--------------------|--------------------|------|-----------------|--------
-||--------------------|--------------------|------|-----------------|--------
-||--------------------|--------------------|------|-----------------|--------
-||--------7-vvvv---7--|-5-------------7----|------|-5---------------|--------
-||-8-8888----------5--|-3------5------5----|-^^^^-|-3------5--5---7-|--------
-||-6-6666-------------|--------3-----------|-^^^^-|--------3--3---5-|--------
 This is the chorus part

-|------------------|-----------------|------|----------------|-------------|-
-|------------------|-----------------|------|----------------|-------------|-
-|------------------|-----------------|------|----------------|-------------|-
-|---------------7--|-5-------------7-|------|-5--------------|-------------|-
-|-8888888888888-5--|-3------5------5-|-^^^^-|-3------5--5--7-|-------------|-
-|-6666666666666----|--------3--------|-^^^^-|--------3--3--5-|-------------|-
 (there is 13 Bb here)                                          silence here

-|---------------|------|------|------|------|------|-------|------------||---
-|---------------|------|------|------|------|------|-------|------------||---
-|---------------|------|------|------|------|------|-------|------------||---
-|---------------|------|------|------|------|------|-------|------------||---
-|-2-2225--2--5--|-^^^^-|-^^^^-|-^^^^-|-^^^^-|-^^^^-|--^^^^-|-2----------||---
-|-0-0003--0--3--|-^^^^-|-^^^^-|-^^^^-|-^^^^-|-^^^^-|--^^^^-|-0----------||---
 This part rock's

-||-------------------------------------------------|------|----------------|-
-||-------------------------------------------------|------|-12-----14------|-
-||-12h14-14-14-14-14-14-14-12-14-14-14-14-14-14-14-|------|-12-----14------|-
-||-------------------------------------------------|------|----------------|-
-||-------------------------------------------------|-^^^^-|----------------|-
-||-------------------------------------------------|-^^^^-|----------------|-
 now the solo... hehehehe

-|---------------|-17-20-17----19-17----20-19----20-17----|-19-17----20-17----
-|-12-----14-----|----------20-------20-------20-------20-|-------20----------
-|--------14-----|----------------------------------------|-------------------
-|---------------|----------------------------------------|-------------------
-|---------------|----------------------------------------|-------------------
-|---------------|----------------------------------------|-------------------


----19-17----20-17----19-17----20-|-17----19-17----20--------------|----------
-20-------20-------20-------20----|----20-------20----20-20bvvvvvv-|----------
----------------------------------|--------------------------------|----------
----------------------------------|--------------------------------|----------
----------------------------------|--------------------------------|----------
----------------------------------|--------------------------------|----------


-|-----------------|-17---18-18-18-18-18-18-|------|------|----------------|--
-|-20b-----20b--20-|------------------------|------|------|-20bvvvvvvvvvvv-|--
-|-----------------|------------------------|------|------|----------------|--
-|-----------------|------------------------|------|------|----------------|--
-|-----------------|------------------------|-^^^^-|-^^^^-|----------------|--
-|-----------------|------------------------|-^^^^-|-^^^^-|----------------|--


-|-----------------|--------------|------|----------------|----------------|--
-|-----------------|-13b-----8b---|------|-13b-----8b-10b-|-10-------------|--
-|-----------------|-15b----10b---|------|-15b----10b-12b-|-12-------------|--
-|-14vv------------|--------------|------|----------------|----------------|--
-|-12vvvv----------|--------------|-^^^^-|----------------|----------------|--
-|-----vvvv--------|--------------|-^^^^-|----------------|----------------|--


-|--------------|------|-------------------|------------------------||--------
-|-13b-----8b---|------|-13b-----8b--------|------------------------||--------
-|-15b----10b---|------|-15b----10b----12b-|-12vvvvvvvv-------------||--------
-|--------------|-^^^^-|-------------------|----------vvvvv---------||--------
-|--------------|-^^^^-|-------------------|--------------vvvvv-----||--------
-|--------------|------|-------------------|------------------vvvvv-||--------
                                             this mean you drop the vibrato

------------------------------------------------------------------------------
------------------------------------------------------------------------------
------------------------------------------------------------------------------
------------------------------------------------------------------------------
------------------------------------------------------------------------------
------------------------------------------------------------------------------
 (This is the outro)

-||------------|-------------|-----------|-------------|-----------|----------
-||------------|-------------|-----------|-------------|-----------|----------
-||------------|-------------|-----------|-------------|-----------|----------
-||------------|-------------|-----------|-------------|-----------|----------
-||------------|-5---6---7---|-----------|-5---6---7---|-----------|----------
-||------------|-3---4---5---|-----------|-3---4---5---|-----------|----------
   ***ing...                  ***ing...                ***ing...

-|-------------|-----------|-----------------|--------------------||----------
-|-------------|-----------|-----------------|--------------------||----------
-|-------------|-----------|-----------------|--------------------||----------
-|-------------|-----------|-----------------|--------------------||----------
-|-5---6---7---|-----------|-4---5---6---7---|--------------------||----------
-|-3---4---5---|-----------|-2---3---4---5---|--------------------||----------

15.WHERE YOU COME FROM

Intro:
            ~~~~~~~~~~~~~~~~                  ~~~~~~~~~~
|---------------------------|----------------------------|
|---------------------------|----------------------------|
|---------------------------|----------------------------|
|---------------------------|----------------------------|
|-------0-3-5---------------|-5-3-0-----------7----------|
|-0-3-6---------------------|-------6-5-3-0--------------|

                  ~~~~~~~~~~                  [hold======]
|---------------------------|----------------------------|
|---------------------------|----------------------------|
|-----------------7---------|------------------6/7---(7\)|
|---------------------------|------------------5/6---(6\)|
|-------0-3-5---------------|-5-3-0----------------------|
|-0-3-6---------------------|-------6-5-3-0--------------|

                                                1/2 1/2
            ~~~~      ~~~~~~           [trem/bar \/  /\  ]
|---------------------------|----------------12-(12)(12)-|
|---------------------------|----------------12-(12)(12)-|
|---------------------7-----|----------------11-(11)(11)-|
|---------------------------|----------------------------|
|-------0-3-5---------------|-5-3-0----------------------|
|-0-3-6---------------------|-------6-5-3-0--------------|

            ~~~~ A.H.~~~~~~~                  {-3-}
|---------------------------|-----------------------------|
|---------------------------|-----------------------------|
|---------------------------|-----------------------------|
|---------------------------|-----------------------------|
|-------0-3-5-----5---------|-5-3-0-----------------5-6-7\|
|-0-3-6---------------------|-------6-5-3-0---2-3-4-------|

                                                    ~~~~~~~~~~~~~
|---------------------------------|------------------------------|
|---------------------------------|------------------------------|
|---------------------------------|------------------------------|
|-5p0---5p0-----------------------|------------------------------|
|-----7-----7-5p0-5p0---5p0-------|-----------------5^(1)--------|
|---------------------7-----7-5p0-|-3p0-5p0-6-5-3p0--------------|

                                                     tr.~~~~~~~~~
|---------------------------------|------------------------------|
|---------------------------------|------------------------------|
|---------------------------------|------------------------------|
|-5p0---5p0-----------------------|------------------0(2)--------|
|-----7-----7-5p0-5p0---5p0-------|------------------------------|
|---------------------7-----7-5p0-|-3p0-5p0-6-5-3p0--------------|

                                                   A.H. A.H.~~~~~
|---------------------------------|------------------------------|
|---------------------------------|------------------------------|
|---------------------------------|------------------------------|
|-5p0---5p0-----------------------|------------------------------|
|-----7-----7-5p0-5p0---5p0-------|-----------------5h7-5--------|
|---------------------7-----7-5p0-|-3p0-5p0-6-5-3p0--------------|

                                                    [w/trem.bar==]
|---------------------------------|------------------------------|
|---------------------------------|------------------------------|
|---------------------------------|------------------------------|
|-5p0---5p0-----------------------|------------------------------|
|-----7-----7-5p0-5p0---5p0-------|------------------------------|
|---------------------7-----7-5p0-|-3p0-5p0-6-5-3p0-0\-----------|

2gtrs: left   right   left    right     left    right
|-------------------------------|--------------------------------|
|-------------------------------|--------------------------------|
|-------------------------------|--------------------------------|
|-2---2-2-2---2-2-2---2-2-2---2-|-2-2---2-2-2---2-2-2------------|
|-2---2-2-2---2-2-2---2-2-2---2-|-2-2---2-2-2---2-2-2------------|
|-0---0-0-0---0-0-0---0-0-0---0-|-0-0---0-0-0---0-0-0------------|

Riff 1:                                                   ~~~~
|-------------------------------|---------------------------------|
|-------------------------------|---------------------------------|
|-------------------------------|---------------------------------|
|-------------------------------|---------------------------------|
|-7---7-7-7---7-7-7---7-7-7---7-|-7-7---7-7-7---7-7-7-5h7---------|
|-0---0-0-0---0-0-0---0-0-0---0-|-0-0---0-0-0---0-0-0-----5---3h5-|

                                                      tr.~~~~~~~~~
|-------------------------------|---------------------------------|
|-------------------------------|---------------------------------|
|-------------------------------|---------------------------------|
|-------------------------------|---------------------0(2)--------|
|-7---7-7-7---7-7-7---7-7-7---7-|-7-7---7-7-7---7-7-7-------------|
|-0---0-0-0---0-0-0---0-0-0---0-|-0-0---0-0-0---0-0-0-------------|

                                                          ~~~~
|-------------------------------|---------------------------------|
|-------------------------------|---------------------------------|
|-------------------------------|---------------------------------|
|-------------------------------|---------------------------------|
|-7---7-7-7---7-7-7---7-7-7---7-|-7-7---7-7-7---7-7-7-5h7---------|
|-0---0-0-0---0-0-0---0-0-0---0-|-0-0---0-0-0---0-0-0-----5---3h5-|

|-------------------------------|---------------------------------|
|-------------------------------|---------------------------------|
|-------------------------------|---------------------------------|
|-------------------------------|-5p0---5p0-----------------------|
|-7---7-7-7---7-7-7---7-7-7---7-|-----7-----7-5p0-5p0---5p0-------|
|-0---0-0-0---0-0-0---0-0-0---0-|---------------------7-----7-5p0-|

Pre-chorus:
            ~~~~~~~~~~~~~~~~
|---------------------------|----------------------------|
|---------------------------|----------------------------|
|---------------------------|----------------------------|
|---------------------------|----------------------------|
|-------0-3-5---------------|-5-3-0-------------------14\|
|-0-3-6---------------------|-------6-5-3-0--------------|

                                         [hold===========]
                                                 ~~~~~~~~
|---------------------------|----------------------------|
|---------------------------|----------------------------|
|---------------------------|------------------6/7-------|
|---------------------------|------------------5/6-------|
|-------0-3-5------5/6---3--|-5-3-0----------------------|
|-0-3-6------------3/4---1--|-------6-5-3-0--------------|

                                                1/2 1/2
                  ~~~~~~~~~~           [trem/bar \/  /\  ]
|---------------------------|----------------------------|
|---------------------------|----------------------------|
|---------------------------|----------------------------|
|---------------------------|----------------------------|
|-------0-3-5-----5---------|-5-3-0----------------------|
|-0-3-6---------------------|-------6-5-3-0------0----0--|


|---------------------------|-----------------------------|
|---------------------------|-----------------------------|
|---------------------------|-----------------------------|
|---------------------------|-----------------------------|
|-------0-3-5-----5/6---3---|-5-3-0-------2---------------|
|-0-3-6-----------3/4---1---|-------6-5-3-0---------------|

Chorus:
                                                      ~~~~~~~~~~~
|---------------------------------|------------------------------|
|---------------------------------|------------------------------|
|---------------------------------|------------------------------|
|-5p0---5p0-----------------------|------------------------------|
|-----7-----7-5p0-5p0---5p0-------|-----------------5h7----------|
|---------------------7-----7-5p0-|-3p0-5p0-6-5-3p0--------------|

                                                    A.H.~~~~~~~~~
|---------------------------------|------------------------------|
|---------------------------------|------------------------------|
|---------------------------------|------------------------------|
|-5p0---5p0-----------------------|------------------------------|
|-----7-----7-5p0-5p0---5p0-------|-----------------5^(1)---\5---|
|---------------------7-----7-5p0-|-3p0-5p0-6-5-3p0--------------|

                                                    tr.~~~~~~~~~~
|---------------------------------|------------------------------|
|---------------------------------|------------------------------|
|---------------------------------|------------------------------|
|-5p0---5p0-----------------------|------------------------------|
|-----7-----7-5p0-5p0---5p0-------|-----------------0(2)---------|
|---------------------7-----7-5p0-|-3p0-5p0-6-5-3p0--------------|

                                   [1.....
|---------------------------------||------------------------------|
|---------------------------------||------------------------------|
|---------------------------------||------------------------------|
|-5p0---5p0-----------------------||------------------------------|
|-----7-----7-5p0-5p0---5p0-------||------------------------------|
|---------------------7-----7-5p0-||-3p0-5p0-6-5-3p0-0------------|

                          A.H.~~~~~~~~       ~~~~~~
|---------------------------------|----------------|
|---------------------------------|----------------|
|---------------------------------|----------------|
|---------------------------------|----------------|
|-------------------------5/7-----|-------7/10-----|
|-3---5---6-5-3h5-0---3p0---------|---3p0----------|

                                                          ......1]
|-------------------------------|--------------------------------||
|-------------------------------|--------------------------------||
|-------------------------------|--------------------------------||
|-2---2-2-2---2-2-2---2-2-2---2-|-2-2---2-2-2---2-2-2------------||
|-2---2-2-2---2-2-2---2-2-2---2-|-2-2---2-2-2---2-2-2------------||
|-0---0-0-0---0-0-0---0-0-0---0-|-0-0---0-0-0---0-0-0------------||

then:



 [2............
||-------------------------------|-------------------------------|
||-------------------------------|-------------------------------|
||-------------------------------|-------------------------------|
||-------------------------------|-------------------------------|
||-------------------------------|-------------------------------|
||-3p0-5p0-0-5-3-5-0-------------|-3---5---6h5-3p5-0-------------|

                          A.H.~~~~
|---------------------------------|-------------------------------|
|---------------------------------|-------------------------------|
|---------------------------------|-------------------------------|
|---------------------------------|-------------------------------|
|-------------------------5/7-----|-------------------------------|
|-3p0-5p0-0-5-3-5-0---3p0---------|-3---5---6h5-3p5-0-------------|

                          A.H.~~~~
|---------------------------------|-------------------------------|
|---------------------------------|-------------------------------|
|---------------------------------|-------------------------------|
|---------------------------------|-------------------------------|
|-------------------------5-------|-------------------------------|
|-3p0-5p0-0-5-3-5-0---3p0---------|-3---5---6h5-3p5-0-------------|

                          A.H.~~~~
|---------------------------------|-------------------------------|
|---------------------------------|-------------------------------|
|---------------------------------|-------------------------------|
|---------------------------------|-------------------------------|
|-------------------------5/7-----|-------------------------------|
|-3p0-5p0-0-5-3-5-0---3p0---------|-3---5---6h5-3p5-0-------------|

                          [grad. steady gliss           .........2]
|---------------------------------|---------------|---------------||
|---------------------------------|---------------|---------------||
|---------------------------------|---------------|---------------||
|-------------------------5=======|>(7)===========|(12)==>(14)----||
|-------------------------5=======|>(7)===========|(12)==>(14)----||
|-3p0-5p0-0-5-3-5-0---3p0---------|---------------|---------------||


Guitar solo:
\w/trem.bar___________________
  T      T         T         T\________T_________T_________T_________T________/
  \/               /\                  \/                  /\
|-9h12p9-12p9h12p9-12p9h12p9-12p9h12p9-12p9h12p9-12p9h12p9-12p9h12p9-12p9h12p9-|
|------------------------------------------------------------------------------|
|------------------------------------------------------------------------------|
|------------------------------------------------------------------------------|
|------------------------------------------------------------------------------|
|------------------------------------------------------------------------------|
___________________________________________
  T         T         T         T         T\        T
  /\                                      \/
|-12p9h12p9-12p9h12p9-12p9h12p9-12p9h12p9-12p9h12p9-12p9h12p9------------------|
|-------------------------------------------------------------12\--------------|
|------------------------------------------------------------------------------|
|------------------------------------------------------------------------------|
|------------------------------------------------------------------------------|
|------------------------------------------------------------------------------|

  t    t    t    t    t    t    t    t    t    t    t    t    t    t    t
|------22p0-23p1-24p2-24p2-24p2-24p2-24p2-23p1-23p1-23p1-22p0-22p0-22p0-24p2-|
|-22p2-----------------------------------------------------------------------|
|----------------------------------------------------------------------------|
|----------------------------------------------------------------------------|
|----------------------------------------------------------------------------|
|----------------------------------------------------------------------------|

  t    t    t    t    t    t    t    t    t    t                           5/2
|-24p2-24p2-24p2-23p1-23p1-23p1-23p1-22p0-22p0-22p1--------------------------|
|-------------------------------------------------------------------------19^|
|----------------------------------------------------------------------------|
|----------------------------------------------------------------------------|
|----------------------------------------------------------------------------|
|----------------------------------------------------------------------------|

grad.release===>     1     1       1     1     1     1---\         3/2~~~
|---------------17----17----|-17----17----17----17---------------------------|
|----------(19)----19^---19^|----19^---19^---19^---19^19(19)p17---19^(19)p17-|
|---------------------------|-----------------------------------18-----------|
|---------------------------|------------------------------------------------|
|---------------------------|------------------------------------------------|
|---------------------------|------------------------------------------------|

       1--\           1--\           1--\           1~~~
|-19-19^-(19)p17-19-19^-(19)p17-19-19^-(19)p17-19-19^---|
|-------------------------------------------------------|
|-------------------------------------------------------|
|-------------------------------------------------------|
|-------------------------------------------------------|
|-------------------------------------------------------|

       1--\        1--\       5/2~~~~~~~~~~                   1--\            ~~~~
|-17-19^-(19)p17-19^-(19)p17-19^----------19\|-----------15-17^-(17)--15--17-----|
|--------------------------------------------|-15/17-------------------------16--|
|--------------------------------------------|-----------------------------------|
|--------------------------------------------|-----------------------------------|
|--------------------------------------------|-----------------------------------|
|--------------------------------------------|-----------------------------------|

~~~              1--\ 3/2   1--\       ~~~~~~                           2  ~~~
|--------15----17^-(17)^--17^-(17)p15-----|------------17-17----16----16^----|
|-----------16------------------------15--|---------20-------20----20--------|
|-----------------------------------------|-------------------------------18-|
|-----------------------------------------|----------------------------------|
|-----------------------------------------|----------------------------------|
|-----------------------------------------|----------------------------------|

~~~   1  ~~ 3/2  ~~~  ~~~~~~~          1--\  1--\      ~~~
|----------21^-21\-------|-------15--17^-(17)^(17)p15-----|
|---20^-20--------15/17--|----------------------------16--|
|------------------------|--------------------------------|
|------------------------|--------------------------------|
|------------------------|--------------------------------|
|------------------------|--------------------------------|

                                                                        [grad. gliss.]
~~~   1  ~~   1  ~~  ~~~~~~   3/2-\ 3/2-\ 3/2             ~~~     3/2 ~~~ 3/2    ~~~~
|-----------------------|----19^-(19)^-(19)^-----------------|---21^-21--21^----21---|
|---16^-16--16^-16--15--|--------------------18--17----------|---------------17\-----|
|-----------------------|----------------------------19--18--|-----------------------|
|-----------------------|------------------------------------|-----------------------|
|-----------------------|------------------------------------|-----------------------|
|-----------------------|------------------------------------|-----------------------|

End of solo. (not too simple? :E)

                                           [A.H.===========================]
                                               ~~~~  ~~~~  ~~~~
|-------------------------|------------------------------|-----------------|
|-------------------------|------------------------------|-----------------|
|-------------------------|------------------------------|-----------------|
|-2-----------------------|-2------------------5---------|-7---7-----------|
|-2-------------------2-5-|-2----------------7-----7-5---|---------7-5-----|
|-0-------------------0-3-|-0----------------------------|-------------7-5-|

                                 random pick slides down the neck
|-------------------------|-------------------------|-----------------|
|-------------------------|-------------------------|-----------------|
|-------------------------|-------------------------|-----------------|
|-------------------------|---------################|-----------------|
|-2---------------2-5---3-|-2-------################|-----------------|
|-0---------------0-3---1-|-0-------################|-3p0-5p0-6p5-3p0-|

Faster: d=152
  [-3-] [-3-] [-3-] [-3-]   [-3-] [-3-] [-3-] [-3-]
|-------------------------|-------------------------|-----------------|
|-------------------------|-------------------------|-----------------|
|-------------------------|-------------------------|---0-------0-----|
|-------------------------|-------------------------|-5-------3-------|
|-------5-6-7-------5-6-7-|-------5-6-7-------5-6-7-|-5---5---3---3---|
|-5-6-7-------5-6-7-------|-5-6-7-------5-6-7-------|-3---3---1---1---|

  [-3-] [-3-] [-3-] [-3-]   [-3-] [-3-] [-3-] [-3-]
|-------------------------|-------------------------|-----------------|
|-------------------------|-------------------------|-----------------|
|-------------------------|-------------------------|---0-------0-----|
|-------------------------|-------------------------|---------6-------|
|-------5-6-7-------5-6-7-|-------5-6-7-------5-6-7-|/8---8---6---6---|
|-5-6-7-------5-6-7-------|-5-6-7-------5-6-7-------|/6---6---4---4---|

  [-3-] [-3-] [-3-] [-3-]   [-3-] [-3-] [-3-] [-3-]
|-------------------------|-------------------------|-----------------|
|-------------------------|-------------------------|-----------------|
|-------------------------|-------------------------|---0-------0-----|
|-------------------------|-------------------------|-5-------3-------|
|-------5-6-7-------5-6-7-|-------5-6-7-------5-6-7-|-5---5---3---3---|
|-5-6-7-------5-6-7-------|-5-6-7-------5-6-7-------|-3---3---1---1---|

  [-3-] [-3-] [-3-] [-3-]   [-3-] [-3-] [-3-] [-3-]
|-------------------------|-------------------------|-------------------|
|-------------------------|-------------------------|-------------------|
|-------------------------|-------------------------|---0--------0------|
|-------------------------|-------------------------|-8------/10---10---|
|-------5-6-7-------5-6-7-|-------5-6-7-------5-6-7-|-8---8--/10---10---|
|-5-6-7-------5-6-7-------|-5-6-7-------5-6-7-------|-6---6--/8----8----|

  [-3-] [-3-] [-3-] [-3-]   [-3-] [-3-] [-3-] [-3-]
|-------------------------|-------------------------|-----------------|
|-------------------------|-------------------------|-----------------|
|-------------------------|-------------------------|-----------------|
|-------------------------|-------------------------|-5---5 \ 3---3---|
|-------5-6-7-------5-6-7-|-------5-6-7-------5-6-7-|-5---5 \ 3---3---|
|-5-6-7-------5-6-7-------|-5-6-7-------5-6-7-------|-3---3 \ 1---1---|

  [-3-] [-3-] [-3-] [-3-]   [-3-] [-3-] [-3-] [-3-]
|-------------------------|-------------------------|-----------------|
|-------------------------|-------------------------|-----------------|
|-------------------------|-------------------------|-----------------|
|-------------------------|-------------------------|-----8---6-------|
|-------5-6-7-------5-6-7-|-------5-6-7-------5-6-7-|-8---8---6-------|
|-5-6-7-------5-6-7-------|-5-6-7-------5-6-7-------|-6---6---4-------|

  [-3-] [-3-] [-3-] [-3-]   [-3-] [-3-] [-3-] [-3-]
|-------------------------|-------------------------|-----------------|
|-------------------------|-------------------------|-----------------|
|-------------------------|-------------------------|-----------------|
|-------------------------|-------------------------|-5---5 \ 3---3---|
|-------5-6-7-------5-6-7-|-------5-6-7-------5-6-7-|-5---5 \ 3---3---|
|-5-6-7-------5-6-7-------|-5-6-7-------5-6-7-------|-3---3 \ 1---1---|

  [-3-] [-3-] [-3-] [-3-]   [-3-] [-3-] [-3-] [-3-]
|-------------------------|-------------------------|-------------------|
|-------------------------|-------------------------|-------------------|
|-------------------------|-------------------------|-------------------|
|-------------------------|-------------------------|-8-------10---10---|
|-------5-6-7-------5-6-7-|-------5-6-7-------5-6-7-|-8---8---10---10---|
|-5-6-7-------5-6-7-------|-5-6-7-------5-6-7-------|-6---6---8----8----|

  [-3-]       [-3-]         [-3-]       [-3-]
|-------------------------|-------------------------|-----------------|
|-------------------------|-------------------------|-----------------|
|-------------------------|-------------------------|-----------------|
|-------5\----------5\----|-------5\----------5\----|-----------------|
|-------5\----------5\----|-------5\----------5\----|-5---5---3---3---|
|-5-6-7-------5-6-7-------|-5-6-7-------5-6-7-------|-3---3---1---1---|

  [-3-]       [-3-]         [-3-]       [-3-]
|-------------------------|-------------------------|-----------------|
|-------------------------|-------------------------|-----------------|
|-------12----------12\---|-------12----------12\---|-----------------|
|-------12----------12\---|-------12----------12\---|/8-------6-------|
|-------10----------10\---|-------10----------10\---|/8---8---6---6---|
|-0-0-0-------0-0-0-------|-0-0-0-------0-0-0-------|/6---6---4---4---|

  [-3-]       [-3-]         [-3-]       [-3-]
|-------------------------|-------------------------|-----------------|
|-------------------------|-------------------------|-----------------|
|-------------------------|-------------------------|-----------------|
|-------5\----------5\----|-------5\----------5\----|-----------------|
|-------5\----------5\----|-------5\----------5\----|-5---5---3---3---|
|-5-6-7-------5-6-7-------|-5-6-7-------5-6-7-------|-3---3---1---1---|

  [-3-]       [-3-]         [-3-]       [-3-]
|-------------------------|-------------------------|-------------------|
|-------------------------|-------------------------|-------------------|
|-------12----------12\---|-------12----------12\---|-------------------|
|-------12----------12\---|-------12----------12\---|/8-------10---10---|
|-------10----------10\---|-------10----------10\---|/8---8---10---10---|
|-5-6-7-------5-6-7-------|-5-6-7-------5-6-7-------|/6---6---8----8----|

  [-3-]       [-3-]         [-3-]       [-3-]
|-------------------------|-------------------------|-----------------|
|-------------------------|-------------------------|-----------------|
|-------------------------|-------------------------|-----------------|
|-------5-----------5\----|-------5-----------5\----|-----------------|
|-------5-----------5\----|-------5-----------5\----|-5---5---3---3---|
|-5-6-7-------5-6-7-------|-5-6-7-------5-6-7-------|-3---3---1---1---|

  [-3-]       [-3-]         [-3-]       [-3-]
|-------------------------|-------------------------|-----------------|
|-------------------------|-------------------------|-----------------|
|-------12----------12\---|-------12----------12\---|-----------------|
|-------12----------12\---|-------12----------12\---|-----------------|
|-------10----------10\---|-------10----------10\---|/8---8---6---6---|
|-5-6-7-------5-6-7-------|-5-6-7-------5-6-7-------|/6---6---4---4---|

16.I CAN'T HIDE

RIff1
------------------------------------------------------------------------------
------------------------------------------------------------------------------
------------------------------------------------------------------------------
--7-77777777777777------------------------------------------------------------
--5-55555555555555--8-888888--5-555555----------------------------------------
--------------------6-666666--3-333333----------------------------------------
                                                                              
Riff2
------------------------------------------------------------------------------
------------------------------------------------------------------------------
------------------------------------------------------------------------------
--------7---8---10---8---7----------------------------------------------------
-----55---5---5----5---5----88888888--55555555--------------------------------
----------------------------66666666--33333333--------------------------------
                                                                              
Riff3
-------------------------|----------------------------------------------------
-------------------------|----------------------------------------------------
-------------------------|----------------------------------------------------
-------------------------|----------------------------------------------------
---5555555555--4-4-------|--5555555555---\------------------------------------
---3333333333--2-2-------|--3333333333---\------------------------------------
                 {1,2,3}     {4}                                              

Riff4
-------------------------|----------------------------------------------------
-------------------------|----------------------------------------------------
-------------------------|----------------------------------------------------
---55555555--------------|----------------------------------------------------
---33333333-66666666-----|---8--7--6--5--4-3---0------------------------------
------------44444444-----|---6--5--4--3--2-1---0------------------------------
                 {1,2,3}    {4}              {w/bar}                          


Solo 1
---10---10---10--10--10------------10----------------------10--10--10--10-----
---13b--13b--13b-13b-13b--------10-------------------------13b-13b-13b-13b----
---------------------------12br-------12b-12br-12-10--------------------------
-----------------------------------------------------12-----------------------
------------------------------------------------------------------------------
------------------------------------------------------------------------------
                                                                              

-10---------------------------------------------------------------------------
-13b--------------------------------------------------------------------------
------14p13p12p10-14p13p12p10-14p13p12p10-14p13p12p10-14p13p12p10-------------
------------------------------------------------------------------------------
------------------------------------------------------------------------------
------------------------------------------------------------------------------
                                                                              
Interlude
------------------------------------------------------------------------------
------------------------------------------------------------------------------
------------------------------------------------------------------------------
---5--5--5--5-5--5------------------------------------------------------------
---3--3--3--3-3--3------------------------------------------------------------
------------------------------------------------------------------------------
 PM-  -  -  - -  -                                                            

Riff5
------------------------------------------------------------------------------
------------------------------------------------------------------------------
------------------------------------------------------------------------------
----5--5--5--5--5--5--5--5--5--5--5--5--5--5--5--5--5--5--5--5----------------
----3--3--3--3--3--3--3--3--3--3--3--3--3--3--3--3--3--3--3--3----0-----------
------------------------------------------------------------------0-----------
 PM -  -  -  -  -  -  -  -  -  -  -  -  -  -  -  -  -  -  -  -  {whammy bar}  

Riff6
------------------------------------------------------------------------------
------------------------------------------------------------------------------
------------------------------------------------------------------------------
----5--5--5--5--5--5--5--5--5--5----\\\---------------------------------------
----3--3--3--3--3--3--3--3--3--3----\\\---------------------------------------
------------------------------------\\\---------------------------------------
                                  {whammy bar Dive}                           

I Know Dimebag is a god up there.
comments
print report bad tab
6 comments total. Showing first comments.
0 reply
AngusYoung II wrote on May 24 2006, 03:44 am

Legends Never Die (1966 - 2004 R.I.P Darrell "Dimebag" Abbott)

0 reply
hdog5150 wrote on January 3 2007, 09:26 am

This is not the live album tabs. Have you listened to the songs??

0 reply
hdog5150 wrote on January 3 2007, 09:28 am

not the live versions

I want to post or [tab]
guest
You may want to rate the tab now too:
select rating
Please do not post tabs as comments. Select "correction" instead!