Oops, an error
Loading. Please wait.

Reinventing The Steel Tab

10,491 views 12 this week
1 commentread comment
1 2 3 4 5
accurate
x 2
add to favorites launch autoscroll
font size
0
reset
Autoscroll
+/-
esc
set tempo
stop
Contributor
WARNING: You are trying to view
                                    content from Ultimate-Guitar.com
                                    in an unauthorized application,
                                    which is prohibited.

                                    Please use an official Ultimate
                                    Guitar Tabs application for iPhone,
                                    iPad or Android to access legitimate
                                    chords, guitar, bass, and drum tabs
                                    from Ultimate-Guitar.com database.

                                    Type "ultimate guitar tabs" in Apple
                                    App Store's or Android Market's
                                    search to find the application.
R.I.P.:DIMEBAG DARRELL

1.HELLBOUND

Riff 1 (with flanger)
---------------------------------|---------------------------------|
---------------------------------|---------------------------------|
---------------------------------|---------------------------------|x4
---------------------------------|---------------------------------|
---------------------------------|---------------------------------|
-0-0-0-0-0-0-0-0-0-0-0-0-0-0-0-0-|-0-0-0-0-0-0-0-0-0-0-0-0-0-0-0-0-|


Riff 2
---------------------------------|---------------------------------|
---------------------------------|---------------------------------|
---------------------------------|---------------------------------|x4
---------------------------------|---------------------------------|
---------------------------------|---------------------------------|
-5-0-0-3-0-0-0-0-0-0-0-0-0-0-0-0-|-5-0-0-3-0-0-0-0-0-0-0-0-0-0-0-0-|


Fill 1
---------------------------------|---------------------------------|
---------------------------------|---------------------------------|
---------------------------------|---------------------------------|
---------------------------------|---------------------------------|
-5-----4~~~~~~-------------------|-7-----5~~~~~~-------------------|
-3-0-0-2~~~~~~-------------------|-5-0-0-3~~~~~~-------------------|


---------------------------------|---------------------------------|
---------------------------------|---------------------------------|
---------------------------------|---------------------------------|
---------------------------------|---------------------------------|
---------------------------------|---------------------------------|
-0-0-0-0-0-0-0-0-0-0-0-0-0-0-0-0-|-0-0-0-0-0-0-0-0-0-0-0-0-0-0-0-0-|


         "It's like religion..."
---------------------------------|---------------------------------|
---------------------------------|---------------------------------|
---------------------------------|---------------------------------|
---------------------------------|---------------------------------|
-5-----4~~~~~~-------------------|-7-----5~~~~~~-------------------|
-3-0-0-2~~~~~~-------------------|-5-0-0-3~~~~~~-------------------|


---------------------------------|---------------------------------|
---------------------------------|---------------------------------|
---------------------------------|---------------------------------|x2
---------------------------------|---------------------------------|
---------------------------------|---------------------------------|
-0-0-0-0-0-0-0-0-0-0-0-0-0-0-0-0-|-0-0-0-0-0-0-0-0-0-0-0-0-0-0-0-0-|


Riff 3 (Chorus)
--------------------------|
--------------------------|
--------------------------|x3
--------------------------|
-2-2--2--2--2-2--2--4-5---|
-0-0--0--0--0-0--0--2-3---|



-------------------------|
-------------------------|
-------------------------|
-------------------------|
-2-2--2--2--2-2-2--2--2--|
-0-0--0--0--0-0-0--0--0--|


---------------------------|
---------------------------|
---------------------------|x3
---------------------------|
-2-2--2--2--2-10\----4-5---|
-0-0--0--0--0--8\-0--2-3---|


------------------|
------------------|
------------------|
------------------|
-2-2--2--2--2-2---|
-0-0--0--0--0-0---|

Riff 4
---------------------------------|---------------------------------|
---------------------------------|---------------------------------|
---------------------------------|---------------------------------|
---------------------------------|---------------------------------|
---------------------------------|---------------------------------|
-2-2-2-2-2-2-2-2-2-2-2-2-2-2-2-2-|-4-4-4-4-4-4-4-4-5-5-5-5-7-7-7-7-|

2.GODDAMN ELECTRIC

Tune down 1 whole step 

----------------------|----------------------|----------------------|--------- 
----------------------|----------------------|----------------------|--------- 
----------------------|----------------------|----------------------|--------- 
-4--4---4-------------|-4--4---4-------------|-3--3---3-------------|--------- 
-4--4---4-------------|-4--4---4-------------|-3--3---3-------------|--------- 
-2--2---2--2-2-2--2-2-|-2--2---2--2-2-2--2-2-|-1--1---1--1-1-1--1-1-|--------- 
           . . .  . .             . . .  . .             . . .  . . 

----------------------|--|---------------------------------------------------- 
----------------------|--|---------------------------------------------------- 
----------------------|--|---------------------------------------------------- 
-4--4---4-------------|x2|--4--4---4/----------------------------------------- 
-4--4---4-------------|--|--4--4---4/----------------------------------------- 
-2--2---2--2-2-2--2-2-|--|--2--2---2/----------------------------------------- 
           . . .  . .      2nd time around last bar changes to 

-----------------------|----|------------------------------------------------- 
-----------------------|----|------------------------------------------------- 
-----------------------|----|------------------------------------------------- 
---------------------8-|-x7-|------------------------------------------------- 
---------------------8-|----|------------------------------------------------- 
-0-/12--0--0-/12--0--6-|----|-0-/12--0-/12--4\-------------------------------- 
Verse                       8th time       with trem bar 

--------------------|--------------------|------------------------------------ 
--------------------|--------------------|------------------------------------ 
--------------------|--------------------|------------------------------------ 
--------------------|--------------------|-x8--------------------------------- 
-7--7-7--7-7--7-7--7|8--8-8--8-6--6-6--6-|------------------------------------ 
-0--0-0--0-0--0-0--0|0--0-0--0-0--0-0--0-|------------------------------------ 
Interlude 1 

---------------------------|--------------------|---------------------------|- 
---------------------------|--------------------|---------------------------|- 
-10b---10b---10b---10b--8b-|--------------------|-10b----10b---10b---10b--8b|- 
---------------------------|--------------------|---------------------------|- 
-8b----8b----8b----8b---6b-|-----7--7-7--7-7--7-|-8b-----8b----8b----8b---6b|- 
-----0-----0-----0---------|---0-0--0-0--0-0--0-|------0-----0-----0--------|- 
Chorus (Rhy Fig 2)        Dont waste your time 

-----------------------|---------------------------|-------------------|------ 
-----------------------|---------------------------|-------------------|------ 
------8b---8b---8b-----|-10b---10b---10b---10b--8b-|-------------------|------ 
-----------------------|---------------------------|-------------------|------ 
------6b---6b---6b-----|-8b----8b----8b----8b---6b-|-----7--7-7--7-7-7-|------ 
--0-0----0----0------0-|-----0-----0-----0---------|---0-0--0-0--0-0-0-|------ 
    Embrace it 

-------------------------|-------------------------|-------------------------- 
-------------------------|-------------------------|-------------------------- 
-13b---14b---15b---16b---|-10b---11b---12b---13b---|-------------------------- 
-------------------------|-------------------------|--------------2----------- 
-11b---12b---13b---14b---|-8b----9b----10b---11b---|-10-9-9-7-7-5-2----------- 
-----0-----0-----0-----0-|-----0-----0-----0-----0-|-8--7-7-5-5-3-0----------- 
                           Harmony Part End fig 2    Change in u God***.. 

-------------|---------------------------------------------------------------- 
-------------|---------------------------------------------------------------- 
-------------|---------------------------------------------------------------- 
-------------|---------------------------------------------------------------- 
-5-7-7-8-8-9-|---------------------------------------------------------------- 
-3-5-5-6-6-7-|---------------------------------------------------------------- 
Play this 2nd time around after end of fig 2, then repeat fig 2 

----------------------------|------------------------------------------------- 
----------------------------|------------------------------------------------- 
----------------------------|------------------------------------------------- 
--------------------------2-|------------------------------------------------- 
-10-9-9-8-8-7--6-6-5-5-3--2-|------------------------------------------------- 
-8--7-7-6-6-5--4-4-3-3-1--0-|------------------------------------------------- 
play this before change in tempo 

---------------------------------|-----------------------------|-------------- 
---------------------------------|-----------------------------|-------------- 
---------------------------------|-----------------------------|-------------- 
-0h2-----------------------------|-0h2-------------------------|-x3----------- 
-0h2-----5-------5-------5---7/8-|-0h2-----5-------5-----------|-------------- 
-----0-0-3p0-0-0-3p0-0-0-3p0-5/6-|-----0-0-3p0-0-0-3p0-5brbrbr-|-------------- 
slight pm                                                      then... 

-----------------------------------|--------------------------------|--------- 
-----------------------------------|--------------------------------|--------- 
-----------------------------------|-------------------------^------|--------- 
-----------------------------------|-0h2---------------------5------|--------- 
-5--5-5-5-5-5-5-5-7--7-7-7-7-7-7-7-|-0h2-----5-------5---5/7---7vvv-|--------- 
-3--3-3-3-3-3-3-3-5--5-5-5-5-5-5-5-|-----0-0-3p0-0-0-3p0------------|--------- 
fig 3                                                       AH 

-----------------------------------|-------------------|---------------------- 
-----------------------------------|-------------------|---------------------- 
-----------------------------------|-------------------|---------------------- 
-----------------------------------|-0h2---------------|---------------------- 
-5--5-5-5-5-5-5-5-7--7-7-7-7-7-7-7-|-0h2---------------|---------------------- 
-3--3-3-3-3-3-3-3-5--5-5-5-5-5-5-5-|-----0-0-0-5brbrbr-|---------------------- 
                                      then play first 3 bars of fig 3 again 

-------------------------|--------------------|---6--------6--------6----|---- 
-------------------------|--------------------|-9---9b---9---9b---9---9b-|---- 
-------------------------|--------------------|--------------------------|---- 
-------------8---6vv-6h8-|-6b-------6h8/10vvv-|--------------------------|---- 
---------6h8---8---------|----8vvv------------|--------------------------|---- 
-6vv-6h9-----------------|--------------------|--------------------------|---- 
solo! 

-6------6------6--------|--------12-17p12-17p12----------17p12-17p12---------- 
---9b-----9b-----9bvvvv-|-15bvvv----------------12h13----------------12h13---- 
------------------------|-----------------------------12---------------------- 
------------------------|----------------------------------------------------- 
------------------------|----------------------------------------------------- 
------------------------|----------------------------------------------------- 


----|-15p12-------------15p12------------------------------------------------- 
----|-------15p12-------------15p12-------15p12-------------15p12------------- 
-12-|-------------15p12-------------15p12-------15p14p12----------15p14p12---- 
----|----------------------------------------------------14------------------- 
----|------------------------------------------------------------------------- 
----|------------------------------------------------------------------------- 


---|-15bbbvvvv-----15b-|-r-12h15p12-------------|----------------17-------17-- 
---|-------------------|------------15bvvv\-----|-17-19-20-19-17----19-20----- 
---|-------------------|--------------------/16-|----------------------------- 
-14|-------------------|------------------------|----------------------------- 
---|-------------------|------------------------|----------------------------- 
---|-------------------|------------------------|----------------------------- 


----------17-19-17----19----19-20-17----------20-17----------|-20-17---------- 
-20-19-20----------20----20----------20-19-20-------20-19-20-|-------20-19---- 
-------------------------------------------------------------|---------------- 
-------------------------------------------------------------|---------------- 
-------------------------------------------------------------|---------------- 
-------------------------------------------------------------|---------------- 


----21-19-17----17----17----------17------------------------------------------ 
-20----------20----20----20-19-20----20-19-20-19-17----17--------------------- 
----------------------------------------------------19----19-17-16-17-16------ 
-------------------------------------------------------------------------19--- 
------------------------------------------------------------------------------ 
------------------------------------------------------------------------------ 


-------|-----------------|--------------|------------------------------------- 
-------|-----------------|--------------|------------------------------------- 
-------|--------12b-13b--|--14b-13b-----|------------------------------------- 
-17-16-|-14bbb-----------|--------------|------------------------------------- 
-------|-----------------|----------14\-|------------------------------------- 
-------|-----------------|--------------|------------------------------------- 
                Use bar for these bends and slide 

----------------|------------------------------------------------------------- 
----------------|------------------------------------------------------------- 
----------------|------------------------------------------------------------- 
----------------|-x4---------------------------------------------------------- 
-3--3-4--4-5----|------------------------------------------------------------- 
-1--1-2--2-3--0-|-------------------------------------------------------------

3.YESTERDAY DON'T MEAN SHIT

Intro:
D||------------||---------------------------------|
A||------------||---------------------------------|
F||------------||*--------------------------------|
C||------------||*--------------------------------| 
G||------------||---------------------------------|
D||--20\-------||---0--0-0-6-0-3-0-0--0-0-6-0-3-0-|
                                5x Verse1:
--------------------------------||------------------------------|
--------------------------------||------------------------------|
-------------------------------*||*--2--x-x-2--x-x-2--x-x-2--3--|
-------------------------------*||*--2--x-x-2--x-x-2--x-x-2--3--|
--------------------------------||---0------0------0------0--1--|
--0--0-0-6-0-3-0-0--0-0-1-0-4---||------------------------------|

--------------------------------|--------------------------------|
--------------------------------|--------------------------------|
----x-x-3--x-x-3--x-x-3---------|--------------------------------|
----x-x-3--x-x-3--x-x-3---------|--------------------------------|
--------1------1------1---------|--------------------------------|
---------------------------3~---|--0--0-0-6-0-3-0-0--0-0-6-0-3-0-|
                                3x
--------------------------------||--------------------------------|
--------------------------------||--------------------------------|
-------------------------------*||--------------------------------|
-------------------------------*||--------------------------------|
--------------------------------||--------------------------------|
--0--0-0-6-0-3-0-0--0-0-1-0-4---||--0--0-0-6-0-3-0-0--0-0-6-0-3-0-|
Chorus:
------------------------||---------------------------|
------------------------||---------------------------|
---------------5--7--9--||*--7--9--------------7--9--|
---------------5--7--9--||*--7--9-----5--7-----7--9--|
---------------3--5--7--||---5--7-----5--7-----5--7--|
--11\-------0-----------||---------0--3--5--0--------|
                            2x
----------------------------||--------------------------|
----------------------------||--------------------------|
--------------10--10--9----*||--7--9--------------7--9--|
-----7--9-----10--10--9----*||--7--9-----5--7-----7--9--|
-----7--9-----8---8---7-----||--5--7-----5--7-----5--7--|
--0--5--7--0----------------||--------0--3--5--0--------|

-------------------------|--------------------------|----------------------
-------------------------|--------------------------|----------------------
--------------7--7--6----|--5--6--------------5--6--|--------------7--7--6-
-----7--9-----7--7--6----|--5--6-----3--4-----5--6--|-----3--4-----7--7--6-
-----7--9-----5--5--4----|--3--4-----3--4-----3--4--|-----3--4-----5--5--4-
--0--5--7--0-------------|--------0--1--2--0--------|--0--1--2--0----------






--------------------------|-----------------------|------------------------
--------------------------|-----------------------|------------------------
--5--6--------------5--6--|--------------5--7--9--|--7--9-------------7--9-
--5--6-----3--4-----5--6--|-----3--4-----5--7--9--|--7--9-----5--7----7--9-
--3--4-----3--4-----3--4--|-----3--4-----3--5--7--|--5--7-----5--7----5--7-
--------0--1--2--0--------|--0--1--2--0-----------|--------0--3--5--0------

---------------------------|----------------------------------|----------|
---------------------------|----------------------------------|----------|
--------------10--10--9----|--7--9--------------7----9\-------|----------|
-----7--9-----10--10--9----|--7--9-----5--7-----7----9\-------|----------|
-----7--9-----8---8---7----|--5--7-----5--7-----5----7\-------|----------|
--0--5--7--0---------------|--------0--3--5--0----------------|----------|
                                                                   3x
|---------------------------------|--------------------------------||
|---------------------------------|--------------------------------||
|*--------------------------------|-------------------------------*||
|*--------------------------------|-------------------------------*||
|---------------------------------|--------------------------------||
|---0--0-0-6-0-3-0-0--0-0-6-0-3-0-|--0--0-0-6-0-3-0-0--0-0-1-0-4---||
Verse2:
------------------------------|--------------------------------|
------------------------------|--------------------------------|
*--2--x-x-2--x-x-2--x-x-2--3--|----x-x-3--x-x-3--x-x-3---------|
*--2--x-x-2--x-x-2--x-x-2--3--|----x-x-3--x-x-3--x-x-3---------|
---0------0------0------0--1--|--------1------1------1---------|
------------------------------|---------------------------3~---|
                                                                 3x
--------------------------------|--------------------------------||
--------------------------------|--------------------------------||
--------------------------------|-------------------------------*||
--------------------------------|-------------------------------*||
--------------------------------|--------------------------------||
--0--0-0-6-0-3-0-0--0-0-6-0-3-0-|--0--0-0-6-0-3-0-0--0-0-1-0-4---||
                                 Chorus:
--------------------------------|------------------------|
--------------------------------|------------------------|
--------------------------------|---------------5--7--9--|
--------------------------------|---------------5--7--9--|
--------------------------------|---------------3--5--7--|
--0--0-0-6-0-3-0-0--0-0-6-0-3-0-|--11\-------0-----------|
                                                         2x
|---------------------------|----------------------------||
|---------------------------|----------------------------||
|*--7--9--------------7--9--|--------------10--10--9----*||
|*--7--9-----5--7-----7--9--|-----7--9-----10--10--9----*||
|---5--7-----5--7-----5--7--|-----7--9-----8---8---7-----||
|---------0--3--5--0--------|--0--5--7--0----------------||

--------------------------|----------------------|----------------------
--------------------------|----------------------|----------------------
--7--9--------------7--9--|--------------7--7--6-|--5--6--------------5--6-
--7--9-----5--7-----7--9--|-----7--9-----7--7--6-|--5--6-----3--4-----5--6-
--5--7-----5--7-----5--7--|-----7--9-----5--5--4-|--3--4-----3--4-----3--4-
--------0--3--5--0--------|--0--5--7--0----------|--------0--1--2--0-------

-------------------------|--------------------------|----------------------
-------------------------|--------------------------|----------------------
--------------7--7--6----|--5--6--------------5--6--|--------------5--7--9-
-----3--4-----7--7--6----|--5--6-----3--4-----5--6--|-----3--4-----5--7--9-
-----3--4-----5--5--4----|--3--4-----3--4-----3--4--|-----3--4-----3--5--7-
--0--1--2--0-------------|--------0--1--2--0--------|--0--1--2--0----------

--------------------------|---------------------------|
--------------------------|---------------------------|
--7--9--------------7--9--|--------------10--10--9----|
--7--9-----5--7-----7--9--|-----7--9-----10--10--9----|
--5--7-----5--7-----5--7--|-----7--9-----8---8---7----|
--------0--3--5--0--------|--0--5--7--0---------------|

----------------------------------|-------------------|
----------------------------------|-------------------|
--7--9--------------7----9\-------|--9\---------------|
--7--9-----5--7-----7----9\-------|--9\---------------|
--5--7-----5--7-----5----7\-------|--7\---------------|
--------0--3--5--0----------------|-------------------|
Interlude:
--------------------------|-------------------------|
--------------------------|-------------------------|
--------------------------|-------------------------|
--------------------------|-------------------------|
--------------------------|-------------------------|
--0/-------12--0-0-0--11--|--10------9----0--8-8-0--|

---------------------------------|----------|----------------|
---------------------------------|----------|----------------|
----------------5----------------|----------|----------------|
----------------5----------------|----------|----------------|
----------------0----------------|----------|--3r-------3----|
--7-7-0--6-6-0-------------------|----------|----------------|

--------------------------|-------------------------|
--------------------------|-------------------------|
--------------------------|-------------------------|
--------------------------|-------------------------|
--------------------------|-------------------------|
--0/-------12--0-0-0--11--|--10------9----0--8-8-0--|

---------------------------------|----------|
---------------------------------|----------|
----------------5----------------|----------|
----------------5----------------|----------|
----------------0----------------|----------|
--7-7-0--6-6-0-------------------|----------|

--------------------------------------|--------------------------|
--------------------------------------|--------------------------|
--------------------------------------|--------------------------|
--------------------------------------|--------------------------|
--7--7--7--7--6--6--6--5--5--4--4--3--|--------------------------|
--5--5--5--5--4--4--4--3--3--2--2--1--|--0/-------12--0-0-0--11--|

-------------------------|---------------------------------|-------|
-------------------------|---------------------------------|-------|
-------------------------|----------------5----------------|-------|
-------------------------|----------------5----------------|-------|
-------------------------|----------------0----------------|-------|
--10------9----0--8-8-0--|--7-7-0--6-6-0-------------------|----0--|

-----------------------------|--------------------------|
-----------------------------|--------------------------|
-----------------------------|--------------------------|
-----------------------------|--------------------------|
--5/-7--7--7--7/-10--10--10--|--------------------------|
--3/-5--5--5--5/-8---8---8---|--0/-------12--0-0-0--11--|

-------------------------|---------------------------------|
-------------------------|---------------------------------|
-------------------------|----------------5----------------|
-------------------------|----------------5----------------|
-------------------------|----------------0----------------|
--10------9----0--8-8-0--|--7-7-0--6-6-0-------------------|

----------------------||---------------------------|-----------------------
----------------------||---------------------------|-----------------------
----------------------||*--------------------------|-----------------------
----------------------||*--------------------------|-----------------------
----------------------||---------------------------|-----------------------
--3b---3b---3r---3----||---0/-------12--0-0-0--11--|--10------9---0--8-8-0-

---------------||-----------------------------|--------------------------|
---------------||-----------------------------|--------------------------|
--------------*||-----------------------------|--------------------------|
--------------*||-----------------------------|--------------------------|
---------------||--10----------9---8-------7--|--------------------------|
--7-7-0--7/----||--12--0-0-0-0-11--10------9--|----0--8-8-0--7-7-0--7/---|

----------------------------------------------|----------------------------
----------------------------------------------|----------------------------
----------------------------------------------|----------------------------
----------------------------------------------|----------------------------
--10-10-10-10-9--9--9--9--8--8--8--8--7-7-7-7-|-6-6-6-6-5-5-5-5-4-4-4-4-3\-
--12-12-12-12-11-11-11-11-10-10-10-10-9-9-9-9-|-8-8-8-8-7-7-7-7-6-6-6-6-5\-

And then the Solo:
-------------------|--24b---------------|--24b--24b--24b---24b---24b--24b--
-------------------|--------------------|----------------------------------
-------------------|--------------------|----------------------------------
-------------------|--------------------|----------------------------------
-------------------|--------------------|----------------------------------
--2~~~~~~----------|--------------------|----------------------------------

------------------|---------------------|-------------------------------|
------------------|---------------------|------9--11--11r11-11p9-11--9--|
------------------|---------------------|------9--11--11r11-11p9-11--9--|
------------------|---------------------|-------------------------------|
------------------|---------------------|-------------------------------|
------------------|------7--8--9~-------|-------------------------------|

------------------------------|----9--14p9----9-12p9---------9------|
--11-11-11p9-----9~-----12b---|------------14--------12p9-14---12p9-|
--11r11-11p9-----9~-----------|-------------------------------------|
-------------11---------------|-------------------------------------|
------------------------------|-------------------------------------|
------------------------------|-------------------------------------|
                                        
--9------------------------------16----|
----12p9-9-12p9-9----------------------|------------------12-11----11~-----
---------------------------------------|-----------------------------------
---------------------------------------|

----14--17p14-17-17p14--18p14-18p14----14-|
------------------------------------18----|
------------------------------------------|
------------------------------------------|
------------------------------------------|
------------------------------------------|


--19p14----19----14-20p14-20-20----14-21p14-21--|
--------19----19----------------20--------------|
------------------------------------------------|
------------------------------------------------|
------------------------------------------------|
------------------------------------------------|

--14-21p14--22p17----16r16----16----------------|
------------------19-------17----17-14-17-------|
------------------------------------------14-14-|
------------------------------------------------|
------------------------------------------------|
------------------------------------------------|

------------------------------------|----------------------------|
--17p12----12-------12--------12b---|----------9-12p9--12p9-9----|
--------14----11p14----11~----------|-------------------------12p|
------------------------------------|----------------------------|
------------------------------------|----------------------------|
------------------------------------|----------------------------|

------------------------------------|------------------|-------------------
------------------------------------|------------------|--11b--------------
--11-9-11-11-9-11-11--9h11-9--------|------------------|--11---------------
------------------------------11~---|------------------|-------------------
------------------------------------|------------------|-------------------
------------------------------------|------------------|-------------------
                                           Chorus:
--21\---------------|--24~---------------|---------------------|
--------------------|--------------------|---------------------|
--------------------|--------------------|---------------------|
--------------------|--------------------|----------5----7--9--|
--------------------|--------------------|----------5----7--9--|
--------------------|--------------------|----------3----5--7--|
                                                         2x
|---------------------------|----------------------------||
|---------------------------|----------------------------||
|*--7--9--------------7--9--|--------------10--10--9----*||
|*--7--9-----5--7-----7--9--|-----7--9-----10--10--9----*||
|---5--7-----5--7-----5--7--|-----7--9-----8---8---7-----||
|---------0--3--5--0--------|--0--5--7--0----------------||

--------------------------|-------------------------|----------------------
--------------------------|-------------------------|----------------------
--7--9--------------7--9--|--------------7--7--6----|--5--6-----------5--6-
--7--9-----5--7-----7--9--|-----7--9-----7--7--6----|--5--6---3--4----5--6-
--5--7-----5--7-----5--7--|-----7--9-----5--5--4----|--3--4---3--4--- 3--4-
--------0--3--5--0--------|--0--5--7--0-------------|-------0-1--2--0----

-------------------------|--------------------------|----------------------
-------------------------|--------------------------|----------------------
--------------7--7--6----|--5--6--------------5--6--|--------------5--7--9-
-----3--4-----7--7--6----|--5--6-----3--4-----5--6--|-----3--4-----5--7--9-
-----3--4-----5--5--4----|--3--4-----3--4-----3--4--|-----3--4-----3--5--7-
--0--1--2--0-------------|--------0--1--2--0--------|--0--1--2--0----------

--------------------------|---------------------------|
--------------------------|---------------------------|
--7--9--------------7--9--|--------------10--10--9----|
--7--9-----5--7-----7--9--|-----7--9-----10--10--9----|
--5--7-----5--7-----5--7--|-----7--9-----8---8---7----|
--------0--3--5--0--------|--0--5--7--0---------------|

----------------------------------|----------|
----------------------------------|----------|
--7--9--------------7----9\-------|----------|
--7--9-----5--7-----7----9\-------|----------|
--5--7-----5--7-----5----7\-------|----------|
--------0--3--5--0----------------|----------|
                                                                   3x
|---------------------------------|--------------------------------||
|---------------------------------|--------------------------------||
|*--------------------------------|-------------------------------*||
|*--------------------------------|-------------------------------*||
|---------------------------------|--------------------------------||
|---0--0-0-6-0-3-0-0--0-0-6-0-3-0-|--0--0-0-6-0-3-0-0--0-0-1-0-4---||
Outro:
------------------------|-------------------------|------------------------
------------------------|-------------------------|------------------------
------------------------|-------------------------|------------------------
------------------------|-------------------------|------------------------
------------------------|-------------------------|------------------------
---12/15-----14/11------|----10/13------9/12------|-----0/0-----8/11--7/10-

-----------------------|--------------------------|--------------------||
-----------------------|--------------------------|--------------------||
-----------------------|--------------------------|--------------------||
-----------------------|--------------------------|--------------------||
-----------------------|--------------------------|--------------------||
--6/9----5/8----3/6----|--3/6----1/4---1/4---1/4--|--1/4---1/4---0\3---||

4.YOU'VE GOT TO BELONG TO IT

Intro:
e|-------------------------------------------|
B|-------------------------------------------|
G|-------------------------------------------|
D|-------------------------------------------|
A|-------------------------------------------|
E|---3br---3br---3br---3br---3br---3br-------|

Main Riff:                              
e|-------------------17-14---------------||---0/---||---17\---||
B|-------------------------17-14---------||---0/---||---17\---||
G|-------------------------------17-16---||--------||---------||
D|---------------------------------------||--------||---------||
A|---------------------------------------||--------||---------||
E|----2-2-2-2-2-2------------------------||--------||---------||
pm   ------------

Verse:
e|-------------------------------------------|
B|-------------------------------------------|
G|-----------------------------11b-11b--6b---|
D|-----------------------------11b-11b--6b---|
A|---4----4--7--4----------------------------|
E|---2----2--5--2----------------------------|
pm  --------------

Chorus 1:                           End Chorus
e|----------------------------------||----------------||
B|----------------------------------||----------------||
G|----------------------------------||----------------||
D|----------------------------------||----------------||
A|----------------------------------||---5--6--6--8---||
E|---5br--5br--5br--5br--5br-6br----||---3--4--4--6---||
pm                                      ------------                                         
Chorus 2:                           End Chorus
e|----------------------------------||----------------||
B|----------------------------------||----------------||
G|----------------------------------||----------------||
D|----------------------------------||----------------||
A|----------------------------------||---5--6--6--8---||
E|---7br--7br--7br--7br--7br-8br----||---3--4--4--6---||
pm                                      ------------ 
                                        
Bridge 1:                      Bridge 2:
e|---------------------------||------------------------------------|
B|---------------------------||------------------------------------|
G|---------------------------||------------------------------------|
D|---------------------------||----------------------4b--4b--------|
A|---4---4---4-4---4-4-4-4---||------------------------------3br---|
E|---2---2---2-2---2-2-2-2---||----2--2--2--5--2--2----------------|
pm  ------------------------------------------------

e|--------------------------------||
B|--------------------------------||
G|--------------------------------||
D|------------------4b--4b--------||
A|---4-----x--x--x----------3br---||
E|---2-----x--x--x----------------||
pm   --------------

Outro:
e|-----------------17-14--------------|----------------17-14--------------|
B|-----------------------17-14--------|----------------------17-14--------|
G|-----------------------------17-16--|----------------------------17-16--|
D|------------------------------------|-----------------------------------|
A|------------------------------------|-----------------------------------|
E|---2---2-2-2-2----------------------|--2-2-2-2-2-2----------------------|
pm  -------------                        -----------
                                      
e|-----------------17-14--------------||----12------15---||---24~~~~~~---||
B|-----------------------17-14--------||----12------15---||--------------||
G|-----------------------------17-16--||-----------------||--------------||
D|------------------------------------||-----------------||--------------||
A|------------------------------------||-----------------||--------------||
E|---2-2-2-2-2-2----------------------||-----------------||--------------||
pm  -------------   (use pinched harmonics for this bit)



End bit
e|-----------------------|
B|-----------------------|
G|-----------------------|
D|-----------------------|
A|---4----8----11---4----|
E|---2----6----9----2----|

5.REVOLUTION IS MY NAME

a.h...........................
|------------------------------------------------------------------------------|
|------------------------------------------------------------------------------|
|---------8b------8b-----------------------------------------------------------|
|-----------------------8b-----------------------------------------------------|
|----/6b------6b------------7b-------------------------------------------------|
|-0-----------------------------6b---1---0-------------------------------------|


gtrs 1-3 play intro 3 times


gtrs. 1 and 2

                  grad. 1.5 step bend
    a.h............
|------------------------------------------------------------------------------|
|------------------------------------------------------------------------------|
|---------8b------8b-----------------------------------------------------------|
|------------------------------------------------------------------------------|
|---/6b-------6b---------------------------------------------------------------|
|-0----------------------------------------------------------------------------|


gtr. 3            grad. 1.5 step bend, held for next 4 measures
   a.h.............
|------------------------------------------------------------------------------|
|------------------------------------------------------------------------------|
|---------8b------8b------(8)--------------(8)-------------(8)-----------------|
|------------------------------------------------------------------------------|
|---/6b-------6b---------------------------------------------------------------|
|-0----------------------------------------------------------------------------|

gtrs. 1 and 2 w/ intro riff 1 4 more times


main riff (gtrs. 1 and 2, wah and chorus off)

p.m..................................                            
|------------------------------------------------------------------------------|
|------------------------------------------------------------------------------|
|------------------------------------------------------------------------------|
|------------------------------------------------------------------------------|
|---------------------------------------7p5----7-----5-------------------------|
|--0--0--0--0--0--0--0--0--0--0--0--0--------7-----7----7--6--5---3--5--3------|

p.m..........................            a.h.                 a.h.
|------------------------------------------------------------------------------|
|------------------------------------------------------------------------------|
|------------------------------------------------------------------------------|
|-----------------------------------------5b-------------------5b--------------|
|--------------------------------7p5------------7p5---7p5-----------7p5--------|
|--0----0----0----0----0----0----------7-------------------7-------------------|

p.m..................................                            
|------------------------------------------------------------------------------|
|------------------------------------------------------------------------------|
|------------------------------------------------------------------------------|
|------------------------------------------------------------------------------|
|---------------------------------------7p5----7-----5-------------------------|
|--0--0--0--0--0--0--0--0--0--0--0--0--------7-----7----7--6--5---3--5--3------|

p.m..........................
|------------------------------------------------------------------------------|
|------------------------------------------------------------------------------|
|------------------------------------------------------------------------------|
|--------------------------------5----8---(8)\---------------------------------|
|--------------------------------3----6---(6)\---------------------------------|
|--0----0----0----0----0----0----3----6---(6)\---------------------------------|



verse (play 4x)

p.m............................................................
|------------------------------------------------------------------------------|
|------------------------------------------------------------------------------|
|------------------------------------------------------------------------------|
|-------------------------------------------------------------------5\4--4--4\3|
|-------------------------------------------------------------------5\4--4--4\3|
|--0--6--0--3----5--0--6--0--3----5--0--6--0--3----5--0--6--0--3----3\2--2--2\1|



pre-chorus

p.m............................................................
|-------------------------------------------------------------------------------|
|-------------------------------------------------------------------------------|
|-------------------------------------------------------------------------------|
|--------------------------------------------------------------------5\4--4--4\3|
|--------------------------------------------------------------------5\4--4--4\3|
|--0--6--0--3--0--5--0--6--0--3--0--5--0--6--0--3--0--5--0--6--0--3--3\2--2--2\1|

p.m............................................................
|------------------------------------------------------------------------------|
|------------------------------------------------------------------------------|
|------------------------------------------------------------------------------|
|-------------------------------------------------------------------5\4--4--4\3|
|-------------------------------------------------------------------5\4--4--4\3|
|--0--6--0--3----5--0--6--0--3----5--0--6--0--3----5--0--6--0--3----3\2--2--2\1|

p.m............................................................
|-------------------------------------------------------------------------------|
|-------------------------------------------------------------------------------|
|-------------------------------------------------------------------------------|
|--------------------------------------------------------------------5\4--4--4\3|
|--------------------------------------------------------------------5\4--4--4\3|
|--0--6--0--3--0--5--0--6--0--3--0--5--0--6--0--3--0--5--0--6--0--3--3\2--2--2\1|

p.m............................
|------------------------------------------------------------------------------|
|------------------------------------------------------------------------------|
|------------------------------------------------------------------------------|
|---------------------------------5----8--8--8---------------------------------|
|---------------------------------3----6--6--6---------------------------------|
|--0--6--0--3----5--0--6--0--3----3----6--6--6---------------------------------|




chorus
|------------------------------------------------------------------------------|
|------------------------------------------------------------------------------|
|------------------------------------------------------------------------------|
|------------------------------------------------------------------------------|
|-------5--7--8--7~~---------5--7--8--7~~--------------------------------------|
|--0--------------------0------------------1--1--0-----------------------------|

|------------------------------------------------------------------------------|
|------------------------------------------------------------------------------|
|------------------------------------------------------------------------------|
|------------------------------------------------------------------------------|
|-------5--7--8--7~~---------5--7--8--7~~--------------------------------------|
|--0--------------------0------------------1--1--0-----------------------------|

|------------------------------------------------------------------------------|
|------------------------------------------------------------------------------|
|------------------------------------------------------------------------------|
|-------------8--------------------8-------------------------------------------|
|-------5--7-----------------5--7----------------------------------------------|
|--0-------------6~~----0-------------6~~--1--1--0-----------------------------|

|------------------------------------------------------------------------------|
|------------------------------------------------------------------------------|
|------------------------------------------------------------------------------|
|-------------8--------------------8-------------------------------------------|
|-------5--7-----------------5--7----------8----7----6----5--------------------|
|--0-------------6~~----0-------------6~~--6----5----4----3--------------------|



solo 1

gtr. 1
|------------------------------------------------------------------------------|
|------------------------------------------------------------------------------|
|------------------------------------------------------------------------------|
|----------4p2h4-----------------------------4p2---4/6---7p6---7/9---9b~~~~----|
|-----------------4p3h4---1-0-1~~----------------------------------------------|
|--2---2-----------------------------2---2-------------------------------------|


gtr. 1
|------------------------------------------------------------------------------|
|------------------------------------------------------------------------------|
|------------------------------------------------------------------------------|
|----------4p2h4-----------------------------4p2---4/6---7p6---7/9---9b~~~~----|
|-----------------4p3h4---1-0-1~~----------------------------------------------|
|--2---2-----------------------------2---2-------------------------------------|
gtr.2
|------------------------------------------------------------------------------|
|------------------------------------------------------------------------------|
|----------3p2-2~----------------------------3p2---3/4---6p4---6/8---8b~~~~----|
|-----------------4p3-4--------------------------------------------------------|
|-------------------------4p3-4~~----------------------------------------------|
|--2---2-----------------------------2---2-------------------------------------|


gtrs. 1 and 2                                    a.h.         a.h.  
|------------------------------------------------------------------------------|
|------------------------------------------------------------------------------|
|--------------------------------------------------------------------------5---|
|--5h7--5h7--7--5-----7-----5b-------------------------------------------------|
|--0----0----------7-----7------7--6--5--3--5--3--5b--5--5p3-------------------|
|--------------------------------------------------------------4b~~------------|

|---5----5----8p7p5--7p5-----5--------------------------------------------5--6-|
|--5----5----5------8----8p7---8p7p5-8p7p5--7p5----5----------------------8b-9b|
|7b---7b---7b-----------------------------8----8p7---8p7p5-8p7p5---5h7p5-------|
|-----------------------------------------------------------------7------------|
|------------------------------------------------------------------------------|
|------------------------------------------------------------------------------|


gtrs. 1 and 2 w/ maif riff

then verse (play 4x)

pre-chorus

chorus


solo 2

|------------------------------------------------------------------------------|
|------------------------------------------------------------------------------|
|------------------------------------------------------------------------------|
|----------4p2h4-----------------------------4p2---4/6---7p6---7/9---9b~~~~----|
|-----------------4p3h4---1-0-1~~----------------------------------------------|
|--2---2-----------------------------2---2-------------------------------------|


gtr. 1
|------------------------------------------------------------------------------|
|------------------------------------------------------------------------------|
|------------------------------------------------------------------------------|
|----------4p2h4-----------------------------4p2---4/6---7p6---7/9---9b~~~~----|
|-----------------4p3h4---1-0-1~~----------------------------------------------|
|--2---2-----------------------------2---2-------------------------------------|
gtr.2
|------------------------------------------------------------------------------|
|------------------------------------------------------------------------------|
|----------3p2-2~----------------------------2p1---2/4---6p4---6b~~~~~~~~~~~---|
|-----------------4p3-4--------------------------------------------------------|
|-------------------------4p3-4~~----------------------------------------------|
|--2---2-----------------------------2---2-------------------------------------|


gtr.1
|----------------------------|
|----------------------------|
|---------5/4----------------|
|-/7~~~~------5/3--2h3-------|
|----------------------3~~~~-|
|----------------------------|
gtr.2
|----------------------------|
|----------------------------|
|---------9/7----------------|
|-/5~~~~------9/7--5h7-------|
|----------------------7~~~~-|
|----------------------------|


both gtrs.
|------------5---------------8p7p5---5----5--8p7p5---5----5--8p7p5----5--------|
|-----------5--5-8b-8b-(8)\--------8---8b----------8---8b-----------8---8b-----|
|------5--7b-------------------------------------------------------------------|
|--/7--------------------------------------------------------------------------|
|------------------------------------------------------------------------------|
|------------------------------------------------------------------------------|

|5----5----5----5----5-----5---------------------------------------------------|
|--8b---8b---8b---8b---8b--x-5h8p5h8---5-------------------------------6-7-6-7~|
|------------------------------------8---8p7p5---5~~-----------6-7-6-7---------|
|----------------------------------------------7--------/9-8-9-----------------|
|------------------------------------------------------------------------------|
|------------------------------------------------------------------------------|

|------------------------------------------------------------------------------|
|-7h8p7p6--7p6---6--7p6---7----------------------------------------------------|
|--------------9--------9---9-7-6---7-6-----6----------------------------------|
|---------------------------------9-----9-7---9-7-6--9-7-6---7-6---------------|
|----------------------------------------------------------9-----9--7----------|
|------------------------------------------------------------------------------|

|------------------------------------------------------------------------------|
|----------------------------------------9~~----11b--11~-11~-9--11--9b~--------|
|----------------------------------------9~~----11b--11~-11~-9--11--9b~--------|
|-----------------------------9--10--11----------------------------------------|
|-------7--9------10------11---------------------------------------------------|
|--9~~-------------------------------------------------------------------------|


gtr.1                  
|-12--9------------------15--12------------------18--15-----------------18b~~~-|
|--------11------11--------------14------14--------------17------17------------|
|------------12b----12b--------------15b----15b--------------18b----18b--------|
|------------------------------------------------------------------------------|
|------------------------------------------------------------------------------|
|------------------------------------------------------------------------------|
gtr.2
|-9---6------------------12--9--------------------15--12----------------15b~~~-|
|---------8------8---------------11-------14--------------14------14-----------|
|------------9b-----9b----------------15b----15b--------------15b----15b-------|
|------------------------------------------------------------------------------|
|------------------------------------------------------------------------------|
|------------------------------------------------------------------------------|



interlude:

gtrs.1 and 2                            2x
           a.h.
|----------------------------------------|
|-----------9b-10---------9b-----10b--9b-|
|-----------9b-10---------9b-----10b--9b-|
|-----------X--X----------X------X-------|
|-----------X--X----------X------X-------|
|--0--0--0----------0--0------0----------|

p.m......                               4x
|----------------------------------------|
|----------------------------------------|
|----------------------------------------|
|----------------------------------------|
|-----------5-(5)--7--2-(2)--5----/9---8-|
|--0--0--0--3-(3)--5--0-(0)--3--0-/7---6-|

a.h...........................................................................
|------------------------------------------------------------------------------|
|------------------------------------------------------------------------------|
|--9h10p10p7--9--7-------------------------------------------------------------|
|-------------------9-8-7-5--7h8p7p5--7--5-------------------------------------|
|-------------------------------------------7-6-5-3--5h6p5p3--5--3-------------|
|-------------------------------------------------------------------5--4--3--1-|


gtrs. 1 and 2 w/ interlude 2x

then...

p.m..................................                            
|------------------------------------------------------------------------------|
|------------------------------------------------------------------------------|
|------------------------------------------------------------------------------|
|------------------------------------------------------------------------------|
|---------------------------------------7p5----7-----5-------------------------|
|--0--0--0--0--0--0--0--0--0--0--0--0--------7-----7----7--6--5---3--5--3------|

p.m..........................
|------------------------------------------------------------------------------|
|------------------------------------------------------------------------------|
|------------------------------------------------------------------------------|
|--------------------------------5--------8-----8-----8----2-------------------|
|--2----2----2----2----2----2----3--------6-----6-----6----2-------------------|
|--0----0----0----0----0----0----3--------6-----6-----6----0-------------------|


outro chorus

|------------------------------------------------------------------------------|
|------------------------------------------------------------------------------|
|------------------------------------------------------------------------------|
|------------------------------------------------------------------------------|
|-------5--7--8--7~~---------5--7--8--7~~--------------------------------------|
|--0--------------------0------------------1--1--0-----------------------------|

|------------------------------------------------------------------------------|
|------------------------------------------------------------------------------|
|------------------------------------------------------------------------------|
|------------------------------------------------------------------------------|
|-------5--7--8--7~~---------5--7--8--7~~--------------------------------------|
|--0--------------------0------------------1--1--0-----------------------------|

|------------------------------------------------------------------------------|
|------------------------------------------------------------------------------|
|------------------------------------------------------------------------------|
|-------------8--------------------8-------------------------------------------|
|-------5--7-----------------5--7----------------------------------------------|
|--0-------------6~~----0-------------6~~--1--1--0-----------------------------|

|------------------------------------------------------------------------------|
|------------------------------------------------------------------------------|
|------------------------------------------------------------------------------|
|-------------8--------------------8-------------------------------------------|
|-------5--7-----------------5--7------------------8--------7--------5-------3-|
|--0-------------6~~----0-------------6~~----6--6-----5--5-----3--3-----1--1---|

|------------------------------------------------------------------------------|
|------------------------------------------------------------------------------|
|------------------------------------------------------------------------------|
|------------------------------------------------------------------------------|
|-------5--7--8--7~~---------5--7--8--7~~--------------------------------------|
|--0--------------------0------------------1--1--0-----------------------------|

|------------------------------------------------------------------------------|
|------------------------------------------------------------------------------|
|------------------------------------------------------------------------------|
|------------------------------------------------------------------------------|
|-------5--7--8--7~~---------5--7--8--7~~--------------------------------------|
|--0--------------------0------------------1--1--0-----------------------------|

|------------------------------------------------------------------------------|
|------------------------------------------------------------------------------|
|------------------------------------------------------------------------------|
|-------------8--------------------8-------------------------------------------|
|-------5--7-----------------5--7----------------------------------------------|
|--0-------------6~~----0-------------6~~--1--1--0-----------------------------|

|---------------------------------------------------------------------|
|---------------------------------------------------------------------|
|---------------------------------------------------------------------|
|-------------8--------------------8----------------------------------|
|-------5--7-----------------5--7-----------0----8----7----5----3--2--|
|--0-------------6~~----0-------------6~~--------6----5----3----1--0--|


6.DEATH RATTLE

Tune Down 1 1/4 Step

Riff 1

D -------------------------------
A -------------------------------
F -------------------------------
C -2-2-5-5-7-7--7-2-2-5-5-7-7--7-
G -2-2-5-5-7-7--7-2-2-5-5-7-7--7-
D -0-0-3-3-5-5--5-0-0-3-3-5-5--5-

Riff 1A

D ------------------------
A ------------------------
F ------------------------
C -2-2-5-5-7-7--7-2-2-5-5-
G -2-2-5-5-7-7--7-2-2-5-5-
D -0-0-3-3-5-5--5-0-0-3-3-

Riff 2

D ----------------------------
A ----------------------------
F ----------------------------
C -7\6/7--6\5/6--5\4/5--4\3/4-
G -7\6/7--6\5/6--5\4/5--4\3/4-
D -5\4/5--4\3/4--3\2/3--2\1/2-

Riff 3

D ----------------------------------------------------------------------------------------
A ----------------------------------------------------------------------------------------
F -------------------------------------------------------------10-------------------------
C -----------------------------/8------------------------------10-------------------------
G ---------5-7---7-8---5-7-----/8----------5-7---7-8---5-7-----8 ----------5-7---7-8---5-7
D -0-0-0-0-----0-----0-----0-0-/6--0-0-0-0-----0-----0-----0-0-8 --0-0-0-0-----0-----0----

D -----------------------------------------
A -----------------------------------------
F -----------------------------------------
C -----/6----------------------------------
G -----/6----------5-7----3-5---2-3-0------
D -0-0-/4--0-0-0-0-----0------0-------3-1--

Riff 3A

D ----------------------------------------------------------------------------------------------------
A -------------------------------------------------------------------------------------------------1b-
F -------------------------------------------------------------10----------------------------------1b-
C -----------------------------/8------------------------------10------------------------------/6-----
G ---------5-7---7-8---5-7-----/8----------5-7---7-8---5-7-----8 ----------5-7---7-8---5-7-----/6-----
D -0-0-0-0-----0-----0-----0-0-/6--0-0-0-0-----0-----0-----0-0-8 --0-0-0-0-----0-----0-----0-0-/4-----

Riff 4

D ----------------------------------------------------------------
A ----------------------------------------------------------------
F ----------------------------------------------------------------
C ----------------------------------------------------------------
G -----------------------------------------------5-7---3-5-2-3----
D -0-0-0-0-0-0-0-0-0-0-0-0-0-0-0-0-0-0-0-0-0-0-0-----0---------4==

Riff 5

D -------------------------------------------------------------
A -------------------------------------------------------------
F -------------------------------------------------------------
C -------------------------------------------------------------
G -------5-7---3-5-0-2----0-2----------5-7---3-5-0-2----0------
D -0-0-0-----0---------3==----3==0-0-0-----0---------3==--3-1==

Riff 5A

D -------------------------------------------------------------
A -------------------------------------------------------------
F -------------------------------------------------------------
C -------4-5---2-4---------------------4-5---2-4---------------
G -----------------0-2----0-2--------------------0-2----0------
D -0-0-0-----0---------3==----3==0-0-0-----0---------3==--3-1==

Riff 6

D -----------------------------------------------------------------------------------------------------
A -----------------------------------------------------------------------------------------------------
F ---------------------------------------------------------------------6--5---------------------6--5---
C ---2--2--2------2--8--7-----2--2--2------2--8--7-----5--5--5------5--6--5-----5--5--5------5--6--5---
G ---2--2--2------2--8--7-----2--2--2------2--8--7-----5--5--5------5--4--3-----5--5--5------5--4--3---
D -3-0--0--0--0-3-0--6--5---3-0--0--0--0-3-0--6--5---6-3--3--3--3-6-3---------6-3--3--3--3-6-3---------

D ---------------------------------------------------------------------------------------------------------
A -------------------4--3---------------------4--3---------------------------------------------------------
F ---2--2--2------2--3--2-----2--2--2---------3--2-----3--3--3------4--4--4--------------------------------
C ---2--2--2------2--1--0-----2--2--2---------1--0-----3--3--3------4--4--4----1------2------3------4------
G -3-0--0--0--0-3-0---------3-0--0--0--0-3-0---------4-1--1--1--1-5-2--2--2--2---3--3---4--4---5--5---6--6-
D ---------------------------------------------------------------------------------------------------------

Riff 7

D -------------------------------------------------------------------------------------------------
A -------------------------------------------------------------------------------------------------
F -------------------------------------------------------------------------------------------------
C -------------------------------------------------------------------7-----6-----5-----4-----3---3-
G ---7-----6-----5-----4-----3---3---8-----7-----6-----5-----4---4-0---8-5---7-5---6-5---5-5---4---
D -0---8-5---7-5---6-5---5-5---4---0---7-5---6-5---5-5---4-5---3-----------------------------------

D ---------------------------------
A ---------------------------------
F ---------------------------------
C ---------------------------------
G -0-7-----6-----5-----4-----3---3-
D -----8-5---7-5---6-5---5-5---4---

Riff 8

D --------------------------
A --------------------------
F --------------------------
C ---2--2--2--2------8--7---
G ---2--2--2--2------8--7---
D -3-0--0--0--0-3-0--6--5---

Riff 8A

D ----------------------------
A ----------------------------
F ----------------------------
C ---2--2--2--2------8--7---2-
G ---2--2--2--2------8--7---2-
D -3-0--0--0--0-3-0--6--5---0-

7.WE'LL GRIND THAT AXE FOR A LONG TIME

Intro:

--------------------
--------------------
--------------------
--5-/-6---3-/-4--2--
--5-/-6---3-/-4--2--
--3-/-4---1-/-2--0--

Verse:

--------------------------------------------------------
--------------------------------------------------------
--------------------------------------------------------
--7-/-8---5-/-6--2--------5-/-6---3-/-4--1--------------
--7-/-8---5-/-6--2--------5-/-6---3-/-4--1--------------
--5-/-6---3-/-4--0--0-0---3-/-4---1-/-2--0--0-0---------
                    * *                     * *

8.UPLIFT

 4/4
   Gtr I
|--------------|--------------|--------------|-------------------|-|
|--------------|--------------|--------------|-------------------|-|
|--------------|--------------|--------------|-------------------|-|
|--------------|--------------|--------------|-------------------|-|
|--------------|--------------|--------------|-------------------|-|
|-3p0-3p0-8p5--|-3p0-3p0-8p5--|-3p0-3p0-8p5--|-0-5p0-4p0-3p0-1p0-|-|


  4/4
   Gtr I
|--------------|--------------|--------------|-------------------|-|
|--------------|--------------|--------------|-------------------|-|
|--------------|--------------|--------------|-------------------|-|
|--------------|--------------|--------------|-------------------|-|
|--------------|--------------|--------------|-------------------|-|
|-3p0-3p0-8p5--|-3p0-3p0-8p5--|-3p0-3p0-8p5--|-0-5p0-4p0-3p0-1p0-|-|


  4/4
   Gtr I
|--------------|--------------|--------------|-------------------|-|
|--------------|--------------|--------------|-------------------|-|
|--------------|--------------|--------------|-------------------|-|
|--------------|--------------|--------------|-------------------|-|
|--------------|--------------|--------------|-------------------|-|
|-3p0-3p0-8p5--|-3p0-3p0-8p5--|-3p0-3p0-8p5--|-0-5p0-4p0-3p0-1p0-|-|


  4/4
   Gtr I
|-------------|-------------|-------------|
|-------------|-------------|-------------|
|-------------|-------------|-------------|
|-------------|-------------|-------------|
|-------------|-------------|-------------|
|-3p0-3p0-8p5-|-3p0-3p0-8p5-|-3p0-3p0-8p5-|


|-------------------|---------------|-|
|-------------------|---------------|-|
|-------------------|---------------|-|
|-------------------|---------------|-|
|-------------------|-7-6-5--3-4-5--|-|
|-0-5p0-4p0-3p0-1p0-|-7S6S5--3S4S5--|-|


|-----------|-----------|---------|-------------------|--------------|
|-----------|-----------|---------|-------------------|--------------|
|-----------|-----------|---------|-------------------|--------------|
|-----------|-----------|---------|-------------------|--------------|
|-0-0-0-0-2-|-0-0-0-2-0-|-0-0-2-0-|--0--0-0-0-2-0-0-0-|-2-0-0-0-2-0--|
|-0-0-0-0h2-|-0-0-0h2-0-|-0-0h2-0-|--0--0-0-0h2-0-0-0h|=2-0-0-0h2-0--|


|-----------|-----------|---------|-------------------|--------------|
|-----------|-----------|---------|-------------------|--------------|
|-----------|-----------|---------|-------------------|--------------|
|-----------|-----------|---------|-------------------|--------------|
|-0-0-0-0-2-|-0-0-0-2-0-|-0-0-2-0-|--0--0-0-0-2-0-0-0-|-2-0-0-0-2-0--|
|-0-0-0-0h2-|-0-0-0h2-0-|-0-0h2-0-|--0--0-0-0h2-0-0-0h|=2-0-0-0h2-0--|


|-|
|-|
|-|
|-|
|-|
|-|

9.IT MAKES THEM DISAPPEAR

Tune To Drop D Down 1 1/4 Step

Riff 1

D ---------------0-----5-4-----
A ---------0-------0-------6-5-
F -----2-----2-------2---------
C ---3---------3---------------
G -5-----5---------------------
C -----------------------------

Riff 2

D -------------------------------------------------------------------------------------
A -------------------------------------------------------------------------------------
F -------------------------------------------------------------------------------------
C -0-------------------0------------------------0-------------------0------------------
G -0-------------------0--------8-7-4b5-4b5-4b5-0-------------------0----8----4--------
C -0--------6-5-3======0------------------------0--------6-5-3======0------------------

Riff 3

D -----------------------------------------------------------------------------
A -----------------------------------------------------------------------------
F -----------------------------------------------------------------------------
C -----------------------------------------------------------------------------
G -0-66-0-0-33-0-0-55-0-0-11-0-44-0-11-0-0-66-0-0-33-0-0-55-0-0-11-0-33-0-11-0-
C -0-66-0-0-33-0-0-55-0-0-11-0-44-0-11-0-0-66-0-0-33-0-0-55-0-0-11-0-33-0-11-0-

Riff 4

D ---------------------------------
A ---------------------------------
F ---------------------------------
C -0-1-1-1-0-0-0-1-1-1-0-0-X-X-X-X-
G -0-1-1-1-0-0-0-1-1-1-0-0-X-X-X-X-
C -0-1-1-1-0-0-0-1-1-1-0-0-X-X-X-X-

Riff 4A 

D ------------------------------
A ------------------------------
F ------------------------------
C -0-1-1-1-0-0-0-1-1-1-0-0-0----
G -0-1-1-1-0-0-0-1-1-1-0-0-0----
C -0-1-1-1-0-0-0-1-1-1-0-0-0----

Riff 5

D --------------------------------------------------
A --------------------------------------------------
F --------------------------------------------------
C ------------------------------------------1--1--1-
G ------------------------------------------1--1--1-
C -0-6\-0-0-4-1-0-6\-0-0-4-1-0-6\-0-0-4-1-0-1--1--1-

Riff 5A

D -----------------------------------------------------
A -----------------------------------------------------
F -----------------------------------------------------
C ------------------------------------------1--1--1--0-
G ------------------------------------------1--1--1--0-
C -0-6\-0-0-4-1-0-6\-0-0-4-1-0-6\-0-0-4-1-0-1--1--1--0-


Riff 6

D -----------------------------------------------------------------------------------------
A ----------5t6-----------------5t6-----------------5t6------------------12------12----12--
F -----------------------------------------------------------------------10------10----10--
C -0-------------------0-------------------0-------------------0---------------------------
G -0-------------------0-------------------0-------------------0---------------------------
C -0-------------------0-------------------0-------------------0-----0-0-----0-0-----0-----

Riff 7

D -----------------------------------------------------------------------------------------------
A -----------------------------------------------------------------------------------------------
F -----------------------------------------------------------------------------------------------
C -0-----12-----8-----8-----10-----10-----3---5---0-----12-----8-----8-----10-----10-----5---3---
G -0-----12-----8-----8-----10-----10-----3---5---0-----12-----8-----8-----10-----10-----5---3---
C -0-0-0-12-0-0-8-0-0-8-0-0-10-0-0-10-0-0-3---5---0-0-0-12-0-0-8-0-0-8-0-0-10-0-0-10-0-0-5---3---

Riff 7A

D ---------------------------------------------------------------------------------------------------------
A -13b15-13-10-------------------15-14-13-13-11-13-13-12-11-10------13b15-13-10-------------------15-14-13-
F -------------14-13-12-15-14-15----------------------------10------------------14-13-12-15-14-15----------
C ---------------------------------------------------------------------------------------------------------
G ---------------------------------------------------------------------------------------------------------
C ---------------------------------------------------------------------------------------------------------

D ----------------------------
A -13---13-15-14-13-15---13---
F ----0-------------0----0----
C ----------------------------
G ----------------------------
C ----------------------------

10.I'LL CAST A SHADOW

Drop D down 1 step

Intro
  p.m......   .....  ..  3x .....      Uh!
|--------------------------|-------------|
|--------------------------|-------------|
|----------10-------7---7--|------8~~~~--|
|----------10-------7---7--|------8~~~~--|
|----------8--------5---5--|------6~~~~--|
|--0-0-0-0----0-0-0---0----|--0-0--------|

Chorus                 __________________________________________________
p.m........  .......   1.                      | 2.                      |
|----------------------------------------------|-------------------------|
|----------------------------------------------|-------------------------|
|----------10-------7---------3----------------|----------------------3--|
|----------10-------7-------3------------------|--------------------3----|
|----------8--------5-----1---------3--5p3-----|------3--5p3------1------|
|--0-0-0-0----0-0-0---0-3-------3/5--------5~~-|--3/5--------5--3--------|

Verse pt.1
          p.m...                    p.m...
|------------------------------------------------------|
|------------------------------------------------------|
|------------------------------------------------------|
|------------------------------------------------------|
|--3--0-3--0-3-0--/8--6------3--0-3--0-3-0--/8--6--9~--|
|--3--0-3--0-3-0--/8--6------3--0-3--0-3-0--/8--6--9~--|

Fill 1
|--------------------|
|--------------------|
|--------------------|
|--------------------|
|--8--6--8--6--8--6--|
|--8--6--8--6--8--6--|

Verse pt.2
                                                      2x     pick sl.
|------------------------------------------------------|------------|
|------------------------------------------------------|------------|
|------------------------------------------------------|------------|
|------------------------------------------------------|------------|
|--3--0-3--0-3-0--/8--6------3--0-3--0-3-0--/8--6--9~--|--1-----x\--|
|--3--0-3--0-3-0--/8--6------3--0-3--0-3-0--/8--6--9~--|--1-----x\--|

Interlude pt 1
n.h................2x..................2x..................2x
|-------------------|-------------------|-------------------|
|-------------------|-------------------|-------------------|
|-------------------|-------------------|-------------------|
|-------------------|-------------------|--5---5---5---5----|
|-------------------|--5---5---5---5----|----4---4---4---4--|
|--5-5-5-5-5-5-5-5--|----4---4---4---4--|-------------------|

Breakdown
p.m....................................4x
|--------------------------------------|
|--------------------------------------|
|--------------------------------------|
|--0--3--5--6--5--0--3--5--0--1--3--0--|
|--0--3--5--6--5--0--3--5--0--1--3--0--|
|--0--3--5--6--5--0--3--5--0--1--3--0--|

Breakdown cont'd                       4x
|--------------------------------------|
|--------------------------------------|
|--------------------------------------|
|--0--3--5--6--5--0--3--5--0--1--3--0--|
|--0--3--5--6--5--0--3--5--0--1--3--0--|
|--0--3--5--6--5--0--3--5--0--1--3--0--|

Interlude pt. 2
n.h................2x..................2x
|-------------------|-------------------|
|-------------------|-------------------|
|-------------------|-------------------|
|-------------------|--5---5---5---5----|
|--5---5---5---5----|----4---4---4---4--|
|----4---4---4---4--|-------------------|

Pre-Outro
p.m....................
|-----------------------|
|-----------------------|
|-----------------------|
|-----------------------|
|--9-8-7-6-5-4-3-2-1-0--|
|--9-8-7-6-5-4-3-2-1-0--|

Outro
                 3x
|-----------------|------|
|-----------------|------|
|-----------------|------|
|-----------------|------|
|----5--8p5---8~~-|------|
|--0--------7-----|--7b~-|

Gtr.2

|--22~--17~--18~--13~--------22~--18~--20~--17~-----|
|---------------------14~-----------------------18~-|
|---------------------------------------------------|
|---------------------------------------------------|
|---------------------------------------------------|
|---------------------------------------------------|


Dimebag is a god up there.
comments
We did not receive enough feedback on this tab! Please rate:
1 2 3 4 5
1 comment total.
0 reply
AngusYoung II wrote on May 24 2006, 03:44 am

Legends Never Die (1966 - 2004 R.I.P Darrell "Dimebag" Abbott)

I want to post or [tab]
guest
You may want to rate the tab now too:
select rating
Please do not post tabs as comments. Select "correction" instead!