Oops, an error
Loading. Please wait.

Rhino Hi-Five Tab

1,424 views 6 this week
no commentswrite comment
1 2 3 4 5
please rate
Autoscroll
+/-
esc
set tempo
stop
Contributor
Hey! There's an official Ultimate Guitar app which is ideal
for learning songs when you're away from computer. Get the app
WARNING: You are trying to view
                                    content from Ultimate-Guitar.com
                                    in an unauthorized application,
                                    which is prohibited.

                                    Please use an official Ultimate
                                    Guitar Tabs application for iPhone,
                                    iPad or Android to access legitimate
                                    chords, guitar, bass, and drum tabs
                                    from Ultimate-Guitar.com database.

                                    Type "ultimate guitar tabs" in Apple
                                    App Store's or Android Market's
                                    search to find the application.
i took other tabs and put this together

 Planet Caravan


GUITAR                                              [repeat thruout; fade]
     Em(/9)        .                     "DM6/11" [sic: GM7/D]

||----------------0-------0====-------|------------------------------------||
||----------------0-------0====-------|---------------0============--------||
||o---------------0-------0====-------|-----------0============---0---2*--o||
||o------------5----------4====---2---|-------4============---4====-------o||
||---------2--------------------------|--/5============---5========--------||
||----0============================---|------------------------------------||
||                                                                         ||
||    1   &   2   &   3   &   4   &       1   &   2   &   3   &   4   &    ||
|| BASS PART                                                               ||
||--------------------------------7---|------------------------------------||
||o---------------------------7h9-----|-------------------(7b)8 r7---5----o||
||o---7-------%---7-------7-----------|---5-------%---5-------------------o||
||------------------------------------|------------------------------------||
                                                           ^^^^^^^^^^^^^
 . : staccato (cut short--first Em chord)  in Pantera version this arpeggio
is let ring
 * : slight bend [my own "add"?--as may be "2->4" slide in 1st measure]
 % : eighth-note rest
 r : "return" of bend
 ====: hold tone thru count (legato arpeggio)
 ^^^^: occasional variations at this point (listen to recording)
  
 ________
 LEAD . . .

                                                                      gliss
||-------------------------------------------------------~--------------~----|
||------------------------------------------1/4------------------------------|
||--------------------------h-p-p----------b---------------------------------|
||-4----------------5-7----7-8-7-5---7-5---5--------p-----------5\4----------|
||----5--7----/7-----------------------------------7-5---7--5/7------5--7\---|
||---------------------------------------------------------------------------|

                                               
|---------------------------------~-------------------------p----------------|
|--------------------------------------------------------7-8-7--5-7----------|
|------------------------------------------------------x-------------7\6-----|
|------5-7--8\7---8\7--8\7---5----5-------5-4---------x----------------------|
|55-5---------------------------7------7-------7------^----------------------|
|-----------------------------------------------fluid
downstroke-------------|

|------------~--------------p--------------p-----------------p---------------|
|--p--------------------7--8-7----10---7--8-7--7---10----7--8-7-----7---7----|
|-7-6--7--------------x---------7----------------------7---------9-----------|
|----------7\4------x--------------------------------------------------------|
|-------------------^--------------------------------------------------------|
|-----------------downstroke-------------------------------------------------|


|---p--------------------------------------------------~---------~-----------|
|--8-7\5--7--p-------p-------------------------------------------------------|
|-----------7-6--7--7-6\4--6---p----p--------p-------------------------------|
|-----------------------------7-5--7-5---4--5-4---4-----------/9-5-----------|
|-----------------------------------------------5----5/7-(7)\----------------|
|----------------------------------------------------------------------------|

                                                    
                                                     full
|-----------------------------------------------------b----~-----------------|
|-----------------------------------------------------8--------------------11|
|------------------h-p-p-------------------------7-9-------9---(9)\/(7)--9---|
|--5--7---7/8--7--7-8-7-5---7-5----------5--7/8------------------------------|
|-------------------------------7--(7)\--------------------------------------|
|----------------------------------------------------------------------------|

     
     1/2                                                full
|---b---R--p---------------h--p--------------------------b--R~---------------|
|--10--(10)-8---10----8--10-11-10----(8)-10-----8-10-10--8-(8)--(8)\---------|
|-------------9----9--------------------9-----------------------------/12----|
|----------------------------------------------------------------------------|
|----------------------------------------------------------------------------|
|----------------------------------------------------------------------------|

                                                         
                                                         full
|-------p------------------p------------------p-----------b~--R--------12----|
|-15--15-14----------14--14-13---------13---13-11--------10--(10)----x-------|
|------------15--12------------14--11-------------13-10------------x---------|
|----------------------------------------------------------------------------|
|----------------------------------------------------------------------------|
|---------------------------------------------------------------downstroke---|

                 
                 b(full)     b(full) R                      full
|----14-15-17---17--~-------17------(17)---15\14---p---15---b-----~----------|
|------------------------------------------------17-15-----15----(15)--------|
|----------------------------------------------------------------------------|
|----------------------------------------------------------------------------|
|----------------------------------------------------------------------------|
|----------------------------------------------------------------------------|

        1/4
|--------b---R--p---------~----------------------h-p-h-p-----------~---------|
|-------15--(15)-12----------------------h------7-8-7-8-7---9----7/9---------|
|-----x----------------15-14---(14)-----6-7\6--------------------------------|
|---x------------------------------------------------------------------------|
|----------------------------------------------------------------------------|
|-downstroke-----------------------------------------------------------------|

                                            
                                            1\2
|----------------------------------------------------------------------------|
|-----h-p--------------------------------------------------------------------|
|----6-7-6-------6-------p--------4------------------------------------------|
|-------------9-----7---5-4--5/7-----5/7\5-----------------------------------|
|--------------------------------------------b---R-----5----/11--------------|
|--------------------------------------------5--(5)--3-----------------------|


|--------------------------------------------------------------12----p-------|
|----------------------h-------12-----12----12----p--p--h--h-------15-12-----|
|-----------12--14---12-14--15----15-----15-----15-14-12-14-15---------------|
|-12--14--14--14--14---------------------------------------------------------|
|---14--14-------------------------------------------------------------------|
|----------------------------------------------------------------------------|

           
           full     full      2 steps    2 steps                    h  h
|-----------b---12---b---12---b------12----b-------12---~---------17-18-19---|
|--p--p----15-------15--------15----------15-----------15------x-------------|
|15-14-12----------------------------------------------------x---------------|
|----------------------------------------------------------------------------|
|----------------------------------------------------------------------------|
|----------------------------------------------------------------------------|


   p  p                              p
|15-14-12---~-----------------17---16-15-----17----------------------------~~|
|----------15--------------x--------------17----17\15---12--15----p----------|
|------------------------x--------------------------------------15-12---14---|
|---------------------------------------------------------------------14--14-|
|----------------------------------------------------------------------------|
|----------------------------------------------------------------------------|

       
       b 1/2  R  p                 full                  1/2  
|-----14-----(14)-12---15-----12---b---------p-----------b----R--p-----------|
|---x---------------------15-------15----(15)-12-----12-14---(14)-12---------|
|-x-----------------------------------------------15-------------------------|
|----------------------------------------------------------------------------|
|----------------------------------------------------------------------------|
|----------------------------------------------------------------------------|

    
    1/4
|------------------~----------~-----------~----------------------------------|
|----b--R----p-----------------------------------p--------p------------------|
|---14--(14)--12--14--------(14)------11-------14-12----12-11---11-----------|
|---------------------------------14------12\--------------------------------|
|----------------------------------------------------------------------------|
|----------------------------------------------------------------------------|


|----------------------------------------------------------------------------|
|----------------------------------------------------------------------------|
|----p------------p----------------------------------------------------------|
|--14-12\11-----12-11-------p------------------------------------12-13-14----|
|-------------------------14-12\10-----------9--10---------12-14-------------|
|---------------------------------------------------10/12\-------------------|

         
         1/2                1/2                                 b full  R
|----------------------------------~----------------------------17-----(17)--|
|---------b---R---------------b---R---------------------------x--------------|
|-12-14--14--(14)---12--14---14--(14)-----12----14----------x----------------|
|-----------------------------------------------------14---------------------|
|----------------------------------------------------------------------------|
|----------------------------------------------------------------------------|

              b full R                 b full R  p         b 1 1/2 steps
|--15---17---17-----(17)----15----17---17----(17)--15--17------------------|-|
|----------------------------------------------------------17--------------|-|
|--------------------------------------------------------------------------|-|
|--------------------------------------------------------------------------|-|
|--------------------------------------------------------------------------|-|
|--------------------------------------------------------------------------|-|

=============================================================





Cemetary Gates


e------------------|-----------------|----------------|------0-----------|
B----------2-------|------0--0-------|------0--0------|----2-----2-------|
G--------2---2-----|----4------4-----|----4------4----|--4---------4-----|
D------2-----------|--2--------------|--2----------0--|------------------|
A----4----------0--|-----------------|----------------|------------------|
E--2---------------|--------------0--|----------------|------------------|

e------------------|-----------------|----------------|---------0--------|
B----------2-------|------0--0-------|------0--0------|--2--------2------|
G--------2---2-----|----4------4-----|----4------4----|----4--------4----|
D------2-----------|--2--------------|--2----------0--|------0--------0--|
A----4----------0--|-----------------|----------------|------------------|
E--2---------------|--------------0--|----------------|------------------|

   "Reverend           Reverend          is this some conspiricy..."
e------------------|-----------------|----------------|------0-----------|
B----------2-------|------0--0-------|------0--0------|----2-----2-------|
G--------2---2-----|----4------4-----|----4------4----|--4---------4-----|
D------2-----------|--2--------------|--2----------0--|------------------|
A----4----------0--|-----------------|----------------|------------------|
E--2---------------|--------------0--|----------------|------------------|

   "Crucified    for   no  sins               An image, beneath me..."
e------------------|-----------------|----------------|------0-----------|
B----------2-------|------0--0-------|------0--0------|----2-----2-------|
G--------2---2-----|----4------4-----|----4------4----|--4---------4-----|
D------2-----------|--2--------------|--2----------0--|--------------0---|
A----4----------0--|-----------------|----------------|------------------|
E--2---------------|--------------0--|----------------|------------------|

 "What is with..."
e------------------|-----------------|----------------|------0-----------|
B----------2-------|------0--0-------|------0--0------|----2-----2-------|
G--------2---2-----|----4------4-----|----4------4----|--4---------4-----|
D------2-----------|--2--------------|--2----------0--|------------------|
A----4----------0--|-----------------|----------------|------------------|
E--2---------------|--------------0--|----------------|------------------|

 "I'm  a man..."
e------------------|-----------------|----------------|-----0^^^\------0------|
B----------2-------|------0--0-------|------0--0------|-----3-\-5------5-\-7--|
G--------2---2-----|----4------4-----|----4------4----|--4--4-\-6------6-\-7--|
D------2-----------|--2--------------|--2----------0--|--------------0--------|
A----4----------0--|-----------------|----------------|-----------------------|
E--2---------------|--------------0--|----------------|-----------------------|


1st Guitar Solo
|-----------------|------------|
|-----------------|------------|
|---9--(9)~~~--8--|~~~--7------|
|-----------------|------------|
|-----------------|------------|
|-----------------|------------|


|-------------------------|-----------------|-------------------|-----|
|---------10-----(10)-----|---9-----(9)-----|---12-----(12)-----|-----|
|-----x----------------6--|--------------9--|----------------8--|-----|
|--x----------------------|-----------------|-------------------|-----|
|-------------------------|-----------------|-------------------|-----|
|-------------------------|-----------------|-------------------|-----|


-----------|-------|---------------------------|----------------------|
-15--------|-------|---------------------------|----------------------|
--------7--|~~~--\\|----------------4-----(4)--|---(4)-----(4)--6-----|
-----------|-------|------------4--------------|----------------------|
-----------|-------|--------x------------------|----------------------|
-----------|-------|-----x---------------------|----------------------|


---|-----------------|--------------------------|---------------------|
---|---------5--(5)--|--(5)~~~---5---(5)---(5)--|---(5)---(5)~~~------|
\4p|--2--------------|--------------------------|---------------------|
---|-----2-----------|--------------------------|---------------------|
---|-----------------|--------------------------|---------------------|
---|-----------------|--------------------------|---------------------|


|-----------------|---------------|-----------------------------------|
|-----------------|--12--(12)/15--|--(15)\12--15/17--(17)p14--17------|
|---------6--(6)--|---------------|-----------------------------------|
|-----x-----------|---------------|-----------------------------------|
|--x--------------|---------------|-----------------------------------|
|-----------------|---------------|-----------------------------------|


-----|-----------------------------------------|
p15--|--(15)p12--15/17--(17)p14--17--17~~~~~~--|
-----|-----------------------------------------|
-----|-----------------------------------------|
-----|-----------------------------------------|
-----|-----------------------------------------|

1:33
Riff 1
e----------------------------------|
B----------------------------------|
G----------------------------------|
D--2--2-2-2-2---------------9------|
A--0--0-0-0-0--7-6-7--8-7-8---7-8--|
E----------------------------------|

e-------------------------------------------|
B-------------------------------------------|
G-------------------------------------------|
D--2--2-2-2-2-------------------------------|
A--0--0-0-0-0--7-6-7--8-6-7---6-------------|
E---------------------------8---7~~---------|

Repeat Riff 1 two more times, then on the third time play Riff 2

Riff 2
e----------------------------------|
B----------------------------------|
G----------------------------------|
D--2--2-2-2-2---------------9------|
A--0--0-0-0-0--7-6-7--8-7-8---7-8--|
E----------------------------------|

e-------------------------------------------|
B-------------------------------------------|
G-------------------------------------------|
D--2--2-2-2-2-----------------2--3----------|
A--0--0-0-0-0--7-6-7--8-6-7---0--1----------|
E-------------------------------------------|

Riff 3
e-------------------------------------------|
B-------------------------------------------|
G-------------------------------------------|
D---------2-2-2--4-4-4--5-------------------|
A--4-4-4--0-0-0--2-2-2--3--2--3-------------|
E--2-2-2-------------------0--1-------------|

Repeat Riff 3 one more time dragging the last two notes out a little, play it again normal,
then play it a final time playing the last note again.

Now comes the softer part of the song. Play this three times:

 "Reverend..."
e------------------|-----------------|----------------|------0-----------|
B----------2-------|------0--0-------|------0--0------|----2-----2-------|
G--------2---2-----|----4------4-----|----4------4----|--4---------4-----|
D------2-----------|--2--------------|--2----------0--|------------------|
A----4----------0--|-----------------|----------------|------------------|
E--2---------------|--------------0--|----------------|------------------|

On the fourth time, play this: (with pick)
 "I watch..."
e------------------|-----------------|----------------|
B----------2-------|------0--0-------|------0--0------|
G--------2---2-----|----4------4-----|----4------4----|
D------2-----------|--2--------------|--2----------0--|
A----4----------0--|-----------------|----------------|
E--2---------------|--------------0--|----------------|

Slide the pick down the neck and play:

I cant figure it out.

Then at 3:02, play:

Riff 1
e----------------------------------|
B----------------------------------|
G----------------------------------|
D--2--2-2-2-2---------------9------|
A--0--0-0-0-0--7-6-7--8-7-8---7-8--|
E----------------------------------|

e-------------------------------------------|
B-------------------------------------------|
G-------------------------------------------|
D--2--2-2-2-2-------------------------------|
A--0--0-0-0-0--7-6-7--8-6-7---6-------------|
E---------------------------8---7~~---------|

Then:

Riff 2
e----------------------------------|
B----------------------------------|
G----------------------------------|
D--2--2-2-2-2---------------9------|
A--0--0-0-0-0--7-6-7--8-7-8---7-8--|
E----------------------------------|

e-------------------------------------------|
B-------------------------------------------|
G-------------------------------------------|
D--2--2-2-2-2-----------------2--3----------|
A--0--0-0-0-0--7-6-7--8-6-7---0--1----------|
E-------------------------------------------|

Riff 3
e-------------------------------------------|
B-------------------------------------------|
G-------------------------------------------|
D---------2-2-2--4-4-4--5-------------------|
A--4-4-4--0-0-0--2-2-2--3--2--3-------------|
E--2-2-2-------------------0--1-------------|

Repeat Riff 3 one more time dragging the last two notes out a little,
play it again normal, then play it a final time playing the last note
again. Then play:

  Sometimes when...
e------------------|-----------------|----------------|------0-----------|
B----------2-------|------0--0-------|------0--0------|----2-----2-------|
G--------2---2-----|----4------4-----|----4------4----|--4---------4-----|
D------2-----------|--2--------------|--2----------0--|------------------|
A----4----------0--|-----------------|----------------|------------------|
E--2---------------|--------------0--|----------------|------------------|

Play three more times, then:

e------------------|-----------------|----------------|
B----------2-------|------0--0-------|------0--0------|
G--------2---2-----|----4------4-----|----4------4----|
D------2-----------|--2--------------|--2----------0--|
A----4----------0--|-----------------|----------------|
E--2---------------|--------------0--|----------------|

Slide the pick down the neck, then play:

I cant figure it out

Then at 4:25, play:

Riff 1
e----------------------------------|
B----------------------------------|
G----------------------------------|
D--2--2-2-2-2---------------9------|
A--0--0-0-0-0--7-6-7--8-7-8---7-8--|
E----------------------------------|

e-------------------------------------------|
B-------------------------------------------|
G-------------------------------------------|
D--2--2-2-2-2-------------------------------|
A--0--0-0-0-0--7-6-7--8-6-7---6-------------|
E---------------------------8---7~~---------|

e----------------------------------|
B----------------------------------|
G----------------------------------|
D---------------9------------------|
A--7-6-7--8-7-8---7-8--------------|
E----------------------------------|

e-------------------------------------------|
B-------------------------------------------|
G-------------------------------------------|
D--2--2-2-2-2-------------------------------|
A--0--0-0-0-0--7-6-7--8-6-7---6-------------|
E---------------------------8---7~~---------|

e----------------------------------|
B----------------------------------|
G----------------------------------|
D--2--2-2-2-2---------------9------|
A--0--0-0-0-0--7-6-7--8-7-8---7-8--|
E----------------------------------|

e---------------------------------------------------------|
B---------------------------------------------------------|
G---------------------------------------------------------|
D--2--2-2-2-2---------5--------5--------5--------5--------|
A--0--0-0-0-0--7-6-7--3--2--3--3--2--3--3--2--3--3--2--3--|
E------------------------0--1-----0--1-----0--1-----0--1--|

Now here's the second solo:

4:52
------------------------|-----5-----5--4------|
---2-----2--5/7\5--3p2--|~~~-----2------------|
------4-----------------|---------------------|
------------------------|---------------------|
------------------------|---------------------|
------------------------|---------------------|

|----12--------9---|-------|--12-----10--(10)~~~--10p9--|------9------|
|--------9-----10--|--5/9--|------9---------------------|--12---------|
|/9---------9------|-------|----------------------------|-------------|
|------------------|-------|----------------------------|-------------|
|------------------|-------|----------------------------|-------------|
|------------------|-------|----------------------------|-------------|

                                                     Full   Full
------------|----------------------|--------7-----7-------------------|
10~~~--(10)\|/10--9--8--7--6--5h6--|--7~~~-----7------7~~~---(7)------|
------------|----------------------|----------------------------------|
------------|----------------------|----------------------------------|
------------|----------------------|----------------------------------|
------------|----------------------|----------------------------------|

             Full   Tap                              Tap
----------7-----------------------------|----7h9h10---12p10p9p7h9-----|
~~~--(7)------7------8p(7)--(7)p(5)~~~--|/9---------------------------|
----------------------------------------|-----------------------------|
----------------------------------------|-----------------------------|
----------------------------------------|-----------------------------|
----------------------------------------|-----------------------------|

     Tap                    Tap     Tap           Tap     Tap
h10---12/14--(14)p12p10--|---14p10---14/16p14p12---15p12---15/17------|
-------------------------|--------------------------------------------|
-------------------------|--------------------------------------------|
-------------------------|--------------------------------------------|
-------------------------|--------------------------------------------|
-------------------------|--------------------------------------------|

(17)p16p14--14--19/21--17------17--|------19--16------16--------------|
---------------------------19------|--19----------17------17~~~-------|
-----------------------------------|----------------------------------|
-----------------------------------|----------------------------------|
-----------------------------------|-----------------------------7----|
-----------------------------------|----------------------------------|

---|--------------------------------------------------------|---------|
---|--------------------------------------------------------|---------|
---|-----------------------------------------9--10--11--12--|---------|
---|---------------6--7--8--9--8--9--10--11-----------------|---------|
7--|--7--8--9--10-------------------------------------------|--x------|
---|--------------------------------------------------------|---------|

                  P.SFull                Full                Full
------------------|-----------14------------------14------------------|
------------------|-------14------17p14-------14------17p14-----------|
---6--------6----\|---16------------------16------------------16------|
x--------x--------|---------------------------------------------------|
------x-----------|---------------------------------------------------|
------------------|---------------------------------------------------|

                  Full                    Full     Full     Full
----14--|----------------------14--------------14-------14-------|----|
14------|--17p14-------14--14------17p14---17-------17-------17--|----|
--------|----------16--------------------------------------------|----|
--------|--------------------------------------------------------|----|
--------|--------------------------------------------------------|----|
--------|--------------------------------------------------------|----|

21p14--21p14--21p14--21p14--20--20p14--20--20p14--20p14--|--19h20-----|
---------------------------------------------------------|------------|
---------------------------------------------------------|------------|
---------------------------------------------------------|------------|
---------------------------------------------------------|------------|
---------------------------------------------------------|------------|

p19p17------19h20p19p17------------------------14--16--|--17--16------|
--------19---------------19--19--19--19~~~/17----------|--------------|
-------------------------------------------------------|--------------|
-------------------------------------------------------|--------------|
-------------------------------------------------------|--------------|
-------------------------------------------------------|--------------|

14------14--17h19p17p14--14h17p14h17p14--14--14-----------------------|
----17-------------------------------------------19p17p14--17p14------|
----------------------------------------------------------------------|
----------------------------------------------------------------------|
----------------------------------------------------------------------|
----------------------------------------------------------------------|

|---------------------------------------------------------------------|
|--14h15p14h15p14------14---------------------------------------------|
|------------------17------17p14--16p14------14--------14h16p14-------|
|----------------------------------------16------1/16-----------------|
|---------------------------------------------------------------------|
|---------------------------------------------------------------------|

w/ bar w/ bar        w/ bar
-------------------------------------------------|--------------------|
-------------------------------------------------|--------------------|
-\(14)\----13p11\10-\---11p10p9--11p1p9--10p9p8--|--10p9p8------------|
-------------------------------------------------|--------------------|
-------------------------------------------------|--------------------|
-------------------------------------------------|--------------------|

w/ bar   w/ barw/ bar      P.dive w/ bar
------------------------------------||--------------------------------|
------------------------------------||--------------------------------|
-/9p(7)-/9----/6------------\\------||--------------------------------|
------------------------x-----------||--------------------------------|
---------------------x--------------||--------------------------------|
------------------------------------||--------------------------------|

In the background, another guitar is playing:

e------------------|-----------------|----------------|------0-----------|
B----------2-------|------0--0-------|------0--0------|----2-----2-------|
G--------2---2-----|----4------4-----|----4------4----|--4---------4-----|
D------2-----------|--2--------------|--2----------0--|------------------|
A----4----------0--|-----------------|----------------|------------------|
E--2---------------|--------------0--|----------------|------------------|

Until 5:14, then comes:

Riff 3
e-------------------------------------------|
B-------------------------------------------|
G-------------------------------------------|
D---------2-2-2--4-4-4--5-------------------|
A--4-4-4--0-0-0--2-2-2--3--2--3-------------|
E--2-2-2-------------------0--1-------------|

Repeat 7 more times, then on the 8th time, play:

e-------------------------------------------|
B-------------------------------------------|
G-------------------------------------------|
D---------2-2-2--4-4-4--5--------5----------|
A--4-4-4--0-0-0--2-2-2--3--2--3--3--2--3----|
E--2-2-2-------------------0--1-----0--1----|

Then:

Riff 1
e----------------------------------|
B----------------------------------|
G----------------------------------|
D--2--2-2-2-2---------------9------|
A--0--0-0-0-0--7-6-7--8-7-8---7-8--|
E----------------------------------|

e-------------------------------------------|
B-------------------------------------------|
G-------------------------------------------|
D--2--2-2-2-2-------------------------------|
A--0--0-0-0-0--7-6-7--8-6-7---6-------------|
E---------------------------8---7~~---------|

e----------------------------------|
B----------------------------------|
G----------------------------------|
D---------------9------------------|
A--7-6-7--8-7-8---7-8--------------|
E----------------------------------|

e-------------------------------------------|
B-------------------------------------------|
G-------------------------------------------|
D--2--2-2-2-2-------------------------------|
A--0--0-0-0-0--7-6-7--8-6-7---6-------------|
E---------------------------8---7~~---------|

e----------------------------------|
B----------------------------------|
G----------------------------------|
D--2--2-2-2-2---------------9------|
A--0--0-0-0-0--7-6-7--8-7-8---7-8--|
E----------------------------------|

e---------------------------------------|
B---------------------------------------|
G---------------------------------------|
D--2--2-2-2-2---------5--------5--------|
A--0--0-0-0-0--7-6-7--3--2--3--3--2--3--|
E------------------------0--1-----0--1--|

Then:

6:14
e----------------------------------|
B----------------------------------|
G----------------------------------|
D--2--2-2-2-2----------------------|
A--0--0-0-0-0--7-6-7~~~~~~---------|
E----------------------------------|

e-------------------------------------------|
B-------------------------------------------|
G-------------------------------------------|
D--2--2-2-2-2------------9~~----------------|
A--0--0-0-0-0--7-6-7--8---------------------|
E-------------------------------------------|

Repeat till end

=============================================================


 Cowboys From Hell

   Em
      x 2 2 0 x x

Gtr I (E A D G B E) - 'Dimebag'
Gtr II (E A D G B E) - 'Dimebag2'
Gtr III (E A D G B E) - 'Dimebag3'
Gtr IV (E A D G B E) - 'Dimebag4'

 Intro
  Moderate Rock Q=118
          (E)
 4/4
       Gtr I
  H    E. S S S S S    S S S S S S S S S S S S S S S S
|-------------------||---------------------------------|
|-------------------||---------------------------------|
|-------------------||---------------------------------|
|-------------------||---------------------------------|
|-------------------||---------------------------------|
|---------0-0-0-0-0-||-0-0-0-0-0-0-0-0-0-0-0-0-0-0-0-0-|


  S S S S S S S S S S S S S S S S
|----------------------------------|
|----------------------------------|
|----------------------------------|
|----------------------------------|
|----------------------------------|
|-0-0-0-0-0-0-0-0-0-0-0-0-0-0-0-0--|


  S S S S S S S S S S S S S S S S
|---------------------------------|
|---------------------------------|
|---------------------------------|
|---------------------------------|
|---------------------------------|
|-0-0-0-0-0-0-0-0-0-0-0-0-0-0-0-0-|
|
| Gtr II
| W
|---------------------------------|
|---------------------------------|
|---------------------------------|
|---------------------------------|
|---------------------------------|
|---------------------------------|


   PM------------------------------|
   S  S  S  S  S  S  S  S  S  S  S  S  S  S  E
|------------------------------------------------|
|------------------------------------------------|
|------------------------------------------------|
|-------------------------------------------12---|
|-------------12----12----13----12----13h14------|
|-12-15-12-15----15----15----15----15------------|
|
|  S  S  S  S  S  S  S  S  S  S  S  S  S  S  S S
|------------------------------------------------|
|------------------------------------------------|
|------------------------------------------------|
|------------------------------------------------|
|------------------------------------------------|
|--0--0--0--0--0--0--0--0--0--0--0--0--0--0--0-0-|


   PM------------------------------|
   S  S  S  S  S  S  S  S  S  S  S  S  S  S  E
|------------------------------------------------|
|------------------------------------------------|
|------------------------------------------------|
|-------------------------------------------12---|
|-------------12----12----13----12----13h14------|
|-12-15-12-15----15----15----15----15------------|
|
|  S  S  S  S  S  S  S  S  S  S  S  S  S  S  S S
|------------------------------------------------|
|------------------------------------------------|
|------------------------------------------------|
|------------------------------------------------|
|------------------------------------------------|
|--0--0--0--0--0--0--0--0--0--0--0--0--0--0--0-0-|


   PM------------------------------|
   S  S  S  S  S  S  S  S  S  S  S  S  S  S  E
|------------------------------------------------|
|------------------------------------------------|
|------------------------------------------------|
|-------------------------------------------12---|
|-------------12----12----13----12----13h14------|
|-12-15-12-15----15----15----15----15------------|
|
|  S  S  S  S  S  S  S  S  S  S  S  S  S  S  S S
|------------------------------------------------|
|------------------------------------------------|
|------------------------------------------------|
|------------------------------------------------|
|------------------------------------------------|
|--0--0--0--0--0--0--0--0--0--0--0--0--0--0--0-0-|


                                               E5      A5
   PM------------------|                       PM--------------------|
   S  S  S  S  S  S  S  S  S  S  S  S  +Q      S S S S S S S S S S S S S S E
|--------------------------------------------|-------------------------------|
|--------------------------------------------|-------------------------------|
|--------------------------------------------|-------------------------------|
|--------------------------------------------|---------2---2---------------0-|
|-------------12----12----13-12-10-----------|-2---2---0---0---1---0---1h2---|
|-12-15-12-15----15----15----------12-(12)\--|-0-3-0-3---3---3---3---3-------|
|
|                                              PM--------------------|
|  S  S  S  S  S  S  S  S  S  S  S  S  +Q      S S S S S S S S S S S S S S E
|--------------------------------------------|-------------------------------|
|--------------------------------------------|-------------------------------|
|--------------------------------------------|-------------------------------|
|--------------------------------------------|---------2---2---------------0-|
|-------------------------13-12-10-----------|-2---2---0---0---1---0---1h2---|
|--0--0--0--0--0--0--0--0----------12-(12)\--|-0-3-0-3---3---3---3---3-------|
|
| Gtr III
|  H                       S  S  S  S  +Q      W
|--------------------------------------------|-------------------------------|
|--------------------------------------------|-------------------------------|
|--------------------------------------------|-------------------------------|
|--------------------------------------------|-------------------------------|
|-------------------------13-12-10-----------|-------------------------------|
|----------------------------------12-(12)\--|-------------------------------|


  E5      A5
  Gtrs I, II
  PM--------------------|
  S S S S S S S S S S S S S S E
|-------------------------------|
|-------------------------------|
|-------------------------------|
|---------2---2---------------0-|
|-2---2---0---0---1---0---1h2---|
|-0-3-0-3---3---3---3---3-------|


  E5      A5                      E5      A5            E5
  PM--------------------|         PM------------|
  S S S S S S S S S S S S S S E   S S S S S S S S S S S S Q
|-------------------------------|-----------------------------|
|-------------------------------|-----------------------------|
|-------------------------------|-----------------------------|
|---------2---2---------------0-|---------2---2---------------|
|-2---2---0---0---1---0---1h2---|-2---2---0---0---1-0---2-----|
|-0-3-0-3---3---3---3---3-------|-0-3-0-3---3---3-----3-0-----|


  E5      A5
  PM--------------------|
  S S S S S S S S S S S S S S E
|-------------------------------|
|-------------------------------|
|-------------------------------|
|---------2---2---------------0-|
|-2---2---0---0---1---0---1h2---|
|-0-3-0-3---3---3---3---3-------|


  E5      A5                      E5      A5
  PM--------------------|         PM--------------------|
  S S S S S S S S S S S S S S E   S S S S S S S S S S S S S S E
|-------------------------------|-------------------------------|
|-------------------------------|-------------------------------|
|-------------------------------|-------------------------------|
|---------2---2---------------0-|---------2---2---------------0-|
|-2---2---0---0---1---0---1h2---|-2---2---0---0---1---0---1h2---|
|-0-3-0-3---3---3---3---3-------|-0-3-0-3---3---3---3---3-------|


  E5      A5            E5     N.C.(E)
                               Gtr I
  PM------------|              PM--------------------|
                                                       |-3-|
  S S S S S S S S S S S S Q    S S S S S S S S S S S S S S S E
|----------------------------|---------------------------------|
|----------------------------|---------------------------------|
|----------------------------|---------------------------------|
|---------2---2--------------|-------------------------------0-|
|-2---2---0---0---1-0---2----|-------------------------0h1h2---|
|-0-3-0-3---3---3-----3-0----|-0-0---0---0---0---0---0---------|


  Gtrs I, II
  PM--------------------|
                          |-3-|
  S S S S S S S S S S S S S S S E
|-----------------------------------|
|-----------------------------------|
|-----------------------------------|
|-------------------------------0---|
|-------------------------0h1h2-----|
|-0-0---0---0---0---0---0-----------|


  PM--------------------|
                          |-3-|
  S S S S S S S S S S S S S S S E
|---------------------------------|
|---------------------------------|
|---------------------------------|
|-------------------------------0-|
|-------------------------0h1h2---|
|-0-0---0---0---0---0---0---------|


  PM------------|                   PM--------------------|
                  |-3-|   |-3-|                             |-3-|
  S S S S S S S S S S S E S S S E   S S S S S S S S S S S S S S S E
|---------------------------------|---------------------------------|
|---------------------------------|---------------------------------|
|---------------------------------|---------------------------------|
|-----------------------0-------0-|-------------------------------0-|
|-----------------0h1h2---0h1h2---|-------------------------0h1h2---|
|-0-0---0---0---0-----------------|-0-0---0---0---0---0---0---------|


  PM------------|                       PM--------------------|
                  |-3-|     |-3-|                               |-3-|
  S S S S S S S S S S S S S S S S S S   S S S S S S S S S S S S S S S E
|-------------------------------------|---------------------------------|
|-------------------------------------|---------------------------------|
|-------------------------------------|---------------------------------|
|-------------------------------------|-------------------------------0-|
|-----------------0h1p0-----0h1p0-----|-------------------------0h1h2---|
|-0-0---0---0---0-------3-3-------3-1-|-0-0---0---0---0---0---0---------|


  PM------------|
                  |-3-|     |-3-|
  S S S S S S S S S S S S S S S S S S
|-------------------------------------||
|-------------------------------------||
|-------------------------------------||
|-------------------------------------||
|-----------------0h1p0-----0h1p0-----||
|-0-0---0---0---0-------3-3-------3-1-||


   1st and 2nd Verse
    PM------------------------------------------------------|
                                                              |-3-|
    S S S S S S S S S S S S S S S S   S S S S S S S S S S S S S S S E
||----------------------------------|---------------------------------|
||o---------------------------------|---------------------------------|
||----------------------------------|---------------------------------|
||----------------------------------|-------------------------------0-|
||o---------------------------------|-------------------------0h1h2---|
||--0-0---0---0---0---0---0-0-0-0---|-0-0---0---0---0---0---0---------|


  PM----------------------------|
  S S S S S S S S S S S S S S S S
|------------------------------------|
|------------------------------------|
|------------------------------------|
|------------------------------------|
|------------------------------------|
|-0-0---0---0---0---0---0-0-0-0------|


  PM------------|
                  |-3-|     |-3-|
  S S S S S S S S S S S S S S S S S S
|-------------------------------------|
|-------------------------------------|
|-------------------------------------|
|-------------------------------------|
|-----------------0h1p0-----0h1p0-----|
|-0-0---0---0---0-------3-3-------3-1-|


  PM------------------------------------------------------|
                                                            |-3-|
  S S S S S S S S S S S S S S S S   S S S S S S S S S S S S S S S E
|---------------------------------|-----------------------------------|
|---------------------------------|-----------------------------------|
|---------------------------------|-----------------------------------|
|---------------------------------|-------------------------------0---|
|---------------------------------|-------------------------0h1h2-----|
|-0-0---0---0---0---0---0-0-0-0---|-0-0---0---0---0---0---0-----------|


  N.C.(E)
  PM----------------------------|
  S S S S S S S S S S S S S S S S
|---------------------------------|
|---------------------------------|
|---------------------------------|
|---------------------------------|
|---------------------------------|
|-0-0---0---0---0---0---0-0-0-0-0-|


                                        G5                    G#5
    PM----------|                       PM------------------|
                  |-3-|     |-3-|
  S S S S S S S S S S S S S S S S S S   S S S S S S S S S S S S S E.
|-------------------------------------|------------------------------|
|-------------------------------------|------------------------------|
|-------------------------------------|------------------------------|
|-------------------------------------|------------------------------|
|-----------------0h1p0-----0h1p0-----|-5-5-5-5-5-5-5-5-5-5-5-6---6--|
|-0-0---0---0---0-------3-3-------3-1-|-3-3-3-3-3-3-3-3-3-3-3-4---4--|


  G5                A#5A5G#5 N.C.(E)
  PM--------------|          PM-------------------------------
  S S S S S S S S S E. E E   S S S S S S S S S S S S S S S S
|--------------------------|---------------------------------|
|--------------------------|---------------------------------|
|--------------------------|---------------------------------|
|--------------------------|---------------------------------|
|-5-5-5-5-5-5-5-5-5-8--7-6-|---------------------------------|
|-3-3-3-3-3-3-3-3-3-6--5-4-|-0-0---0---0---0---0---0-0-0-0---|


                        E5
 ---------------|
  S S S S S S S S S S S S Q
|----------------------------||
|----------------------------||
|----------------------------||
|----------------------------||
|-----------------1-0---2----||
|-0-0---0---0---0-----3-0----||


 1st and 2nd Chorus
  E5      A5
  PM--------------------|
  S S S S S S S S S S S S S S E
|-------------------------------|
|-------------------------------|
|-------------------------------|
|---------2---2---------------0-|
|-2---2---0---0---1---0---1h2---|
|-0-3-0-3---3---3---3---3-------|


  E5      A5                      E5      A5
  PM--------------------|         PM--------------------|
  S S S S S S S S S S S S S S E   S S S S S S S S S S S S S S E
|-------------------------------|-------------------------------|
|-------------------------------|-------------------------------|
|-------------------------------|-------------------------------|
|---------2---2---------------0-|---------2---2---------------0-|
|-2---2---0---0---1---0---1h2---|-2---2---0---0---1---0---1h2---|
|-0-3-0-3---3---3---3---3-------|-0-3-0-3---3---3---3---3-------|


  E5      A5            E5             A5
  PM------------|              PM--------------------|
  S S S S S S S S S S S S Q    S S S S S S S S S S S S S S E
|----------------------------|-------------------------------|
|----------------------------|-------------------------------|
|----------------------------|-------------------------------|
|---------2---2--------------|---------2---2---------------0-|
|-2---2---0---0---1-0---2----|-2---2---0---0---1---0---1h2---|
|-0-3-0-3---3---3-----3-0----|-0-3-0-3---3---3---3---3-------|


  E5      A5
  PM--------------------|
  S S S S S S S S S S S S S S E
|--------------------------------|
|--------------------------------|
|--------------------------------|
|---------2---2---------------0--|
|-2---2---0---0---1---0---1h2----|
|-0-3-0-3---3---3---3---3--------|


                                 1.
  E5      A5                      E5      A5            E5
  PM--------------------|         PM------------|
  S S S S S S S S S S S S S S E   S S S S S S S S S S S S Q
|-------------------------------|----------------------------|
|-------------------------------|----------------------------|
|-------------------------------|----------------------------|
|---------2---2---------------0-|---------2---2--------------|
|-2---2---0---0---1---0---1h2---|-2---2---0---0---1-0---2----|
|-0-3-0-3---3---3---3---3-------|-0-3-0-3---3---3-----3-0----|


  N.C.(E)
  Gtr I
  PM--------------------|
                          |-3-|
  S S S S S S S S S S S S S S S E
|---------------------------------|
|---------------------------------|
|---------------------------------|
|-------------------------------0-|
|-------------------------0h1h2---|
|-0-0---0---0---0---0---0---------|


  Gtrs I, II
  PM------------|                   PM--------------------|
                  |-3-|   |-3-|                             |-3-|
  S S S S S S S S S S S E S S S E   S S S S S S S S S S S S S S S E
|---------------------------------|---------------------------------|
|---------------------------------|---------------------------------|
|---------------------------------|---------------------------------|
|-----------------------0-------0-|-------------------------------0-|
|-----------------0h1h2---0h1h2---|-------------------------0h1h2---|
|-0-0---0---0---0-----------------|-0-0---0---0---0---0---0---------|


  PM------------|
                  |-3-|     |-3-|
  S S S S S S S S S S S S S S S S S S
|---------------------------------------|
|---------------------------------------|
|---------------------------------------|
|---------------------------------------|
|-----------------0h1p0-----0h1p0-------|
|-0-0---0---0---0-------3-3-------3-1---|


  PM--------------------|
                          |-3-|
  S S S S S S S S S S S S S S S E
|---------------------------------|
|---------------------------------|
|---------------------------------|
|-------------------------------0-|
|-------------------------0h1h2---|
|-0-0---0---0---0---0---0---------|


                                         2.
                                          E5      A5        G5 F#F5
  PM------------|                         PM------------|
                  |-3-|     |-3-|
  S S S S S S S S S S S S S S S S S S     S S S S S S S S S E. E E
|--------------------------------------||----------------------------||
|-------------------------------------o||----------------------------||
|--------------------------------------||----------------------------||
|--------------------------------------||---------2---2--------------||
|-----------------0h1p0-----0h1p0-----o||-2---2---0---0-----5--4-3---||
|-0-0---0---0---0-------3-3-------3-1--||-0-3-0-3---3---3---3--2-1---||


 Guitar Solo
      E5/B                        C                      A/C#
  Gtr III
      ~~                          ~~                       ~~~~
  Q   H           +Q      S S S S H.              +Q       H            +Q
|-----------------------|-----------------------|-----------------------------|
|-----------------------|-----------------------|-----------------------------|
|-----------------------|-----------------------|-----------------------------|
|-----------------------|-8---8---8-------------|-(8)\---/14-----------(14)\--|
|-----7-----------(7)\--|---7---7---------------|-----------------------------|
|-----------------------|-----------------------|-----------------------------|
|
| Gtrs I, II
| PM|                     PM--|                    PM--|
| E E E. +S  +H           E   E   E. +S  +H        E   E   E. +S  +H
|-----------------------|-----------------------|-----------------------------|
|-----------------------|-----------------------|-----------------------------|
|-----------------------|---------0--(0)-(0)----|----------2--(2)-(2)---------|
|-----2--(2)-(2)--------|---------2--(2)-(2)----|----------2--(2)-(2)---------|
|-----2--(2)-(2)--------|-3---3---3--(3)-(3)----|--4---4---4--(4)-(4)---------|
|-0-0-------------------|-----------------------|-----------------------------|


              D5            A#5A5
                     ~~~~~~~
   S  S  S  S  S  S  E  +Q      +Q
|------------------------------------------------|
|------------------------------------------------|
|-15----15----15----15-(15)----(15)\-------------|
|----14----14----14------------------------------|
|------------------------------------------------|
|------------------------------------------------|
|
|  PM---|
|  E     E     S  S  E   S  E.   E   S      +S
|------------------------------------------------|
|------------------------------------------------|
|------------------------------------------------|
|--------------7--7--7---------------------------|
|--5-----5-----5--5--5------8----7---------------|
|---------------------------6----5---3b3.5==(3)r-|


           E5/B
   PM---|             PM---|            PM---|            PM---|
   |--3--|  |--3---|  |--3--|  |--3--|  |--3--|  |--3--|  |--3--|  |--3--|
   S  S  S  S   S  S  S  S  S  S  S  S  S  S  S  S  S  S  S  S  S  S  S  S
|--------------------------------------------------------------------------|
|--------------------------------------------------------------------------|
|--------------------------------------------------------11-12-15-11h12h15-|
|--------------------------------------11-12-15-11h12h15-------------------|
|--------------------11-12-15-11h12h15-------------------------------------|
|-11-12-15-11h=12h15-------------------------------------------------------|
|
|  E        H..
|--------------------------------------------------------------------------|
|--------------------------------------------------------------------------|
|--------------------------------------------------------------------------|
|-----------2--------------------------------------------------------------|
|-----------2--------------------------------------------------------------|
|--------------------------------------------------------------------------|


           C
                                                          ~~~~~~~~~~~~
   |--3--|  |--3---|  |--3--|              |--3--|  |--3--|
   S  S  S  S   S  S  S  S  S  T  T  T  T  S  S  S  S  S  S      +Q
|--------------------11-12-15-12h15p12p11-15p12p11-15p12-15b18==(15)r---|
|-11-12-15-11h=12h15----------------------------------------------------|
|-----------------------------------------------------------------------|
|-----------------------------------------------------------------------|
|-----------------------------------------------------------------------|
|-----------------------------------------------------------------------|
|
|  E        H..
|-----------------------------------------------------------------------|
|-----------------------------------------------------------------------|
|-----------0-----------------------------------------------------------|
|-----------2-----------------------------------------------------------|
|-----------3-----------------------------------------------------------|
|-----------------------------------------------------------------------|


       A/C#
  |----3----|  |--3--| |--3--|
  E  E      E  S  S  S S  S  S  T  T  T T  T  T  T  T  T T  T  T  T  T  T  T
|---12-----14-17p14p12---12-14-17p14p12---12-14-17p14p12---12-14-17p14p12-12-|
|----------------------------------------------------------------------------|
|----------------------------------------------------------------------------|
|----------------------------------------------------------------------------|
|----------------------------------------------------------------------------|
|----------------------------------------------------------------------------|
|
| E    H..
|----------------------------------------------------------------------------|
|----------------------------------------------------------------------------|
|------2---------------------------------------------------------------------|
|------2---------------------------------------------------------------------|
|------4---------------------------------------------------------------------|
|----------------------------------------------------------------------------|


             D5                            A#5               A5
  |---------7---------|  |-----6------|  |--------7--------|   |--------7--------|
  S  S  S  S    S  S  S  E   S  S  S  S  E     S  S  S  S  S  +E   S  S    S  S  S
|---12h15h19p==15p12h15-20p=15p12h15p12--------------------------------------------|
|---------------------------------------20p===15p12h15p12--------------------------|
|---------------------------------------------------------20-(20)p15p12h==15p12----|
|-------------------------------------------------------------------------------20-|
|----------------------------------------------------------------------------------|
|----------------------------------------------------------------------------------|
|
| E          E          +Q               S E.                  E        E
|----------------------------------------------------------------------------------|
|----------------------------------------------------------------------------------|
|----------------------------------------------------------------------------------|
|------------7----------(7)--------------------------------------------------------|
|------------5----------(5)----------------8-------------------7-------------------|
|------------------------------------------6-------------------5--------3----------|


              E5/B                                     C
                       ~~~~                             ~~~
   S  S  S  S  S   S  +Q           E Q      S  S  S  S  H            +Q
|----------------------------------------|---------------------------------|
|----------------------------------------|---------------------------------|
|----------------------------------------|-15----15----15-----------(15)\--|
|-20p15p12h15p12--14-(14)---------14s5/--|----14----14---------------------|
|----------------------------------------|---------------------------------|
|----------------------------------------|---------------------------------|
|
|  PM---|                                   PM---|
|  E     E     E.         +S  +H            E     E     E. +S  +H
|----------------------------------------|---------------------------------|
|----------------------------------------|---------------------------------|
|----------------------------------------|--------------0--(0)-(0)---------|
|--------------2----------(2)-(2)--------|--------------2--(2)-(2)---------|
|--------------2----------(2)-(2)--------|--3-----3-----3--(3)-(3)---------|
|--0-----0-------------------------------|---------------------------------|


                       A/C#
                                              ~~~~
  E  a      S  +S       +Q        S   a      +E.  +E   E
|--------------------------------15-----------------------|
|---15b17==15r(15)b17==(15)r---------15b17==(15)-(15)rS8/-|
|---------------------------------------------------------|
|---------------------------------------------------------|
|---------------------------------------------------------|
|---------------------------------------------------------|
|
| PM-------|
| E         E            E.  +S  +H
|---------------------------------------------------------|
|---------------------------------------------------------|
|------------------------2---(2)-(2)----------------------|
|------------------------2---(2)-(2)----------------------|
|-4---------4------------4---(4)-(4)----------------------|
|---------------------------------------------------------|


            D5                A#5       A5
    E  S  S  S  S  E      +E      +E    E  E
|-----18----18----18b21==(18)----(18)r\----------------|
|-/17----17----17--------------------------------------|
|---------------------------------------7s14-----------|
|------------------------------------------------------|
|------------------------------------------------------|
|------------------------------------------------------|
|
|   PM|
|   E  E     S  S  E       S  E.        E  S      +S
|------------------------------------------------------|
|------------------------------------------------------|
|------------------------------------------------------|
|------------7--7--7-----------------------------------|
|---5--5-----5--5--5----------8---------7--------------|
|-----------------------------6---------5--3b3.5==(3)r-|


           E5/B
   |--3--|  |---3---|  |--3--|  |--3--|  |--3--|  |--3--|  |--3--|  |--3--|
   S  S  S  S    S  S  S  S  S  S  S  S  S  S  S  S  S  S  S  S  S  S  S  S
|-----------------------------------------------------------------------------|
|-12------------------12----------------12----------------12------------------|
|----15-14-12---14-15----15-14-12-14-15----15-14-12-14-15----15-14-12-14-15---|
|-----------------------------------------------------------------------------|
|-----------------------------------------------------------------------------|
|-----------------------------------------------------------------------------|
|
|  E        H..
|-----------------------------------------------------------------------------|
|-----------------------------------------------------------------------------|
|-----------------------------------------------------------------------------|
|-----------2-----------------------------------------------------------------|
|-----------2-----------------------------------------------------------------|
|-----------------------------------------------------------------------------|


          C                                        
                                  ~~               
   E.          S  +E        E  a  Q   E      +E    
|------------------------------------14b16==(14)r-|
|-12b12.5-----12-(12)b12.5------------------------|
|-12b12.5-----12-(12)b12.5------------------------|
|--------------------------14-12h14---------------|
|-------------------------------------------------|
|-------------------------------------------------|
|
|  E      H..                                      
|-------------------------------------------------|
|-------------------------------------------------|
|---------0---------------------------------------|
|---------2---------------------------------------|
|---------3---------------------------------------|
|-------------------------------------------------|

        A/C#                                                                              
                                                                                      ~~~~
   S  S  S      +S    S  S  S      +S    S  S  a      +S    a  S      +S   S  a      +E   
|-12-14--------------12-14--------------12-14--------------12----------------------------|
|-------15b17==(15)r-------15b17==(15)r-------15b17==(15)r----14pb15r(14)p12-------------|
|----------------------------------------------------------------------------14b16==(14)-|
|----------------------------------------------------------------------------------------|
|----------------------------------------------------------------------------------------|
|----------------------------------------------------------------------------------------|
|                                                                                         
|  E     H..                                                                              
|----------------------------------------------------------------------------------------|
|----------------------------------------------------------------------------------------|
|--------2-------------------------------------------------------------------------------|
|--------2-------------------------------------------------------------------------------|
|--------4-------------------------------------------------------------------------------|
|----------------------------------------------------------------------------------------|

       D5                     A#5          A5
 ~~~~~~~~~~~~~
   +E   +E     S   S  S  S  S  S   S  a  S  S  a  S  S  a  S
|--------------------15-----------19-------20-------21-------||
|-------------11s=12----12-12s15-----15s17----17s18----18s19-||
|-(14)-(14)r\------------------------------------------------||
|------------------------------------------------------------||
|------------------------------------------------------------||
|------------------------------------------------------------||
|
|   E    E    +Q            S  E.           E        E
|------------------------------------------------------------||
|------------------------------------------------------------||
|------------------------------------------------------------||
|--------7----(7)--------------------------------------------||
|--------5----(5)--------------8------------7----------------||
|------------------------------6------------5--------3-------||


 Bridge
  $
        N.C.
                           ~~~~~~~~~~~~~~
   a     +Q        a      +Q        +Q          +Q
|-22b24-(22)------22b24==(22)------(22)\-------(22)r\-----|
|---------------------------------------------------------|
|---------------------------------------------------------|
|---------------------------------------------------------|
|---------------------------------------------------------|
|---------------------------------------------------------|
|
|             PM|              PM|          ~~~       PM|
|         S S S S          S S S S   S   S  Q         S S
|---------------------------------------------------------|
|---------------------------------------------------------|
|---------------------------------------------------------|
|------------------------------------------[5]------------|
|---------7p5--------------7p5-------7p==5----------------|
|-------------0-0--------------0-0--------------------0-0-|
|
| Gtr IV
|             PM|              PM|          ~~~       PM|
|         S S S S          S S S S   S   S  Q         S S
|---------------------------------------------------------|
|---------------------------------------------------------|
|---------------------------------------------------------|
|-------------------------------------------5-------------|
|---------7p5--------------7p5-------7p==5----------------|
|-------------0-0--------------0-0--------------------0-0-|


  W                              W
|------------------------------|---------------------------------|
|------------------------------|---------------------------------|
|------------------------------|---------------------------------|
|------------------------------|---------------------------------|
|------------------------------|---------------------------------|
|------------------------------|---------------------------------|
|
|     PM|     PM|      ~~~ PM|       PM|     PM|      ~~~  PM|
| S S S S S S S S S S  Q   S S   S S S S S S S S S S  Q    S  S
|------------------------------|---------------------------------|
|------------------------------|---------------------------------|
|------------------------------|---------------------------------|
|---------------------[7]------|---------------------[5]---------|
|-7p5-----7p5-----7p5----------|-7p5-----7p5-----7p5-------------|
|-----0-0-----0-0----------0-0-|-----0-0-----0-0-----------0--0--|
|
|     PM|     PM|      ~~~ PM|       PM|     PM|      ~~~  PM|
| S S S S S S S S S S  Q   S S   S S S S S S S S S S  Q    S  S
|------------------------------|---------------------------------|
|------------------------------|---------------------------------|
|----------------------2-------|---------------------------------|
|------------------------------|----------------------5---12-12--|
|-7p5-----7p5-----7p5----------|-7p5-----7p5-----7p5-------------|
|-----0-0-----0-0----------0-0-|-----0-0-----0-0-----------------|


   S  S  S  S  S  S  S S  S S S S S S E
|---------------------------------------|
|---------------------------------------|
|-14p12----12s11----11s9----9s7---7s6---|
|-------14-------12------11-----9-----7-|
|---------------------------------------|
|---------------------------------------|
|
|  S  S  S  S  S  S  S S  S S S S S S E
|---------------------------------------|
|---------------------------------------|
|---------------------------------------|
|---------------------------------------|
|-12p10----10s=9-----9s7----7s5---5s4---|
|-------12-------10-------9-----7-----5-|


      PM|     PM|      ~~~ PM|       PM|     PM|      ~~~ PM|
  S S S S S S S S S S  Q   S S   S S S S S S S S S S  Q   S S
|------------------------------|--------------------------------|
|------------------------------|--------------------------------|
|------------------------------|--------------------------------|
|---------------------[5]------|---------------------[7]--------|
|-7p5-----7p5-----7p5----------|-7p5-----7p5-----7p5------------|
|-----0-0-----0-0----------0-0-|-----0-0-----0-0----------0-0---|
|
|     PM|     PM|      ~~~ PM|       PM|     PM|      ~~~ PM|
| S S S S S S S S S S  Q   S S   S S S S S S S S S S  Q   S S
|------------------------------|--------------------------------|
|------------------------------|--------------------------------|
|------------------------------|--------------------------------|
|----------------------5-------|----------------------7---------|
|-7p5-----7p5-----7p5----------|-7p5-----7p5-----7p5------------|
|-----0-0-----0-0----------0-0-|-----0-0-----0-0----------0-0---|


                        To Coda
      PM|     PM|      ~~~ PM|
  S S S S S S S S S S  Q   S S    S  S  S  S  S  S  S  S  S  S  S  S  S S  E
|------------------------------|-17p15----15s14----14s12----12s10----10s9----|
|------------------------------|-------17-------15-------14-------12------10-|
|------------------------------|---------------------------------------------|
|---------------------[5]------|---------------------------------------------|
|-7p5-----7p5-----7p5----------|---------------------------------------------|
|-----0-0-----0-0----------0-0-|---------------------------------------------|
|
|     PM|     PM|      ~~~ PM|
| S S S S S S S S S S  Q   S S    S  S  S  S  S  S  S  S  S  S  S  S  S S  E
|--------------------------0-0-|---------------------------------------------|
|------------------------------|---------------------------------------------|
|------------------------------|-14p12----12s11----11s=9-----9s=7-----7s6----|
|----------------------5-------|-------14-------12-------11--------9-------7-|
|-7p5-----7p5-----7p5----------|---------------------------------------------|
|-----0-0-----0-0--------------|---------------------------------------------|
|
| Gtr IV
| W                               S  S  S  S  S  S  S  S  S  S  S  S  S S  E
|------------------------------|---------------------------------------------|
|------------------------------|---------------------------------------------|
|------------------------------|---------------------------------------------|
|------------------------------|---------------------------------------------|
|------------------------------|-12p10----10s=9-----9s=7-----7s=5-----5s4----|
|------------------------------|-------12-------10--------9--------7-------5-|


   PM--------------------------------|              PM------------------------------|
   S   S  S  S  S   S  S  S  S  S  S  S  S  S  E    S  S  S  S  S  S  S  S  S  S  S  S  S  S  E
|------------------------------------------------|----------------------------------------------|
|------------------------------------------------|----------------------------------------------|
|------------------------------------------------|----------------------------------------------|
|---------------------------------------------12-|-------------------------------------------12-|
|--------------12-----12----13----12----13h14----|-------------12----12----13----12----13h14----|
|-12--15-12-15-----15----15----15----15----------|-12-15-12-15----15----15----15----15----------|
|
|  ~~~
| +Q            H.                                  W
|------------------------------------------------|----------------------------------------------|
|------------------------------------------------|----------------------------------------------|
|------------------------------------------------|----------------------------------------------|
|-(7)--------------------------------------------|----------------------------------------------|
|------------------------------------------------|----------------------------------------------|
|------------------------------------------------|----------------------------------------------|


   PM------------------------------|              PM------------------|
   S  S  S  S  S  S  S  S  S  S  S  S  S  S  E    S  S  S  S  S  S  S  S  S  S  S  S  +Q
|----------------------------------------------|----------------------------------------------||
|----------------------------------------------|----------------------------------------------||
|----------------------------------------------|----------------------------------------------||
|-------------------------------------------12-|----------------------------------------------||
|-------------12----12----13----12----13h14----|-------------12----12----13-12-10-------------||
|-12-15-12-15----15----15----15----15----------|-12-15-12-15----15----15----------12-(12)\----||
|
|  W                                              H                       S  S  S  S  +Q
|----------------------------------------------|----------------------------------------------||
|----------------------------------------------|----------------------------------------------||
|----------------------------------------------|----------------------------------------------||
|----------------------------------------------|----------------------------------------------||
|----------------------------------------------|-------------------------13-12-10-------------||
|----------------------------------------------|----------------------------------12-(12)\----||


 3rd Chorus
  E5      A5
  Gtrs I, II
  PM--------------------|
  S S S S S S S S S S S S S S E
|-------------------------------|
|-------------------------------|
|-------------------------------|
|---------2---2---------------0-|
|-2---2---0---0---1---0---1h2---|
|-0-3-0-3---3---3---3---3-------|


  E5      A5                      E5      A5
  PM--------------------|         PM--------------------|
  S S S S S S S S S S S S S S E   S S S S S S S S S S S S S S E
|-------------------------------|-------------------------------|
|-------------------------------|-------------------------------|
|-------------------------------|-------------------------------|
|---------2---2---------------0-|---------2---2---------------0-|
|-2---2---0---0---1---0---1h2---|-2---2---0---0---1---0---1h2---|
|-0-3-0-3---3---3---3---3-------|-0-3-0-3---3---3---3---3-------|


  E5      A5            E5     E5      A5
  PM------------|              PM--------------------|
  S S S S S S S S S S S S Q    S S S S S S S S S S S S S S E
|----------------------------|-------------------------------|
|----------------------------|-------------------------------|
|----------------------------|-------------------------------|
|---------2---2--------------|---------2---2---------------0-|
|-2---2---0---0---1-0---2----|-2---2---0---0---1---0---1h2---|
|-0-3-0-3---3---3-----3-0----|-0-3-0-3---3---3---3---3-------|


  E5      A5
  PM--------------------|
  S S S S S S S S S S S S S S E
|--------------------------------|
|--------------------------------|
|--------------------------------|
|---------2---2---------------0--|
|-2---2---0---0---1---0---1h2----|
|-0-3-0-3---3---3---3---3--------|


  E5      A5                      E5      A5            E5
  PM--------------------|         PM------------|
  S S S S S S S S S S S S S S E   S S S S S S S S S S S S Q
|-------------------------------|----------------------------|
|-------------------------------|----------------------------|
|-------------------------------|----------------------------|
|---------2---2---------------0-|---------2---2--------------|
|-2---2---0---0---1---0---1h2---|-2---2---0---0---1-0---2----|
|-0-3-0-3---3---3---3---3-------|-0-3-0-3---3---3-----3-0----|


                                                D.S. al Coda
  E5      A5                      E5      A5            E5
  PM--------------------|         PM------------|
  S S S S S S S S S S S S S S E   S S S S S S S S S S S S Q
|-------------------------------|----------------------------||
|-------------------------------|----------------------------||
|-------------------------------|----------------------------||
|---------2---2---------------0-|---------2---2--------------||
|-2---2---0---0---1---0---1h2---|-2---2---0---0---1-0---2----||
|-0-3-0-3---3---3---3---3-------|-0-3-0-3---3---3-----3-0----||


  &
  Gtrs I, II
   S  S  S  S  S  S  S  S  S  S  S  S  S S  E
|-17p15----15s14----14s12----12s10----10s9----|
|-------17-------15-------14-------12------10-|
|---------------------------------------------|
|---------------------------------------------|
|---------------------------------------------|
|---------------------------------------------|
|
| Gtr III
|  S  S  S  S  S  S  S  S  S  S  S  S  S S  E
|---------------------------------------------|
|---------------------------------------------|
|-14p12----12s11----11s=9-----9s=7-----7s6----|
|-------14-------12-------11--------9-------7-|
|---------------------------------------------|
|---------------------------------------------|
|
| Gtr IV
|  S  S  S  S  S  S  S  S  S  S  S  S  S S  E
|---------------------------------------------|
|---------------------------------------------|
|---------------------------------------------|
|---------------------------------------------|
|-12p10----10s=9-----9s=7-----7s=5-----5s4----|
|-------12-------10--------9--------7-------5-|


                             E5
 5/4
                 |-3-|
  S S S S S S Q  S S S S S S E E.
|---------------------------------*|
|---------------------------------*|
|---------------------------------*|
|----------------------------2----*|
|----------------0h1p0-------2----*|
|-0-0-0-0---0----------3---3-0----*|
|
|                |-3-|
| S S S S S S Q  S S S S S S E E.
|---------------------------------*|
|---------------------------------*|
|---------------------------------*|
|----------------------------2----*|
|----------------0h1p0-------2----*|
|-7-0-0-0---0----------3---3-0----*|
|
| W
|---------------------------------*|
|---------------------------------*|
|---------------------------------*|
|---------------------------------*|
|---------------------------------*|
|---------------------------------*|


Tablature Legend
----------------
 h   - hammer-on
 p   - pull-off
 b   - bend
 pb  - pre-bend
 r   - bend release (if no number after the r, then release immediately)
 /\  - slide into or out of (from/to "nowhere")
 s   - legato slide
 S   - shift slide
  - natural harmonic
[n]  - artificial harmonic
n(n) - tapped harmonic
 ~   - vibrato
 tr  - trill
 T   - tap
 TP  - trem. picking
 PM  - palm muting
\n/  - tremolo bar dip; n = amount to dip
 \n  - tremolo bar down
 n/  - tremolo bar up
/n\  - tremolo bar inverted dip
 =   - hold bend; also acts as connecting device for hammers/pulls
 <>  - volume swell (louder/softer)
 x   - on rhythm slash represents muted slash
 o   - on rhythm slash represents single note slash

Misc Legend
-----------
 |  - bar
||  - double bar
||o - repeat start
o|| - repeat end
*|  - double bar (ending)
 :  - bar (freetime)
 $  - Segno
 &  - Coda
Tempo markers -  = BPM(8/16=s8/s16), where s8 = swing 8ths, s16 = swing 16ths

============================================================



Drag The Waters
Tabbed by TooTH-PiCK (tooth-pick@usa.net)

Tune DOWN 1 1/2 steps

= Bend And Do stuff... Listen to cd...
b = Bend
. = Palm Mute (Right hand)

*INTRO*
|-------------------|-------------------|-------------------|-------------------|
|-------------------|-------------------|-------------------|-------------------|
|-------------------|-------------------|-------------------|---2b--0-2-0-------|
|-------------------|-------------------|-------------------|-------------2-----|
|-------------------|-------------------|-------------------|-------------------|
|-1-0----0-1-0----0-|-1-0----0-1-0----0-|-1-0----0-1-0----0-|-0--------------5b-|
                                                          .....
|Fig. 1                                                               End Fig. 1|
|--------------------|------------------|-------------------|-------------------|
|*-------------------|------------------|-------------------|------------------*|
|--------------------|---2b--0-2-0------|-------------------|---2b--0-2-0-------|
|--------------------|-------------2----|-------------------|-------------2-----|
|*-3-2------3-2------|------------------|-3-2------3-2------|------------------*|
|--1-0----0-1-0----0-|-0-------------5b-|-1-0----0-1-0----0-|-0-------------5b--|
                   .....                                  .....

*VERSE*
      Smack on the wrists is the words...
|--------------------|-----------------|-----------------|---------------------|
|*-------------------|-----------------|-----------------|---------------------|
|--------------------|-----------------|-----------------|---------------------|
|--------------------|-----------------|-----------------|---------------------|
|*-3-2----X----X-X-X-|--X-X-X----X-X-X-|--X-X-X----X-X-X-|-----5~------7~------|
|--1-0----X----X-X-X-|--X-X-X----X-X-X-|--X-X-X----X-X-X-|-3/5-----5/7-----8-7-|
          ..............................................

|-------------------|-----------------|-----------------|-----------------------|
|-------------------|-----------------|-----------------|----------------------*|
|-------------------|-----------------|-----------------|-----------------------|
|-------------------|-----------------|-----------------|-----------------------|
|-3-2----X----X-X-X-|--X-X-X----X-X-X-|--X-X-X----X-X-X-|-----5~------7~--10-9-*|
|-1-0----X----X-X-X-|--X-X-X----X-X-X-|--X-X-X----X-X-X-|-3/5-----5/7------8-7--|
          ..............................................

*CHORUS*
|------------------|-------------------|------------------|-------------------|
|------------------|-------------------|------------------|-------------------|
|---2b--0-2-0------|-------------------|---2b--0-2-0------|-------------------|
|-------------2----|-------------------|-------------2----|-------------------|
|------------------|-3-2------3-2------|------------------|-3-2------3-2------|
|-X-------------5b-|-1-0----0-1-0----0-|-0-------------5b-|-1-0----0-1-0----0-|
                                     .....                                  ...

|---------------------|---------------------|--------------------------------|
|---------------------|---------------------|--------------------------------|
|---2b--0-2-0---------|---------------------|--------------------------------|
|---------------------|---------------------|--------------------------------|
|-------------1-0-----|-----1-1-----3b------|---------1-1-----1b----1b-------|
|-0----------------1b-|---3-----3-1-------1-|-(1)---3-----3-1-----------1----|
...                         .......                   .......

|-------------------------|----------------------------|------------------------|
|-------------------------|----------------------------|------------------------|
|-------------------------|----------------------------|------------------------|
|-------------------------|----------------------------|------------------------|
|---------1-1-----3b------|--------1-1-----3b---1~-----|---------3-3-----5b-----|
|-(1)b--3-----3-1-------1-|-(1)--3-----3-1-----------3-|-(3)b--5-----5-3-------3|
          .......                  .......                       .......

|------------------------------|-------------------------|------------------------|
|------------------------------|-------------------------|------------------------|
|------------------------------|-------------------------|------------------------|
|------------------------------|-------------------------|-----------------5-7--8-|
|---------3-3-----5b----3b-----|---------3-3-----5b------|---------3-3-----3-5--6-|
|-(3)b--5-----5-3-------------3|-(3)b--5-----5-3-------3-|-(3)b--5-----5-3-3-5--6-|
          .......                        .......                   .......

                         Drag the waters some more...
|--------------------|------------------|-------------------|-------------------|
|--------------------|------------------|-------------------|-------------------|
|--------------------|---2b--0-2-0------|-------------------|---2b--0-2-0-------|
|--------------------|-------------2----|-------------------|-------------2-----|
|--3-2------3-2------|------------------|-3-2------3-2------|-------------------|
|--1-0----0-1-0----0-|-0-------------5b-|-1-0----0-1-0----0-|-0-------------5b--|
                   .....                                  .....

|--------------------|------------------|-------------------|-------------------|
|--------------------|------------------|-------------------|-------------------|
|--------------------|---2b--0-2-0------|-------------------|---2b--0-2-0-------|
|--------------------|-------------2----|-------------------|-------------2-----|
|--3-2------3-2------|------------------|-3-2------3-2------|-------------------|
|--1-0----0-1-0----0-|-0-------------5b-|-1-0----0-1-0----0-|-0-------------5b--|
                   .....                                  .....

*BREAK*
|-----------------------|----------------------------------|-----------------------------|
|--------15---15-----15-|----15----15----------------------|-------17p15p12--17-17p15p12-|
|----x-x-14b----14b-----|-14----14----14-(14)p12-14~~(14)\-|-----x-----------------------|
|----x-x----------------|----------------------------------|-----x-----------------------|
|3-2-x-x----------------|----------------------------------|-3-2-x-----------------------|
|1-0--------------------|----------------------------------|-1-0-------------------------|

|----------------------------------------|-------------------|--------------------------|
|-17-17p15p12-17-17p15p12-x-17p15p12-17b~|-------------------|--------------------------|
|----------------------------------------|------2b-(2)--2--0-|-2p0----0-----------------|
|----------------------------------------|-------------------|-----2--------------------|
|----------------------------------------|-3-2---------------|--------------------------|
|----------------------------------------|-1-0---------------|-----------5--(5)b--(5)~~-|

|-------------------|------|
|-------------------|------|
|-------------------|------|
|-------------------|------|
|-3--2--------------|------|
|-1--0--0--0--0--0--|------|
      .......

*SOLO*

|--------------------------------|----------------------------|---------------------------|
|--------------------------------|-7--------------------------|-8---10-8----8------8--8---|
|--------------------7h9-9---7-9-|---9-7---9---7-9-7b--(3)-/9-|---9------9~---9/12---10b--|
|-----5---7--5--7/9--------9-----|-------9---9----------------|---------------------------|
|-5h7---7------------------------|----------------------------|---------------------------|
|--------------------------------|----------------------------|---------------------------|


|-------------------------|-----------------|------------------------------------------|
|-(8)\--------------------|-----------------|------------------------------------------|
|(12)\----12----14--12-14-|-14%%(14)p12-|-14b--14b--(14)p12-14-14b--12~~-----(12)/-|
|-------14--(14)--14------|-----------------|------------------------------------------|
|-------------------------|-----------------|------------------------------------------|
|-------------------------|-----------------|------------------------------------------|
|
|Gtr. 2
|-------------------------|-----------------|-----------------------------------------|
|-------------------------|-----------------|-----------------------------------------|
|2b--0--2-0---------------|-----------------|-----------------------------------------|
|-----------2-------------|-----------------|-----------------------------------------|
|-------------------------|-----------------|-----------------------------------------|
|--------------5b---------|-1--0------------|-----------------------------------------|

               ________________________________
|-12--15--12--^------------*T------T------T----|-15b--------------(15)\-|
|---15--15--15b---15~------19-15--20-15--19-15-|------------------------|
|----------------------------------------------|------------------------|
|----------------------------------------------|------------------------|
|----------------------------------------------|------------------------|
|----------------------------------------------|------------------------|
|[Gtr. 2.]                 *Hold bend while tapping
|----------------------------------------------|------------------------|
|----------------------------------------------|------------------------|
|----------------------------------------------|------2b--0-2-0---------|
|----------------------------------------------|----------------2-------|
|----------------------------------------------|------------------------|
|----------------------------------------------|---------------------5b-|

|-----12------------12-----------12------|------12-----------12----------12-----------12------|
|-------15p12-15b~----15p12-15b----15p12-|--------15p12-15b----15p12-------15p12-15b----15p12-|
|-/12------------------------------------|-14b----------------------14b-----------------------|
|----------------------------------------|----------------------------------------------------|
|----------------------------------------|----------------------------------------------------|
|----------------------------------------|----------------------------------------------------|
|[Gtr.2]
|----------------------------------------|----------------------------------------------------|
|----------------------------------------|----------------------------------------------------|
|----------------------------------------|----------------------------------------------------|
|----------------------------------------|----------------------------------------------------|
|----------------------------------------|----------------------------------------------------|
|-1--0----0---------0--------0----0------|----0-----------0---0-----------0--------0---0------|
                    ....................................................................

|-15b---------(15)~~~~~-|--------------------------|---15-17-18-19-19b-------|
|-----------------------|------------------------10/17-------------------/17-|
|-----------------------|--------------------------|-------------------------|
|-----------------------|--------------------------|-------------------------|
|-----------------------|--------------------------|-------------------------|
|-----------------------|--------------------------|-------------------------|
|[Gtr. 2]
|-----------------------|--------------------------|-------------------------|
|-----------------------|--------------------------|-------------------------|
|-----------------------|---2b--0-2-0--------------|-------------------------|
|-----------------------|-------------2------------|-------------------------|
|-----------------------|-x------------------------|-------------------------|
|--0--0--0-----0--0--0--|-x--------------5b--------|-1--0----0------0--0--0--|
   ........................

|-15--17--18--19-(19)~------|-19--20--21--22--22b----22-22b-|----------(22)--|
|---17--17--17----------/20-|---20--20--20--20--------------|----------------|
|---------------------------|-------------------------------|----------------|
|---------------------------|-------------------------------|----------------|
|---------------------------|-------------------------------|----------------|
|---------------------------|-------------------------------|----------------|
|[Gtr. 2]
|---------------------------|-------------------------------|----------------|
|---------------------------|-------------------------------|----------------|
|---------------------------|-------------------------------|-2b--0-2-0------|
|---------------------------|-------------------------------|-----------2----|
|---------------------------|-------------------------------|----------------|
|---0--0--0------0--0--0----|-----0--0--0--------0--0---0---|--------------5b|

  Yeah      Ha          Drag the waters some more...
|-22b~~~-----22b^^\--|------------------|-------------------|-------------------|
|--------------------|------------------|-------------------|-------------------|
|--------------------|------------------|-------------------|-------------------|
|--------------------|------------------|-------------------|-------------------|
|--------------------|------------------|-------------------|-------------------|
|--------------------|------------------|-------------------|-------------------|
|[Gtr. 2]
|--------------------|------------------|-------------------|-------------------|
|--------------------|------------------|-------------------|-------------------|
|--------------------|---2b--0-2-0------|-------------------|---2b--0-2-0-------|
|--------------------|-------------2----|-------------------|-------------2-----|
|--3-2------3-2------|------------------|-3-2------3-2------|-------------------|
|--1-0----0-1-0----0-|-0-------------5b-|-1-0----0-1-0----0-|-0-------------5b--|
                   .....                                  .....
                                            _____________
|--------------------|------------------|---^---------------|
|--------------------|------------------|---^---------------|
|--------------------|------------------|-7b^--7------7-(7)-|
|--------------------|------------------|-------------------|
|--------------------|------------------|-------------------|
|--------------------|------------------|-------------------|
|
|--------------------|------------------|-------------------|
|--------------------|------------------|-------------------|
|--------------------|---2b--0-2-0------|-------------------|
|--------------------|-------------2----|-------------------|
|--3-2------3-2------|------------------|-3-2------3-2------|
|--1-0----0-1-0----0-|-0-------------5b-|-1-0----0-1-0----0-|
                     

|-------------------|---------------------|------------------|
|-------------------|---------------------|------------------|
|--12-14-14b-14-14b-|14b-------(14)~~~----|--(14)~~~----(14)\|
|-------------------|---------------------|------------------|
|-------------------|---------------------|------------------|
|-------------------|---------------------|------------------|
|
|-------------------|---------------------|------------------|
|-------------------|---------------------|------------------|
|----2b--0-2-0------|---------------------|---2b--0-2-0------|
|--------------2----|---------------------|-------------2----|
|-------------------|-3-2-------3-2-------|------------------|
|-0---------------5-|-1-0---0-0-1-0---0-0-|-0-------------5b-|
                            ...       .......

|------------------------|---------------15b|-----------15b--12-----|
|------------------------|------------------|--------------------15b|
|------------------------|------------------|-----------------------|
|------------------------|------------------|-----------------------|
|------------------------|------------------|-----------------------|
|------------------------|------------------|-----------------------|
|
|------------------------|------------------|-----------------------|
|------------------------|------------------|-----------------------|
|------------------------|---2b--0-2-0------|-----------------------|
|------------------------|-------------2----|-----------------------|
|--3-2--------3-2--------|------------------|-3-2--------3-2--------|
|--1-0-0--0-0-1-0-0--0-0-|-0-------------5b-|-1-0-0--0-0-1-0-0--0-0-|
       ......     ..........                      ......     ......


|-------------------|-----------------------|-17b-15-17p15----------|
|-(15)~~------------|-----------------------|--------------17-17----|
|-------------------|-----------------------|--------------------14-|
|-------------------|-----------------------|-----------------------|
|-------------------|-----------------------|-----------------------|
|-------------------|-----------------------|-----------------------|
|
|-------------------|-----------------------|-----------------------|
|-------------------|-----------------------|-----------------------|
|----2b--0-2-0------|-----------------------|---2b--0-2-0-----------|
|--------------2----|-----------------------|-------------2---------|
|-------------------|-3-2--------3-2--------|-----------------------|
|-0---------------5-|-1-0-0--0-0-1-0-0--0-0-|-0-------------5-------|
                          ......     ..........

   (lyric ad lib)                             ha  huh   ha   huh
|---------------|----------------|---------------|---------------|
|---------------|----------------|---------------|---------------|
|-(14)b~~~------|----------------|---------------|---------------|
|---------------|----------------|---------------|---------------|
|---------------|----------------|---------------|---------------|
|---------------|----------------|---------------|---------------|
|
|---------------|----------------|---------------|---------------|
|---------------|----------------|---------------|---------------|
|---------------|----------------|---------------|---------------|
|---------------|----------------|---------------|---------------|
|---------------|------------x-x-|---------------|---------------|
|-(5)*-(5)--(5)-|-(5)--------x-x-|-1-0--0-1-0--0-|-1-0--0-1-0--0-|
*Use bar to raize each time
                                    
|---------------|------------------|
|---------------|------------------|
|---------------|---2b--0-2-0------|
|---------------|-------------2----|
|---------------|------------------|
|-1-0--0-1-0--0-|-0-------------5b-|

*OUTRO*
|--------------------|------------------|-------------------|-------------------|
|--------------------|------------------|-------------------|-------------------|
|--------------------|---2b--0-2-0------|-------------------|---2b--0-2-0-------|
|--------------------|-------------2----|-------------------|-------------2-----|
|--3-2------3-2------|------------------|-3-2------3-2------|-------------------|
|--1-0----0-1-0----0-|-0-------------5b-|-1-0----0-1-0----0-|-0-------------5b--|
                   .....                                  .....

                                                           in with it out with it...
|--------------------|------------------|--------------------|----------------|
|--------------------|------------------|--------------------|----------------|
|--------------------|---2b--0-2-0------|--------------------|----------------|
|--------------------|-------------2----|--------------------|----------------|
|--3-2------3-2------|------------------|-3-2------3-2-------|-5-7-8--7--8--9-|
|--1-0----0-1-0----0-|-0-------------5b-|-1-0----0-1-0----0-0|-3-5-6--5--6--7-|
                   .....                                  

|--------------------|------------------|--------------------|----------------|
|--------------------|------------------|--------------------|----------------|
|--------------------|---2b--0-2-0------|--------------------|----------------|
|--------------------|-------------2----|--------------------|----------------|
|--3-2------3-2------|------------------|-3-2------3-2-------|-5-7-8--7--8--9-|
|--1-0----0-1-0----0-|-0-------------5b-|-1-0----0-1-0----0-0|-3-5-6--5--6--7-|
                   .....                                  

|--------------------|------------------|--------------------|----------------|
|--------------------|------------------|--------------------|----------------|
|--------------------|---2b--0-2-0------|--------------------|----------------|
|--------------------|-------------2----|--------------------|----------------|
|--3-2------3-2------|------------------|-3-2------3-2-------|-5-7-8--7--8--9-|
|--1-0----0-1-0----0-|-0-------------5b-|-1-0----0-1-0----0-0|-3-5-6--5--6--7-|
                   .....                                  

|--------------------|------------------|-------------------|-------------------||
|--------------------|------------------|-------------------|-------------------||
|--------------------|---2b--0-2-0------|-------------------|---2b--0-2-0-------||
|--------------------|-------------2----|-------------------|-------------2-----||
|--3-2------3-2------|------------------|-3-2------3-2------|-------------------||
|--1-0----0-1-0----0-|-0-------------5b-|-1-0----0-1-0----0-|-0-------------5b--||
                   .....                                  .....

DONE!!! This is all correct i think (unless i made a typo)... And it took me forever 
to do so u better like it... But i know u will cause this song RULZ!!!

=============================================================


This Love


Tabbed by: Metal_Mania_89
                             

 Note lengths are written below the measures :
   w - whole note
   h - half note
   q - quarter note
   e - eight note
   s - sixteenth note
   t - thirty-second note

 Rest are noted as capitalized note lengths ie:
   W - whole rest
   H - half rest
   Q - quarter rest
   E - eight rest
   S - sixteenth rest
   T - thirty-second rest

 + is used to show slurs between notes, eg slide up from 5 to 7 without
  picking the 7 would be notated like :
   |---5/7----
       e+e
   sliding up with picking the 7 would be notated like :
   |---5/7----
       e e

 Notes without a note length are cue notes.


  h - hammer on
  p - pull off
  b - bend (amount of bend above the measure)
  r - release bend
  x - muffled string
  / - slide up
  \ - slide down
  ~ - vibrato (vib. above a measure means a more exaggerated vibrato)


               

Tune down one half step (Eb,Ab,Db,Gb,Bb,Eb)



                    4x                    2x
||-------------------|||-------------------||-----------------|-----|
||-------------------|||-------------------||-----------------|-----|
||o-----------------o|||o-----2-----2-----o||-----------------|-----|
||o-----2-----2-----o|||o---4-----4---4---o||-----2-----2-----|--%--|
||----4-----4---4----|||--2-----3-------3--||---4-----4---4---|-----|
||--2-----3-------3--|||-------------------||-2-----3-------3-|-----|
    e e e e e e e e       e e e e e e e e     e e e e e e e e

|-----------------|-----------------|------|---------------|------||
|-----------------|-----------------|------|---------------|------||
|-----0-----0-----|-----2-----0-----|------|-------2-------|-(2)--||
|---2-----2---2---|---2-----2---2---|---%--|-----2-2-------|-(2)--||
|-4-----3-------3-|-4-----3-------3-|------|---2---3-------|-(3)--||
|-----------------|-----------------|------|-4-----5-------|-(5)--||
  e e e e e e e e   e e e e e e e e          e e e e + h   +  w

  verse 1
|-----------------|-----|-----|-----|-----------------|-----|
|-----------------|-----|-----|-----|-----------------|-----|
|-----------------|-----|-----|-----|-----2-----2-----|-----|
|-----2-----2-----|--%--|--%--|--%--|---4-----4---4---|--%--|
|---4-----4---4---|-----|-----|-----|-2-----3-------3-|-----|
|-2-----3-------3-|-----|-----|-----|-----------------|-----|
  e e e e e e e e                     e e e e e e e e

|-----------------|-----|-----------------|-----------------|-----|
|-----------------|-----|-----------------|-----------------|-----|
|-----------------|-----|-----0-----0-----|-----2-----0-----|-----|
|-----2-----2-----|--%--|---2-----2---2---|---2-----2---2---|--%--|
|---4-----4---4---|-----|-4-----3-------3-|-4-----3-------3-|-----|
|-2-----3-------3-|-----|-----------------|-----------------|-----|
  e e e e e e e e         e e e e e e e e   e e e e e e e e

|-----------------|-----------------|-----------------|-----|
|-----------------|-----------------|-----------------|-----|
|-----------------|-----0-----0-----|-----2-----0-----|-----|
|-----2-----2-----|---2-----2---2---|---2-----2---2---|--%--|
|---2-----3---3---|-4-----3-------3-|-4-----3-------3-|-----|
|-4-----5-------5-|-----------------|-----------------|-----|
  e e e e e e e e   e e e e e e e e   e e e e e e e e

                        pre-chorus  w/fill 1
               2/4     4/4                4x
|--------------|-------||-------------------||
|--------------|-------||-------------------||
|-------2------|-(2)---||o-----------------o||
|-----2-2------|-(2)---||o-----2-----2-----o||
|---2---3------|-(3)---||----4-----4---4----||
|-4-----5------|-(5)---||--2-----3-------3--||
  e e e e + h  +  h


 chorus
 w/dist
|------------------------|---------------------|------------------------|
|------------------------|---------------------|------------------------|
|------------------------|---------------------|------------------------|
|------------------------|---------------------|------------------------|
|---4------4---4-----4-4-|---4------4-6--5---1-|---4------4---4-----4-4-|
|-0-2------2-0-2-----2-2-|-0-2------2-8--7---3-|-0-2------2-0-2-----2-2-|
  s s E E. s s s E E s s   s s E E. s e. s+e e   s s E E. s s s E E s s

|---------------------|-----------------|------------------|
|---------------------|-----------------|------------------|
|---------------------|-----------------|------------------|
|---------------------|-----------------|------------------|
|---4------4-6--5---1-|---4-------4-----|---4-----6--5---1-|
|-0-2------2-8--7---3-|-0-2-----0-2-----|-0-2-----8--7---3-|
  s s E E. s e. s+e e   s s E Q s s E Q   s s E Q e. s+e e

                                                                 fdbk.
|-----------------|------------------||-----------------|-----|-----|-----||
|-----------------|------------------||-----------------|-----|-----|-----||
|-----------------|------------------||-----------------|-----|-----|-----||
|-----------------|------------------||-----------------|-----|-----|-----||
|---4-------4-----|---4-----6--5---1-||-4---------------|-(4)-|-(4)-|-(4)-||
|-0-2-----0-2-----|-0-2-----8--7---3-||-2---------------|-(2)-|-(2)-|-(2)-||
  s s E Q s s E Q   s s E Q e. s+e e || w               +  w  +  w  +  w  ||
                                     ||                 |     |     |     ||
                                     ||clean elec.      |     |     |     ||
                                     ||-----------------|-----|-----|-----||
                                     ||-----------------|-----|-----|-----||
                                     ||-----------------|-----|-----|-----||
                                     ||-----2-----2-----|--%--|--%--|--%--||
                                     ||---4-----4---4---|-----|-----|-----||
                                     ||-2-----3-------3-|-----|-----|-----||
                                        e e e e e e e e

  verse 2
|-----------------|-----|-----|-----|-----------------|-----|
|-----------------|-----|-----|-----|-----------------|-----|
|-----------------|-----|-----|-----|-----2-----2-----|-----|
|-----2-----2-----|--%--|--%--|--%--|---4-----4---4---|--%--|
|---4-----4---4---|-----|-----|-----|-2-----3-------3-|-----|
|-2-----3-------3-|-----|-----|-----|-----------------|-----|
  e e e e e e e e                     e e e e e e e e

|-----------------|-----|-----------------|-----------------|-----|
|-----------------|-----|-----------------|-----------------|-----|
|-----------------|-----|-----0-----0-----|-----2-----0-----|-----|
|-----2-----2-----|--%--|---2-----2---2---|---2-----2---2---|--%--|
|---4-----4---4---|-----|-4-----3-------3-|-4-----3-------3-|-----|
|-2-----3-------3-|-----|-----------------|-----------------|-----|
  e e e e e e e e         e e e e e e e e   e e e e e e e e

|-----------------|-----------------|-----------------|-----|
|-----------------|-----------------|-----------------|-----|
|-----------------|-----0-----0-----|-----2-----0-----|-----|
|-----2-----2-----|---2-----2---2---|---2-----2---2---|--%--|
|---2-----3---3---|-4-----3-------3-|-4-----3-------3-|-----|
|-4-----5-------5-|-----------------|-----------------|-----|
  e e e e e e e e   e e e e e e e e   e e e e e e e e

                        pre-chorus   w/fill 2
               2/4     4/4                4x
|--------------|-------||-------------------||
|--------------|-------||-------------------||
|-------2------|-(2)---||o-----------------o||
|-----2-2------|-(2)---||o-----2-----2-----o||
|---2---3------|-(3)---||----4-----4---4----||
|-4-----5------|-(5)---||--2-----3-------3--||
  e e e e + h  +  h


 chorus
 w/dist
|------------------------|---------------------|------------------------|
|------------------------|---------------------|------------------------|
|------------------------|---------------------|------------------------|
|------------------------|---------------------|------------------------|
|---4------4---4-----4-4-|---4------4-6--5---1-|---4------4---4-----4-4-|
|-0-2------2-0-2-----2-2-|-0-2------2-8--7---3-|-0-2------2-0-2-----2-2-|
  s s E E. s s s E E s s   s s E E. s e. s+e e   s s E E. s s s E E s s

|---------------------|-----------------|------------------|
|---------------------|-----------------|------------------|
|---------------------|-----------------|------------------|
|---------------------|-----------------|------------------|
|---4------4-6--5---1-|---4-------4-----|---4-----6--5---1-|
|-0-2------2-8--7---3-|-0-2-----0-2-----|-0-2-----8--7---3-|
  s s E E. s e. s+e e   s s E Q s s E Q   s s E Q e. s+e e

|-----------------|------------------||
|-----------------|------------------||
|-----------------|------------------||
|-----------------|------------------||
|---4-------4-----|---4-----6--5---1-||
|-0-2-----0-2-----|-0-2-----8--7---3-||
  s s E Q s s E Q   s s E Q e. s+e e

||----------------------------------|---------------------------|
||----------------------------------|---------------------------|
||o---------------------------------|---------------------------|
||o-------------4-------------------|-------------4-------------|
||--------4-------4-----------------|-------4-------4---------5-|
||--0-2-2---2-2-----5-2-3-4-5-2-4-5-|-0-2-2---2-2-----5-2-3-4-3-|
    s s s s s s s s s s s s s s s s   s s s s s s s s s s s s q

                                                                2x
|---------------------------------|------------------------------||
|---------------------------------|------------------------------||
|---------------------------------|-----------------------------o||
|-------------4-------------------|-------------4---------------o||
|-------4-------4-----------------|-------4-------4-3-4-5-6-7-8--||
|-0-2-2---2-2-----5-2-3-4-5-2-4-5-|-0-2-2---2-2-----1-2-3-4-5-6--||
  s s s s s s s s s s s s s s s s   s s s s s s s s e e e e e e
                                                    { 3 } { 3 }

 6/4        3/4       4/4
|----------|---------||
|----------|---------||
|----------|---------||
|----------|---------||
|-9--------|-(9)-\---||
|-7--------|-(7)-\---||
  w.       +  h.

 slower 64 bpm                      |1.,2.,3.                    |
||----------------------------------|----------------------------||
||----------------------------------|----------------------------||
||o---------------------------------|---------------------------o||
||o---------------------------------|---------------------------o||
||--3-5---3-5---3-5---3-5---3-6---3-|-5---3-5---3-5---3-6---3-3--||
||--1-3---1-3---1-3---1-3---1-4---1-|-3---1-3---1-3---1-4---1-1--||
    s s S s s S s s S s s S s s S s   s S s s S s s S s s S s q

|4.                         3/4  dive w/bar
|---------------------------|---------||
|---------------------------|---------||
|---------------------------|---------||
|---------------------------|---------||
|-5---3-5---3-5---3-6---3-3-|-(3)--\--||
|-3---1-3---1-3---1-4---1-1-|-(1)--\--||
  s S s s S s s S s s S s q +  q + h

 tempo I 102 bpm
 clean elec.                       w/Guitar solo
|-----------------|-----|-----|-----||-----|-----|-----|-----|
|-----------------|-----|-----|-----||-----|-----|-----|-----|
|-----------------|-----|-----|-----||-----|-----|-----|-----|
|-----2-----2-----|--%--|--%--|--%--||--%--|--%--|--%--|--%--|
|---4-----4---4---|-----|-----|-----||-----|-----|-----|-----|
|-2-----3-------3-|-----|-----|-----||-----|-----|-----|-----|
 e e e e e e e e

|-----------------|-----|-----------------|-----|
|-----------------|-----|-----------------|-----|
|-----2-----2-----|-----|-----------------|-----|
|---4-----4---4---|--%--|-----2-----2-----|--%--|
|-2-----3-------3-|-----|---4-----4---4---|-----|
|-----------------|-----|-2-----3-------3-|-----|
  e e e e e e e e         e e e e e e e e

|-----------------|-----------------|-----------------|-----------------|
|-----------------|-----------------|-----------------|-----------------|
|-----2-----2-----|-----2-----0-----|-----2-----2-----|-----2-----0-----|
|---3-----3---3---|---3-----3---3---|---3-----3---3---|---3-----3---3---|
|-5-----4-------4-|-3-----2-------2-|-5-----4-------4-|-3-----2-------2-|
|-----------------|-----------------|-----------------|-----------------|
  e e e e e e e e   e e e e e e e e   e e e e e e e e   e e e e e e e e

|-----------------|-----|-----|-----||
|-----------------|-----|-----|-----||
|-----------------|-----|-----|-----||
|-----2-----2-----|--%--|--%--|--%--||
|---4-----4---4---|-----|-----|-----||
|-2-----3-------3-|-----|-----|-----||
  e e e e e e e e

 chorus
 w/dist
|------------------------|---------------------|------------------------|
|------------------------|---------------------|------------------------|
|------------------------|---------------------|------------------------|
|------------------------|---------------------|------------------------|
|---4------4---4-----4-4-|---4------4-6--5---1-|---4------4---4-----4-4-|
|-0-2------2-0-2-----2-2-|-0-2------2-8--7---3-|-0-2------2-0-2-----2-2-|
  s s E E. s s s E E s s   s s E E. s e. s+e e   s s E E. s s s E E s s

|---------------------|-----------------|------------------|
|---------------------|-----------------|------------------|
|---------------------|-----------------|------------------|
|---------------------|-----------------|------------------|
|---4------4-6--5---1-|---4-------4-----|---4-----6--5---1-|
|-0-2------2-8--7---3-|-0-2-----0-2-----|-0-2-----8--7---3-|
  s s E E. s e. s+e e   s s E Q s s E Q   s s E Q e. s+e e

|-----------------|------------------||
|-----------------|------------------||
|-----------------|------------------||
|-----------------|------------------||
|---4-------4-----|---4-----6--5---1-||
|-0-2-----0-2-----|-0-2-----8--7---3-||
  s s E Q s s E Q   s s E Q e. s+e e

                                                                4x
||----------------------------------|----------------------------||
||----------------------------------|----------------------------||
||o---------------------------------|---------------------------o||
||o---------------------------------|---------------------------o||
||--3-5---3-5---3-5---3-5---3-6---3-|-5---3-5---3-5---3-6---3-3--||
||--1-3---1-3---1-3---1-3---1-4---1-|-3---1-3---1-3---1-4---1-1--||
    s s S s s S s s S s s S s s S s   s S s s S s s S s s S s q

|-----------|-------------||
|-----------|-------------||
|-----------|-------------||
|-----------|-------------||
|-2--2----3-|-(3)--3---\--||
|-2--0----1-|-(1)--3---\--||
  q. e+q. e +  q.  e+h

  slower 52 bpm                                                 2x
||----------------------------------|----------------------------||
||----------------------------------|----------------------------||
||o---------------------------------|---------------------------o||
||o---------------------------------|---------------------------o||
||--3-5---3-5---3-5---3-5---3-6---3-|-5---3-5---3-5---3-6---3-3--||
||--1-3---1-3---1-3---1-3---1-4---1-|-3---1-3---1-3---1-4---1-1--||
    s s S s s S s s S s s S s s S s   s S s s S s s S s s S s q

   cross fade                                          repeat and fade
||----------------------------------|----------------------------||
||----------------------------------|----------------------------||
||o---------------------------------|---------------------------o||
||o---------------------------------|---------------------------o||
||--3-5---3-5---3-5---3-5---3-6---3-|-5---3-5---3-5---3-6---3-3--||
||--1-3---1-3---1-3---1-3---1-4---1-|-3---1-3---1-3---1-4---1-1--||
    s s S s s S s s S s s S s s S s   s S s s S s s S s s S s q

                          full
                        |-----|------|------|------|
                        |-----|------|------|------|
                        |-9b~-|-(9)~-|-(9)~-|-(9)~-|
                        |-----|------|------|------|
                        |-----|------|------|------|
                        |-----|------|------|------|
 fade in 102 bpm        |  w  +  w   +  w   +  w   +
                        |     |      |
|-----------------|-----|-----|------|
|-----------------|-----|-----|------|
|-----------------|-----|-----|------|
|-----2-----2-----|--%--|--%--|--%---|  repeat till end
|---4-----4---4---|-----|-----|------|
|-2-----3-------3-|-----|-----|------|
  e e e e e e e e

       full,hold--|                                 1/4         1/2
|-------------------|-----------------|-------|--------------------|
|-------------------|-----------------|-------|--------------------|
|-(9)~-11b---11-11r-|--p9----11p9-11~-|-(11)~-|-14-b-----r--b-14br-|
|-------------------|-----11----------|-------|--------------------|
|-------------------|-----------------|-------|--------------------|
|-------------------|-----------------|-------|--------------------|
+ q   h  + e s  s   + s+s e  s +s e+h + w       q + q + e + e s +s +

  1/2  1/2                           w/wah     1/2       full 1/2 full
|-----------|-------------|----------------------------|-------------------|
|-----------|-------------|----------------------14-15-|-17b-r-17b-~-----r-|
|-b-r-b-r-~-|------14---~-|-~-\-/13-13-14-15-15b-------|-------------------|
|-----------|---x---------|----------------------------|-------------------|
|-----------|-x-----------|----------------------------|-------------------|
|-----------|-------------|----------------------------|-------------------|
+ q. + e+h         q + h. + q+e  e  e  e  e  e  e  e     q + e e + q.. + s
                                    {  3  }  {  3  }

  full 1/2 full 1/2 full    full  full        full full full full full
|-----------------------|--------------------|-------------|-14--14-~-|
|-17b-17b-17b-17b-17b~--|-17b---17b~---------|-14--16--17--|-17b-17b~-|
|-----------------------|--------------------|-16b-18b-19b-|----------|
|-----------------------|--------------------|-------------|----------|
|-----------------------|--------------------|-------------|----------|
|-----------------------|-----------------x\-|-------------|----------|
  e.  s   e   e   e + h   q + e e + q + e e    q.  e+q q     q.  e+h
          {   3   }

     1/4    1/4      1/4    1/4         full          full                full
|---17b---17-17b-17-17b-17-17b-17p14-|---------|----------17-21-20-19-17-19brp17-|
|------------------------------------|-17br-~--|-~---19b-------------------------|
|------------------------------------|---------|---------------------------------|
|------------------------------------|---------|---------------------------------|
|------------------------------------|---------|---------------------------------|
|------------------------------------|---------|---------------------------------|
  S s+e+e+e+ e   e  e   e  s  e + s    w         s S s+e. e  e  e  s  s  s s  s
        { 3  }   {  3   }

                                          hold bend       hold bend
   full            1.5       1.5    full   1.5         1.5
|--------|--------21b-|----21br----21b---|-b---21-r---21b-21-|
|-19b--~-|-~----------|------------------|-------------------|
|--------|------------|------------------|-------------------|
|--------|------------|------------------|-------------------|
|--------|------------|------------------|-------------------|
|--------|---x\-0-----|------------------|-------------------|
  h. + q + h q  e e   + q. e+e+s S q     + e. s+e+s S e+q e  +

                             N.H.               vib.
          hold bends          depress bar -5    w/bar
         1.5 1.75  1.5       and release slowly
|---r---21b-21b-21--r----r-|--------------|-------|-----|-----|-----||
|--------------------------|-3------------|-------|-----|-----|-----||
|--------------------------|--------------|-------|-----|-----|-----||
|--------------------------|--------------|-------|-----|-----|-----||
|--------------------------|--------------|-------|-----|-----|-----||
|--------------------------|--------------|-------|-----|-----|-----||
+ e+s S q   e   e + e. + s   w            + h + h +  w  +  w  +  w




Fill and Solo                    

fill 1
        w/bar                                scoop                  slack
         -1.5    0              scoop     scoop  scoop     scoop  dive   P.H.
|---------------------------|-------------------|----------------------------|
|---------------------------|-------------------|----------------------------|
|--------11---------------~-|-~-------p9-----p8-|----\-6------------\------6-|
|------x--------------------|-------------------|-----------------------x----|
|----x----------------------|-------------------|----------------------------|
|---------------------------|-------------------|----------------------------|
  Q. s s s + e + e + e. + s + h + e + e + q + q + q. + e + q + s + s   s   s +
     { 3 }

     -2     scoop   slack
|---------------------||
|---------------------||
|-\-----/----------\--||
|---------------------||
|---------------------||
|---------------------||
+ e. + s + e + e + h

fill 2
      w/wah                        1/4  1/2   1/2     1/2
|--------------|----------------|-------------------------|
|--------------|----------------|-------------------------|
|-----9h11~----|----------14-16-|-16brp14b---16br---16br--|
|----x---------|----14h16-------|-------------------------|
|--------------|----------------|-------------------------|
|--------------|----------------|-------------------------|
  Q.  s+s+e. E  H E s +s  e  e    s+s+ s+s E e    Q e   E

                 P.H.
     1/2  1/4      full
|----------------------||------------|
|----------------17b-~-||--\---------|
|---16brp14b-----------||------------|
|----------------------||------------|
|----------------------||------------|
|----------------------||------------|
  E s+s+ s+s E E e + q +  q   Q H

Guitar solo
                      full hold bend---------|
-----||---------|-------------------------------|-------------|----------|
-----||---------|-------------------------------|-------------|----------|
--16-||--b---~--|-~--16b--16-16-16-16-16-16-16r-|-p14-~---\---|----------|
-x---||---------|---x---------------------------|-------------|----------|
-----||---------|-------------------------------|-------------|----------|
-----||---------|-------------------------------|-------------|--------x-|
  s  +  q  + h. + e  e+e. s  e  e  e  e  e  e   +  e +e+q+q Q   H Q E. s

   hold bend
  full       full 1/2 full
|-19b-19~---19b-|-r-19b~-rp17----19------|----------------------|
|---------------|-------------19----19b--|-----r-17-19----19--~-|
|---------------|------------------------|-------------18-------|
|---------------|------------------------|----------------------|
|---------------|------------------------|----------------------|
|---------------|------------------------|----------------------|
  q.  e+q+e e.  + e q  + s+s  s  s  e.+q + e.+s  e  e  e  e +q. +
                         { 3  }                  {  3  }

                               full        2  2.5  2.75        1/2
|------------------|-13~-12-10-----10----|--------------13-17-17b-r-13----|
|-~\---------------|-----------13b----13-|-b--b----b-------------------17-|
|-----14h16p14-~-\-|---------------------|--------------------------------|
|----x-------------|---------------------|--------------------------------|
|------------------|---------------------|--------------------------------|
|------------------|---------------------|--------------------------------|
+ q   s+ s+ e+ q+q   q.  e  e  e   e  e  + h            s  s e+s+s  s  s

                            P.H.          w/talk box
                 full hold---|        full    1/2
|---------------------|-------------------|-----------------------|
|-----17/18------15b--|----15--r---~-\----|-----------------------|
|-15~-------14~-------|----------------2b-|-r-b-------------------|
|---------------------|-------------------|-----4p2-2h4~----2-----|
|---------------------|-------------------|-------------------3/4-|
|---------------------|-------------------|-----------------------|
  q      e  e+e. s+q  + q  e + e + q+e s  +  q  s+s t+t+s+q e s+s

                                                  w/bar
                   full    full   full       full   slack
|---------------------|--------------------|--------||
|---------------------|--------------------|-10---\-||
|---------------------|--------------------|-9b---\-||
|-2-------------------|--------------------|--------||
|---4-3-2-3-2-----7br-|---7b-7---7b-7------|--------||
|-------------0~------|-5------5--------5\-|--------||
  e s s s s s s+q q     e e  e e e  e+e e    h + h
  ^     ^ ^ ^             ^  ^   ^
  P.H.  P.H.               P.H.

comments
We did not receive enough feedback on this tab! Please rate:
print report bad tab
1 2 3 4 5
I want to post or [tab]
guest
You may want to rate the tab now too:
select rating
Please do not post tabs as comments. Select "correction" instead!