Oops, an error
Loading. Please wait.

The Best Of Pantera Far Beyond The Great Southern Cowboys Vulgar Hits Tab

14,342 views 1 this week
2 commentsread comments
1 2 3 4 5
accurate
x 5
add to favorites launch autoscroll
font size
0
reset
Autoscroll
+/-
esc
set tempo
stop
Contributor
Difficulty
advanced
WARNING: You are trying to view
                                    content from Ultimate-Guitar.com
                                    in an unauthorized application,
                                    which is prohibited.

                                    Please use an official Ultimate
                                    Guitar Tabs application for iPhone,
                                    iPad or Android to access legitimate
                                    chords, guitar, bass, and drum tabs
                                    from Ultimate-Guitar.com database.

                                    Type "ultimate guitar tabs" in Apple
                                    App Store's or Android Market's
                                    search to find the application.
First Off R.I.P. "Dimebag" Darrell Lance Abbott
This Tab Book Salutes To Some Of Dimebags Best Work


1.Cowboys From Hell

 Gtr I
  H    E. S S S S S    S S S S S S S S S S S S S S S S
|-------------------||---------------------------------|
|-------------------||---------------------------------|
|-------------------||---------------------------------|
|-------------------||---------------------------------|
|-------------------||---------------------------------|
|---------0-0-0-0-0-||-0-0-0-0-0-0-0-0-0-0-0-0-0-0-0-0-|


  S S S S S S S S S S S S S S S S
|----------------------------------|
|----------------------------------|
|----------------------------------|
|----------------------------------|
|----------------------------------|
|-0-0-0-0-0-0-0-0-0-0-0-0-0-0-0-0--|


  S S S S S S S S S S S S S S S S
|---------------------------------|
|---------------------------------|
|---------------------------------|
|---------------------------------|
|---------------------------------|
|-0-0-0-0-0-0-0-0-0-0-0-0-0-0-0-0-|
|
| Gtr II
| W
|---------------------------------|
|---------------------------------|
|---------------------------------|
|---------------------------------|
|---------------------------------|
|---------------------------------|


   PM------------------------------|
   S  S  S  S  S  S  S  S  S  S  S  S  S  S  E
|------------------------------------------------|
|------------------------------------------------|
|------------------------------------------------|
|-------------------------------------------12---|
|-------------12----12----13----12----13h14------|
|-12-15-12-15----15----15----15----15------------|
|
|  S  S  S  S  S  S  S  S  S  S  S  S  S  S  S S
|------------------------------------------------|
|------------------------------------------------|
|------------------------------------------------|
|------------------------------------------------|
|------------------------------------------------|
|--0--0--0--0--0--0--0--0--0--0--0--0--0--0--0-0-|


   PM------------------------------|
   S  S  S  S  S  S  S  S  S  S  S  S  S  S  E
|------------------------------------------------|
|------------------------------------------------|
|------------------------------------------------|
|-------------------------------------------12---|
|-------------12----12----13----12----13h14------|
|-12-15-12-15----15----15----15----15------------|
|
|  S  S  S  S  S  S  S  S  S  S  S  S  S  S  S S
|------------------------------------------------|
|------------------------------------------------|
|------------------------------------------------|
|------------------------------------------------|
|------------------------------------------------|
|--0--0--0--0--0--0--0--0--0--0--0--0--0--0--0-0-|


   PM------------------------------|
   S  S  S  S  S  S  S  S  S  S  S  S  S  S  E
|------------------------------------------------|
|------------------------------------------------|
|------------------------------------------------|
|-------------------------------------------12---|
|-------------12----12----13----12----13h14------|
|-12-15-12-15----15----15----15----15------------|
|
|  S  S  S  S  S  S  S  S  S  S  S  S  S  S  S S
|------------------------------------------------|
|------------------------------------------------|
|------------------------------------------------|
|------------------------------------------------|
|------------------------------------------------|
|--0--0--0--0--0--0--0--0--0--0--0--0--0--0--0-0-|


                                               E5      A5
   PM------------------|                       PM--------------------|
   S  S  S  S  S  S  S  S  S  S  S  S  +Q      S S S S S S S S S S S S S S E
|--------------------------------------------|-------------------------------|
|--------------------------------------------|-------------------------------|
|--------------------------------------------|-------------------------------|
|--------------------------------------------|---------2---2---------------0-|
|-------------12----12----13-12-10-----------|-2---2---0---0---1---0---1h2---|
|-12-15-12-15----15----15----------12-(12)\--|-0-3-0-3---3---3---3---3-------|
|
|                                              PM--------------------|
|  S  S  S  S  S  S  S  S  S  S  S  S  +Q      S S S S S S S S S S S S S S E
|--------------------------------------------|-------------------------------|
|--------------------------------------------|-------------------------------|
|--------------------------------------------|-------------------------------|
|--------------------------------------------|---------2---2---------------0-|
|-------------------------13-12-10-----------|-2---2---0---0---1---0---1h2---|
|--0--0--0--0--0--0--0--0----------12-(12)\--|-0-3-0-3---3---3---3---3-------|
|
| Gtr III
|  H                       S  S  S  S  +Q      W
|--------------------------------------------|-------------------------------|
|--------------------------------------------|-------------------------------|
|--------------------------------------------|-------------------------------|
|--------------------------------------------|-------------------------------|
|-------------------------13-12-10-----------|-------------------------------|
|----------------------------------12-(12)\--|-------------------------------|


  E5      A5
  Gtrs I, II
  PM--------------------|
  S S S S S S S S S S S S S S E
|-------------------------------|
|-------------------------------|
|-------------------------------|
|---------2---2---------------0-|
|-2---2---0---0---1---0---1h2---|
|-0-3-0-3---3---3---3---3-------|


  E5      A5                      E5      A5            E5
  PM--------------------|         PM------------|
  S S S S S S S S S S S S S S E   S S S S S S S S S S S S Q
|-------------------------------|-----------------------------|
|-------------------------------|-----------------------------|
|-------------------------------|-----------------------------|
|---------2---2---------------0-|---------2---2---------------|
|-2---2---0---0---1---0---1h2---|-2---2---0---0---1-0---2-----|
|-0-3-0-3---3---3---3---3-------|-0-3-0-3---3---3-----3-0-----|


  E5      A5
  PM--------------------|
  S S S S S S S S S S S S S S E
|-------------------------------|
|-------------------------------|
|-------------------------------|
|---------2---2---------------0-|
|-2---2---0---0---1---0---1h2---|
|-0-3-0-3---3---3---3---3-------|


  E5      A5                      E5      A5
  PM--------------------|         PM--------------------|
  S S S S S S S S S S S S S S E   S S S S S S S S S S S S S S E
|-------------------------------|-------------------------------|
|-------------------------------|-------------------------------|
|-------------------------------|-------------------------------|
|---------2---2---------------0-|---------2---2---------------0-|
|-2---2---0---0---1---0---1h2---|-2---2---0---0---1---0---1h2---|
|-0-3-0-3---3---3---3---3-------|-0-3-0-3---3---3---3---3-------|


  E5      A5            E5     N.C.(E)
                               Gtr I
  PM------------|              PM--------------------|
                                                       |-3-|
  S S S S S S S S S S S S Q    S S S S S S S S S S S S S S S E
|----------------------------|---------------------------------|
|----------------------------|---------------------------------|
|----------------------------|---------------------------------|
|---------2---2--------------|-------------------------------0-|
|-2---2---0---0---1-0---2----|-------------------------0h1h2---|
|-0-3-0-3---3---3-----3-0----|-0-0---0---0---0---0---0---------|


  Gtrs I, II
  PM--------------------|
                          |-3-|
  S S S S S S S S S S S S S S S E
|-----------------------------------|
|-----------------------------------|
|-----------------------------------|
|-------------------------------0---|
|-------------------------0h1h2-----|
|-0-0---0---0---0---0---0-----------|


  PM--------------------|
                          |-3-|
  S S S S S S S S S S S S S S S E
|---------------------------------|
|---------------------------------|
|---------------------------------|
|-------------------------------0-|
|-------------------------0h1h2---|
|-0-0---0---0---0---0---0---------|


  PM------------|                   PM--------------------|
                  |-3-|   |-3-|                             |-3-|
  S S S S S S S S S S S E S S S E   S S S S S S S S S S S S S S S E
|---------------------------------|---------------------------------|
|---------------------------------|---------------------------------|
|---------------------------------|---------------------------------|
|-----------------------0-------0-|-------------------------------0-|
|-----------------0h1h2---0h1h2---|-------------------------0h1h2---|
|-0-0---0---0---0-----------------|-0-0---0---0---0---0---0---------|


  PM------------|                       PM--------------------|
                  |-3-|     |-3-|                               |-3-|
  S S S S S S S S S S S S S S S S S S   S S S S S S S S S S S S S S S E
|-------------------------------------|---------------------------------|
|-------------------------------------|---------------------------------|
|-------------------------------------|---------------------------------|
|-------------------------------------|-------------------------------0-|
|-----------------0h1p0-----0h1p0-----|-------------------------0h1h2---|
|-0-0---0---0---0-------3-3-------3-1-|-0-0---0---0---0---0---0---------|


  PM------------|
                  |-3-|     |-3-|
  S S S S S S S S S S S S S S S S S S
|-------------------------------------||
|-------------------------------------||
|-------------------------------------||
|-------------------------------------||
|-----------------0h1p0-----0h1p0-----||
|-0-0---0---0---0-------3-3-------3-1-||


   1st and 2nd Verse
    PM------------------------------------------------------|
                                                              |-3-|
    S S S S S S S S S S S S S S S S   S S S S S S S S S S S S S S S E
||----------------------------------|---------------------------------|
||o---------------------------------|---------------------------------|
||----------------------------------|---------------------------------|
||----------------------------------|-------------------------------0-|
||o---------------------------------|-------------------------0h1h2---|
||--0-0---0---0---0---0---0-0-0-0---|-0-0---0---0---0---0---0---------|


  PM----------------------------|
  S S S S S S S S S S S S S S S S
|------------------------------------|
|------------------------------------|
|------------------------------------|
|------------------------------------|
|------------------------------------|
|-0-0---0---0---0---0---0-0-0-0------|


  PM------------|
                  |-3-|     |-3-|
  S S S S S S S S S S S S S S S S S S
|-------------------------------------|
|-------------------------------------|
|-------------------------------------|
|-------------------------------------|
|-----------------0h1p0-----0h1p0-----|
|-0-0---0---0---0-------3-3-------3-1-|


  PM------------------------------------------------------|
                                                            |-3-|
  S S S S S S S S S S S S S S S S   S S S S S S S S S S S S S S S E
|---------------------------------|-----------------------------------|
|---------------------------------|-----------------------------------|
|---------------------------------|-----------------------------------|
|---------------------------------|-------------------------------0---|
|---------------------------------|-------------------------0h1h2-----|
|-0-0---0---0---0---0---0-0-0-0---|-0-0---0---0---0---0---0-----------|


  N.C.(E)
  PM----------------------------|
  S S S S S S S S S S S S S S S S
|---------------------------------|
|---------------------------------|
|---------------------------------|
|---------------------------------|
|---------------------------------|
|-0-0---0---0---0---0---0-0-0-0-0-|


                                        G5                    G#5
    PM----------|                       PM------------------|
                  |-3-|     |-3-|
  S S S S S S S S S S S S S S S S S S   S S S S S S S S S S S S S E.
|-------------------------------------|------------------------------|
|-------------------------------------|------------------------------|
|-------------------------------------|------------------------------|
|-------------------------------------|------------------------------|
|-----------------0h1p0-----0h1p0-----|-5-5-5-5-5-5-5-5-5-5-5-6---6--|
|-0-0---0---0---0-------3-3-------3-1-|-3-3-3-3-3-3-3-3-3-3-3-4---4--|


  G5                A#5A5G#5 N.C.(E)
  PM--------------|          PM-------------------------------
  S S S S S S S S S E. E E   S S S S S S S S S S S S S S S S
|--------------------------|---------------------------------|
|--------------------------|---------------------------------|
|--------------------------|---------------------------------|
|--------------------------|---------------------------------|
|-5-5-5-5-5-5-5-5-5-8--7-6-|---------------------------------|
|-3-3-3-3-3-3-3-3-3-6--5-4-|-0-0---0---0---0---0---0-0-0-0---|


                        E5
 ---------------|
  S S S S S S S S S S S S Q
|----------------------------||
|----------------------------||
|----------------------------||
|----------------------------||
|-----------------1-0---2----||
|-0-0---0---0---0-----3-0----||


 1st and 2nd Chorus
  E5      A5
  PM--------------------|
  S S S S S S S S S S S S S S E
|-------------------------------|
|-------------------------------|
|-------------------------------|
|---------2---2---------------0-|
|-2---2---0---0---1---0---1h2---|
|-0-3-0-3---3---3---3---3-------|


  E5      A5                      E5      A5
  PM--------------------|         PM--------------------|
  S S S S S S S S S S S S S S E   S S S S S S S S S S S S S S E
|-------------------------------|-------------------------------|
|-------------------------------|-------------------------------|
|-------------------------------|-------------------------------|
|---------2---2---------------0-|---------2---2---------------0-|
|-2---2---0---0---1---0---1h2---|-2---2---0---0---1---0---1h2---|
|-0-3-0-3---3---3---3---3-------|-0-3-0-3---3---3---3---3-------|


  E5      A5            E5             A5
  PM------------|              PM--------------------|
  S S S S S S S S S S S S Q    S S S S S S S S S S S S S S E
|----------------------------|-------------------------------|
|----------------------------|-------------------------------|
|----------------------------|-------------------------------|
|---------2---2--------------|---------2---2---------------0-|
|-2---2---0---0---1-0---2----|-2---2---0---0---1---0---1h2---|
|-0-3-0-3---3---3-----3-0----|-0-3-0-3---3---3---3---3-------|


  E5      A5
  PM--------------------|
  S S S S S S S S S S S S S S E
|--------------------------------|
|--------------------------------|
|--------------------------------|
|---------2---2---------------0--|
|-2---2---0---0---1---0---1h2----|
|-0-3-0-3---3---3---3---3--------|


                                 1.
  E5      A5                      E5      A5            E5
  PM--------------------|         PM------------|
  S S S S S S S S S S S S S S E   S S S S S S S S S S S S Q
|-------------------------------|----------------------------|
|-------------------------------|----------------------------|
|-------------------------------|----------------------------|
|---------2---2---------------0-|---------2---2--------------|
|-2---2---0---0---1---0---1h2---|-2---2---0---0---1-0---2----|
|-0-3-0-3---3---3---3---3-------|-0-3-0-3---3---3-----3-0----|


  N.C.(E)
  Gtr I
  PM--------------------|
                          |-3-|
  S S S S S S S S S S S S S S S E
|---------------------------------|
|---------------------------------|
|---------------------------------|
|-------------------------------0-|
|-------------------------0h1h2---|
|-0-0---0---0---0---0---0---------|


  Gtrs I, II
  PM------------|                   PM--------------------|
                  |-3-|   |-3-|                             |-3-|
  S S S S S S S S S S S E S S S E   S S S S S S S S S S S S S S S E
|---------------------------------|---------------------------------|
|---------------------------------|---------------------------------|
|---------------------------------|---------------------------------|
|-----------------------0-------0-|-------------------------------0-|
|-----------------0h1h2---0h1h2---|-------------------------0h1h2---|
|-0-0---0---0---0-----------------|-0-0---0---0---0---0---0---------|


  PM------------|
                  |-3-|     |-3-|
  S S S S S S S S S S S S S S S S S S
|---------------------------------------|
|---------------------------------------|
|---------------------------------------|
|---------------------------------------|
|-----------------0h1p0-----0h1p0-------|
|-0-0---0---0---0-------3-3-------3-1---|


  PM--------------------|
                          |-3-|
  S S S S S S S S S S S S S S S E
|---------------------------------|
|---------------------------------|
|---------------------------------|
|-------------------------------0-|
|-------------------------0h1h2---|
|-0-0---0---0---0---0---0---------|


                                         2.
                                          E5      A5        G5 F#F5
  PM------------|                         PM------------|
                  |-3-|     |-3-|
  S S S S S S S S S S S S S S S S S S     S S S S S S S S S E. E E
|--------------------------------------||----------------------------||
|-------------------------------------o||----------------------------||
|--------------------------------------||----------------------------||
|--------------------------------------||---------2---2--------------||
|-----------------0h1p0-----0h1p0-----o||-2---2---0---0-----5--4-3---||
|-0-0---0---0---0-------3-3-------3-1--||-0-3-0-3---3---3---3--2-1---||


 Guitar Solo
      E5/B                        C                      A/C#
  Gtr III
      ~~                          ~~                       ~~~~
  Q   H           +Q      S S S S H.              +Q       H            +Q
|-----------------------|-----------------------|-----------------------------|
|-----------------------|-----------------------|-----------------------------|
|-----------------------|-----------------------|-----------------------------|
|-----------------------|-8---8---8-------------|-(8)\---/14-----------(14)\--|
|-----7-----------(7)\--|---7---7---------------|-----------------------------|
|-----------------------|-----------------------|-----------------------------|
|
| Gtrs I, II
| PM|                     PM--|                    PM--|
| E E E. +S  +H           E   E   E. +S  +H        E   E   E. +S  +H
|-----------------------|-----------------------|-----------------------------|
|-----------------------|-----------------------|-----------------------------|
|-----------------------|---------0--(0)-(0)----|----------2--(2)-(2)---------|
|-----2--(2)-(2)--------|---------2--(2)-(2)----|----------2--(2)-(2)---------|
|-----2--(2)-(2)--------|-3---3---3--(3)-(3)----|--4---4---4--(4)-(4)---------|
|-0-0-------------------|-----------------------|-----------------------------|


              D5            A#5A5
                     ~~~~~~~
   S  S  S  S  S  S  E  +Q      +Q
|------------------------------------------------|
|------------------------------------------------|
|-15----15----15----15-(15)----(15)\-------------|
|----14----14----14------------------------------|
|------------------------------------------------|
|------------------------------------------------|
|
|  PM---|
|  E     E     S  S  E   S  E.   E   S      +S
|------------------------------------------------|
|------------------------------------------------|
|------------------------------------------------|
|--------------7--7--7---------------------------|
|--5-----5-----5--5--5------8----7---------------|
|---------------------------6----5---3b3.5==(3)r-|


           E5/B
   PM---|             PM---|            PM---|            PM---|
   |--3--|  |--3---|  |--3--|  |--3--|  |--3--|  |--3--|  |--3--|  |--3--|
   S  S  S  S   S  S  S  S  S  S  S  S  S  S  S  S  S  S  S  S  S  S  S  S
|--------------------------------------------------------------------------|
|--------------------------------------------------------------------------|
|--------------------------------------------------------11-12-15-11h12h15-|
|--------------------------------------11-12-15-11h12h15-------------------|
|--------------------11-12-15-11h12h15-------------------------------------|
|-11-12-15-11h=12h15-------------------------------------------------------|
|
|  E        H..
|--------------------------------------------------------------------------|
|--------------------------------------------------------------------------|
|--------------------------------------------------------------------------|
|-----------2--------------------------------------------------------------|
|-----------2--------------------------------------------------------------|
|--------------------------------------------------------------------------|


           C
                                                          ~~~~~~~~~~~~
   |--3--|  |--3---|  |--3--|              |--3--|  |--3--|
   S  S  S  S   S  S  S  S  S  T  T  T  T  S  S  S  S  S  S      +Q
|--------------------11-12-15-12h15p12p11-15p12p11-15p12-15b18==(15)r---|
|-11-12-15-11h=12h15----------------------------------------------------|
|-----------------------------------------------------------------------|
|-----------------------------------------------------------------------|
|-----------------------------------------------------------------------|
|-----------------------------------------------------------------------|
|
|  E        H..
|-----------------------------------------------------------------------|
|-----------------------------------------------------------------------|
|-----------0-----------------------------------------------------------|
|-----------2-----------------------------------------------------------|
|-----------3-----------------------------------------------------------|
|-----------------------------------------------------------------------|


       A/C#
  |----3----|  |--3--| |--3--|
  E  E      E  S  S  S S  S  S  T  T  T T  T  T  T  T  T T  T  T  T  T  T  T
|---12-----14-17p14p12---12-14-17p14p12---12-14-17p14p12---12-14-17p14p12-12-|
|----------------------------------------------------------------------------|
|----------------------------------------------------------------------------|
|----------------------------------------------------------------------------|
|----------------------------------------------------------------------------|
|----------------------------------------------------------------------------|
|
| E    H..
|----------------------------------------------------------------------------|
|----------------------------------------------------------------------------|
|------2---------------------------------------------------------------------|
|------2---------------------------------------------------------------------|
|------4---------------------------------------------------------------------|
|----------------------------------------------------------------------------|


             D5                            A#5               A5
  |---------7---------|  |-----6------|  |--------7--------|   |--------7--------|
  S  S  S  S    S  S  S  E   S  S  S  S  E     S  S  S  S  S  +E   S  S    S  S  S
|---12h15h19p==15p12h15-20p=15p12h15p12--------------------------------------------|
|---------------------------------------20p===15p12h15p12--------------------------|
|---------------------------------------------------------20-(20)p15p12h==15p12----|
|-------------------------------------------------------------------------------20-|
|----------------------------------------------------------------------------------|
|----------------------------------------------------------------------------------|
|
| E          E          +Q               S E.                  E        E
|----------------------------------------------------------------------------------|
|----------------------------------------------------------------------------------|
|----------------------------------------------------------------------------------|
|------------7----------(7)--------------------------------------------------------|
|------------5----------(5)----------------8-------------------7-------------------|
|------------------------------------------6-------------------5--------3----------|


              E5/B                                     C
                       ~~~~                             ~~~
   S  S  S  S  S   S  +Q           E Q      S  S  S  S  H            +Q
|----------------------------------------|---------------------------------|
|----------------------------------------|---------------------------------|
|----------------------------------------|-15----15----15-----------(15)\--|
|-20p15p12h15p12--14-(14)---------14s5/--|----14----14---------------------|
|----------------------------------------|---------------------------------|
|----------------------------------------|---------------------------------|
|
|  PM---|                                   PM---|
|  E     E     E.         +S  +H            E     E     E. +S  +H
|----------------------------------------|---------------------------------|
|----------------------------------------|---------------------------------|
|----------------------------------------|--------------0--(0)-(0)---------|
|--------------2----------(2)-(2)--------|--------------2--(2)-(2)---------|
|--------------2----------(2)-(2)--------|--3-----3-----3--(3)-(3)---------|
|--0-----0-------------------------------|---------------------------------|


                       A/C#
                                              ~~~~
  E  a      S  +S       +Q        S   a      +E.  +E   E
|--------------------------------15-----------------------|
|---15b17==15r(15)b17==(15)r---------15b17==(15)-(15)rS8/-|
|---------------------------------------------------------|
|---------------------------------------------------------|
|---------------------------------------------------------|
|---------------------------------------------------------|
|
| PM-------|
| E         E            E.  +S  +H
|---------------------------------------------------------|
|---------------------------------------------------------|
|------------------------2---(2)-(2)----------------------|
|------------------------2---(2)-(2)----------------------|
|-4---------4------------4---(4)-(4)----------------------|
|---------------------------------------------------------|


            D5                A#5       A5
    E  S  S  S  S  E      +E      +E    E  E
|-----18----18----18b21==(18)----(18)r\----------------|
|-/17----17----17--------------------------------------|
|---------------------------------------7s14-----------|
|------------------------------------------------------|
|------------------------------------------------------|
|------------------------------------------------------|
|
|   PM|
|   E  E     S  S  E       S  E.        E  S      +S
|------------------------------------------------------|
|------------------------------------------------------|
|------------------------------------------------------|
|------------7--7--7-----------------------------------|
|---5--5-----5--5--5----------8---------7--------------|
|-----------------------------6---------5--3b3.5==(3)r-|


           E5/B
   |--3--|  |---3---|  |--3--|  |--3--|  |--3--|  |--3--|  |--3--|  |--3--|
   S  S  S  S    S  S  S  S  S  S  S  S  S  S  S  S  S  S  S  S  S  S  S  S
|-----------------------------------------------------------------------------|
|-12------------------12----------------12----------------12------------------|
|----15-14-12---14-15----15-14-12-14-15----15-14-12-14-15----15-14-12-14-15---|
|-----------------------------------------------------------------------------|
|-----------------------------------------------------------------------------|
|-----------------------------------------------------------------------------|
|
|  E        H..
|-----------------------------------------------------------------------------|
|-----------------------------------------------------------------------------|
|-----------------------------------------------------------------------------|
|-----------2-----------------------------------------------------------------|
|-----------2-----------------------------------------------------------------|
|-----------------------------------------------------------------------------|


          C                                        
                                  ~~               
   E.          S  +E        E  a  Q   E      +E    
|------------------------------------14b16==(14)r-|
|-12b12.5-----12-(12)b12.5------------------------|
|-12b12.5-----12-(12)b12.5------------------------|
|--------------------------14-12h14---------------|
|-------------------------------------------------|
|-------------------------------------------------|
|
|  E      H..                                      
|-------------------------------------------------|
|-------------------------------------------------|
|---------0---------------------------------------|
|---------2---------------------------------------|
|---------3---------------------------------------|
|-------------------------------------------------|

        A/C#                                                                              
                                                                                      ~~~~
   S  S  S      +S    S  S  S      +S    S  S  a      +S    a  S      +S   S  a      +E   
|-12-14--------------12-14--------------12-14--------------12----------------------------|
|-------15b17==(15)r-------15b17==(15)r-------15b17==(15)r----14pb15r(14)p12-------------|
|----------------------------------------------------------------------------14b16==(14)-|
|----------------------------------------------------------------------------------------|
|----------------------------------------------------------------------------------------|
|----------------------------------------------------------------------------------------|
|                                                                                         
|  E     H..                                                                              
|----------------------------------------------------------------------------------------|
|----------------------------------------------------------------------------------------|
|--------2-------------------------------------------------------------------------------|
|--------2-------------------------------------------------------------------------------|
|--------4-------------------------------------------------------------------------------|
|----------------------------------------------------------------------------------------|

       D5                     A#5          A5
 ~~~~~~~~~~~~~
   +E   +E     S   S  S  S  S  S   S  a  S  S  a  S  S  a  S
|--------------------15-----------19-------20-------21-------||
|-------------11s=12----12-12s15-----15s17----17s18----18s19-||
|-(14)-(14)r\------------------------------------------------||
|------------------------------------------------------------||
|------------------------------------------------------------||
|------------------------------------------------------------||
|
|   E    E    +Q            S  E.           E        E
|------------------------------------------------------------||
|------------------------------------------------------------||
|------------------------------------------------------------||
|--------7----(7)--------------------------------------------||
|--------5----(5)--------------8------------7----------------||
|------------------------------6------------5--------3-------||


 Bridge
  $
        N.C.
                           ~~~~~~~~~~~~~~
   a     +Q        a      +Q        +Q          +Q
|-22b24-(22)------22b24==(22)------(22)\-------(22)r\-----|
|---------------------------------------------------------|
|---------------------------------------------------------|
|---------------------------------------------------------|
|---------------------------------------------------------|
|---------------------------------------------------------|
|
|             PM|              PM|          ~~~       PM|
|         S S S S          S S S S   S   S  Q         S S
|---------------------------------------------------------|
|---------------------------------------------------------|
|---------------------------------------------------------|
|------------------------------------------[5]------------|
|---------7p5--------------7p5-------7p==5----------------|
|-------------0-0--------------0-0--------------------0-0-|
|
| Gtr IV
|             PM|              PM|          ~~~       PM|
|         S S S S          S S S S   S   S  Q         S S
|---------------------------------------------------------|
|---------------------------------------------------------|
|---------------------------------------------------------|
|-------------------------------------------5-------------|
|---------7p5--------------7p5-------7p==5----------------|
|-------------0-0--------------0-0--------------------0-0-|


  W                              W
|------------------------------|---------------------------------|
|------------------------------|---------------------------------|
|------------------------------|---------------------------------|
|------------------------------|---------------------------------|
|------------------------------|---------------------------------|
|------------------------------|---------------------------------|
|
|     PM|     PM|      ~~~ PM|       PM|     PM|      ~~~  PM|
| S S S S S S S S S S  Q   S S   S S S S S S S S S S  Q    S  S
|------------------------------|---------------------------------|
|------------------------------|---------------------------------|
|------------------------------|---------------------------------|
|---------------------[7]------|---------------------[5]---------|
|-7p5-----7p5-----7p5----------|-7p5-----7p5-----7p5-------------|
|-----0-0-----0-0----------0-0-|-----0-0-----0-0-----------0--0--|
|
|     PM|     PM|      ~~~ PM|       PM|     PM|      ~~~  PM|
| S S S S S S S S S S  Q   S S   S S S S S S S S S S  Q    S  S
|------------------------------|---------------------------------|
|------------------------------|---------------------------------|
|----------------------2-------|---------------------------------|
|------------------------------|----------------------5---12-12--|
|-7p5-----7p5-----7p5----------|-7p5-----7p5-----7p5-------------|
|-----0-0-----0-0----------0-0-|-----0-0-----0-0-----------------|


   S  S  S  S  S  S  S S  S S S S S S E
|---------------------------------------|
|---------------------------------------|
|-14p12----12s11----11s9----9s7---7s6---|
|-------14-------12------11-----9-----7-|
|---------------------------------------|
|---------------------------------------|
|
|  S  S  S  S  S  S  S S  S S S S S S E
|---------------------------------------|
|---------------------------------------|
|---------------------------------------|
|---------------------------------------|
|-12p10----10s=9-----9s7----7s5---5s4---|
|-------12-------10-------9-----7-----5-|


      PM|     PM|      ~~~ PM|       PM|     PM|      ~~~ PM|
  S S S S S S S S S S  Q   S S   S S S S S S S S S S  Q   S S
|------------------------------|--------------------------------|
|------------------------------|--------------------------------|
|------------------------------|--------------------------------|
|---------------------[5]------|---------------------[7]--------|
|-7p5-----7p5-----7p5----------|-7p5-----7p5-----7p5------------|
|-----0-0-----0-0----------0-0-|-----0-0-----0-0----------0-0---|
|
|     PM|     PM|      ~~~ PM|       PM|     PM|      ~~~ PM|
| S S S S S S S S S S  Q   S S   S S S S S S S S S S  Q   S S
|------------------------------|--------------------------------|
|------------------------------|--------------------------------|
|------------------------------|--------------------------------|
|----------------------5-------|----------------------7---------|
|-7p5-----7p5-----7p5----------|-7p5-----7p5-----7p5------------|
|-----0-0-----0-0----------0-0-|-----0-0-----0-0----------0-0---|


                        To Coda
      PM|     PM|      ~~~ PM|
  S S S S S S S S S S  Q   S S    S  S  S  S  S  S  S  S  S  S  S  S  S S  E
|------------------------------|-17p15----15s14----14s12----12s10----10s9----|
|------------------------------|-------17-------15-------14-------12------10-|
|------------------------------|---------------------------------------------|
|---------------------[5]------|---------------------------------------------|
|-7p5-----7p5-----7p5----------|---------------------------------------------|
|-----0-0-----0-0----------0-0-|---------------------------------------------|
|
|     PM|     PM|      ~~~ PM|
| S S S S S S S S S S  Q   S S    S  S  S  S  S  S  S  S  S  S  S  S  S S  E
|--------------------------0-0-|---------------------------------------------|
|------------------------------|---------------------------------------------|
|------------------------------|-14p12----12s11----11s=9-----9s=7-----7s6----|
|----------------------5-------|-------14-------12-------11--------9-------7-|
|-7p5-----7p5-----7p5----------|---------------------------------------------|
|-----0-0-----0-0--------------|---------------------------------------------|
|
| Gtr IV
| W                               S  S  S  S  S  S  S  S  S  S  S  S  S S  E
|------------------------------|---------------------------------------------|
|------------------------------|---------------------------------------------|
|------------------------------|---------------------------------------------|
|------------------------------|---------------------------------------------|
|------------------------------|-12p10----10s=9-----9s=7-----7s=5-----5s4----|
|------------------------------|-------12-------10--------9--------7-------5-|


   PM--------------------------------|              PM------------------------------|
   S   S  S  S  S   S  S  S  S  S  S  S  S  S  E    S  S  S  S  S  S  S  S  S  S  S  S  S  S  E
|------------------------------------------------|----------------------------------------------|
|------------------------------------------------|----------------------------------------------|
|------------------------------------------------|----------------------------------------------|
|---------------------------------------------12-|-------------------------------------------12-|
|--------------12-----12----13----12----13h14----|-------------12----12----13----12----13h14----|
|-12--15-12-15-----15----15----15----15----------|-12-15-12-15----15----15----15----15----------|
|
|  ~~~
| +Q            H.                                  W
|------------------------------------------------|----------------------------------------------|
|------------------------------------------------|----------------------------------------------|
|------------------------------------------------|----------------------------------------------|
|-(7)--------------------------------------------|----------------------------------------------|
|------------------------------------------------|----------------------------------------------|
|------------------------------------------------|----------------------------------------------|


   PM------------------------------|              PM------------------|
   S  S  S  S  S  S  S  S  S  S  S  S  S  S  E    S  S  S  S  S  S  S  S  S  S  S  S  +Q
|----------------------------------------------|----------------------------------------------||
|----------------------------------------------|----------------------------------------------||
|----------------------------------------------|----------------------------------------------||
|-------------------------------------------12-|----------------------------------------------||
|-------------12----12----13----12----13h14----|-------------12----12----13-12-10-------------||
|-12-15-12-15----15----15----15----15----------|-12-15-12-15----15----15----------12-(12)\----||
|
|  W                                              H                       S  S  S  S  +Q
|----------------------------------------------|----------------------------------------------||
|----------------------------------------------|----------------------------------------------||
|----------------------------------------------|----------------------------------------------||
|----------------------------------------------|----------------------------------------------||
|----------------------------------------------|-------------------------13-12-10-------------||
|----------------------------------------------|----------------------------------12-(12)\----||


 3rd Chorus
  E5      A5
  Gtrs I, II
  PM--------------------|
  S S S S S S S S S S S S S S E
|-------------------------------|
|-------------------------------|
|-------------------------------|
|---------2---2---------------0-|
|-2---2---0---0---1---0---1h2---|
|-0-3-0-3---3---3---3---3-------|


  E5      A5                      E5      A5
  PM--------------------|         PM--------------------|
  S S S S S S S S S S S S S S E   S S S S S S S S S S S S S S E
|-------------------------------|-------------------------------|
|-------------------------------|-------------------------------|
|-------------------------------|-------------------------------|
|---------2---2---------------0-|---------2---2---------------0-|
|-2---2---0---0---1---0---1h2---|-2---2---0---0---1---0---1h2---|
|-0-3-0-3---3---3---3---3-------|-0-3-0-3---3---3---3---3-------|


  E5      A5            E5     E5      A5
  PM------------|              PM--------------------|
  S S S S S S S S S S S S Q    S S S S S S S S S S S S S S E
|----------------------------|-------------------------------|
|----------------------------|-------------------------------|
|----------------------------|-------------------------------|
|---------2---2--------------|---------2---2---------------0-|
|-2---2---0---0---1-0---2----|-2---2---0---0---1---0---1h2---|
|-0-3-0-3---3---3-----3-0----|-0-3-0-3---3---3---3---3-------|


  E5      A5
  PM--------------------|
  S S S S S S S S S S S S S S E
|--------------------------------|
|--------------------------------|
|--------------------------------|
|---------2---2---------------0--|
|-2---2---0---0---1---0---1h2----|
|-0-3-0-3---3---3---3---3--------|


  E5      A5                      E5      A5            E5
  PM--------------------|         PM------------|
  S S S S S S S S S S S S S S E   S S S S S S S S S S S S Q
|-------------------------------|----------------------------|
|-------------------------------|----------------------------|
|-------------------------------|----------------------------|
|---------2---2---------------0-|---------2---2--------------|
|-2---2---0---0---1---0---1h2---|-2---2---0---0---1-0---2----|
|-0-3-0-3---3---3---3---3-------|-0-3-0-3---3---3-----3-0----|


                                                D.S. al Coda
  E5      A5                      E5      A5            E5
  PM--------------------|         PM------------|
  S S S S S S S S S S S S S S E   S S S S S S S S S S S S Q
|-------------------------------|----------------------------||
|-------------------------------|----------------------------||
|-------------------------------|----------------------------||
|---------2---2---------------0-|---------2---2--------------||
|-2---2---0---0---1---0---1h2---|-2---2---0---0---1-0---2----||
|-0-3-0-3---3---3---3---3-------|-0-3-0-3---3---3-----3-0----||


  &
  Gtrs I, II
   S  S  S  S  S  S  S  S  S  S  S  S  S S  E
|-17p15----15s14----14s12----12s10----10s9----|
|-------17-------15-------14-------12------10-|
|---------------------------------------------|
|---------------------------------------------|
|---------------------------------------------|
|---------------------------------------------|
|
| Gtr III
|  S  S  S  S  S  S  S  S  S  S  S  S  S S  E
|---------------------------------------------|
|---------------------------------------------|
|-14p12----12s11----11s=9-----9s=7-----7s6----|
|-------14-------12-------11--------9-------7-|
|---------------------------------------------|
|---------------------------------------------|
|
| Gtr IV
|  S  S  S  S  S  S  S  S  S  S  S  S  S S  E
|---------------------------------------------|
|---------------------------------------------|
|---------------------------------------------|
|---------------------------------------------|
|-12p10----10s=9-----9s=7-----7s=5-----5s4----|
|-------12-------10--------9--------7-------5-|


                             E5
 5/4
                 |-3-|
  S S S S S S Q  S S S S S S E E.
|---------------------------------*|
|---------------------------------*|
|---------------------------------*|
|----------------------------2----*|
|----------------0h1p0-------2----*|
|-0-0-0-0---0----------3---3-0----*|
|
|                |-3-|
| S S S S S S Q  S S S S S S E E.
|---------------------------------*|
|---------------------------------*|
|---------------------------------*|
|----------------------------2----*|
|----------------0h1p0-------2----*|
|-7-0-0-0---0----------3---3-0----*|
|
| W
|---------------------------------*|
|---------------------------------*|
|---------------------------------*|
|---------------------------------*|
|---------------------------------*|
|---------------------------------*|

2.Cemetary Gates

E :----------------|----------------|----------------|------0--------- 1|
B :--------2-------|------0---------|------0---------|----2-----2----- ||
G :------2-----2---|----4-----4-----|----4-----4-----|--4---------4---*||
D :----2-----------|--2---------2---|--2---------2---|----------------*||
A :--4-----------0-|----------------|--------------4-|---------------- ||
E :2---------------|--------------0-|----------------|--------------0- ||

E :----------------|----------------|----------------|--------0------- 1|
B :--------2-------|------0---------|------0---------|--2-------2----- ||
G :------2-----2---|----4-----4-----|----4-----4-----|----4-------4---*||
D :----2-----------|--2---------2---|--2---------2---|----------------*||
A :--4-----------0-|----------------|--------------4-|------4--------- ||
E :2---------------|--------------0-|----------------|--------------0- ||

Opening Rhythm 2:
E :---------------------------|----------------------------------||
B :------3-/-6---------5-/-7--|------------0-------------0-------||
G :--4---4-/-5---------6-/-7--|--7---------7-/-9---------9-/-11-*||
D :-----------------0---------|--------0-------------0----------*||
A :---------------------------|----------------------------------||
E :---------------------------|----------------------------------||

I'm not covering the first solo because it's on like two strings and it's
just single notes and bends and a few artificial harmonics in F#. You
can figure it out.

First Solo Rhythm:
E :--2--2-------2--------|--2--2--------2--------||
B :--5-----5-------5-----|--4-----4--------4-----||
G :--2--------2-------2--|--2--------2--------2--||
D :--2-------------------|--2--------------------||
A :--4-------------------|--4--------------------||
E :--2-------------------|--2--------------------||

E :--2--2--------2-------|--2--2--------2--------||
B :--3-----3--------3----|--2-----2--------2-----||
G :--2--------2--------2-|--2--------2--------2--||
D :--2-------------------|--2--------------------||
A :--4-------------------|--4--------------------||
E :--2-------------------|--2--------------------||

Then back to Opening Rhythm 2 at the end of the solo

Main/Chorus Riff: Put your pickup selector on treble to make the artificial
harmonics squeal like Dime does. Use all downstrokes to make it sound
heavier. Don't slide between any of the notes, or the artificial harmonic
will die out. Hammer-on and pull-off to each note. The timing isn't right,
so you can figure it out.
P.M.  *  *  *  *                                   *  *  *  *
A.Harmonics       "       "     "    "  "                      "     "   "
E :-------------------------|---------------------|-----------------------|
B :-------------------------|---------------------|-----------------------|
G :-------------------------|---------------------|-----------------------|
D :-------------------------|--------7~-----------|-----------------------|
A :7--7--7--7--7--7p6h7---8~|---7h8-----7h8----7--|7--7--7--7--7p6h7-8~--6|
E :5--5--5--5--5------------|------------------5--|5--5--5--5-------------|
    " " " "
E :----------------- 1|
B :----------------- ||
G :-----------------*||
D :-----------------*||
A :-7---6----------- ||
E :---8---7~-------- ||

Into the pre-verse: Cut off the last 2 notes of the main riff and play this.
Once again, all downstrokes. Palm mute the low E and F power chords the
third time through. End the sequence with Palm Muted low E and F power
chords then a regular F# power chord.
P.M.          * *      * *       * *
E :-----------------------|-----------------------|
B :-----------------------|-----------------------|
G :-----------------------|-----------------------|
D :-----------------------|-----------------------|
A :2---3---4--4-4---7--7-7|---9--9-9---10---------|
E :0---1---2--2-2---5--5-5|---7--7-7----8---------|

Back to the chorus with the opening rhythm

Pre-chorus: Pretty simple and straight forward

E :----------------|----------------|----------------|----
B :----------------|----------------|----------------|----
G :----------------|----------------|----------------|----
D :----------------|----------------|----5----4------|----  repeat
A :4-----------2---|--------4-------|----3----2-----2|-4--
E :2-------2/5-0---|----2/5-2-------|2-5------------0|-2--

Solo: The rhythm is the opening acoustic ballad, then half way
through it switches to the pre-verse riff. The solo is in F#. It's a lot
harder than it sounds. It's harder than faster solos like "Domination" and
"Cowboys from Hell." Have your pinky stretched well cause you gotta
stretch quite a bit. I spaced it out quite a bit so it won't be too
complicated to look at. Good Luck.

B= Bend Full Step. If it's a different amount the number is next to it.

**All notes in brackets() are notes you don't pick. They are notes you slide
 from, notes that result from tapping another note, or implied notes.**
            Sl.
----------------------------------5-----5--4--~~~~-------12---12--9------
2----3----5-5/7\5--3p2~~~~~~~~-2----2------------------------------------
---------------------------------------------------(4)/9----9------------
-------------------------------------------------------------------------
-------------------------------------------------------------------------
-------------------------------------------------------------------------


      Sl.                                               Heavy Vib.
9~~------------12-----10-------10~~---10p9-----------9----------------
10---5/9-----------9-----------------------------12-----10~~~~--------
----------------------------------------------------------------------
----------------------------------------------------------------------
----------------------------------------------------------------------
----------------------------------------------------------------------


        Sl.                        Vib.               Bend full step and hold
--------------------------------------------7-----7--------------------------
--------/10--9--8--7--6--5h6-------7~~---------7------7----------------------
-----------------------------------------------------------------------------
-----------------------------------------------------------------------------
-----------------------------------------------------------------------------
-----------------------------------------------------------------------------


                  R       B           Tap     R
----------------------7------------------------------------------------------
~~~~~~~~~~~-------7-------7------------8p7---7p5-------5~~-------(5)\-/9-----
-----------------------------------------------------------------------------
-----------------------------------------------------------------------------
-----------------------------------------------------------------------------
-----------------------------------------------------------------------------


            T                T Sl.                     T       T
---7h9h10---12p10p9p7h9h10---12/14~------14p12p10-----14p10---14/16----16\--
----------------------------------------------------------------------------
----------------------------------------------------------------------------
----------------------------------------------------------------------------
----------------------------------------------------------------------------
----------------------------------------------------------------------------


         T       T
p14p12---15p12---15/17-----(17)p16p14--------14--19/21-----17------17-------
---------------------------------------------------------------19--------19-
----------------------------------------------------------------------------
----------------------------------------------------------------------------
----------------------------------------------------------------------------
----------------------------------------------------------------------------


rake----|                                        PM---------|
-------19--16---------------------------------------------------------------
----X----------17~~~--(17)\-------------------------------------------------
-X--------------------------------------------------------------------------
-----------------------------------------------6--7--8--9--8--9--10--11-----
---------------------------7--7---7--8--9--10-------------------------------
----------------------------------------------------------------------------


PM-----------|   rake-----|       rake----|        rake----|           Bend
------------------------9---X--X---------9---X--X---------9-----(9)-\------
------------------------10~~X--X---------10~~X--X---------10~~~-(10)\------
-8--9--10--11--------X----------------X----------------X----------------16-
------------------X----------------X----------------X----------------------
---------------------------------------------------------------------------
---------------------------------------------------------------------------

 "Smear Lick"

                Bend                Bend                   Bend
----14------------------14------------------14------------------------14----
14------17p14-------14------17p14-------14--------17p14-------14--14--------
----------------16------------------16--------------------16----------------
----------------------------------------------------------------------------
----------------------------------------------------------------------------
----------------------------------------------------------------------------


        Bend        Bend     Bend
---------------14-------14---------21p14--(21)--21p14--21p14--21p14--20--20-
17p14---17----------17-------17---------------------------------------------
----------------------------------------------------------------------------
----------------------------------------------------------------------------
----------------------------------------------------------------------------
----------------------------------------------------------------------------



p14--20--20p14--20p14----19h20p19p17------19h20p19p17-----------------------
--------------------------------------19---------------19--19--19--19~~~~~~~
----------------------------------------------------------------------------
----------------------------------------------------------------------------
----------------------------------------------------------------------------
----------------------------------------------------------------------------



--------14--16----17--16--14------14--17/19p17p14--14h17p14h17p14--14--14---
-19\/17-----------------------17--------------------------------------------
----------------------------------------------------------------------------
----------------------------------------------------------------------------
----------------------------------------------------------------------------
----------------------------------------------------------------------------



----------------------------------------------------------------------------
19p17p14--17h14----14h15p14h15p14------14-----------------------------------
-----------------------------------17------17p14--16p14------14-------------
---------------------------------------------------------16------16~~~~~~~~~
----------------------------------------------------------------------------
----------------------------------------------------------------------------


                  B1.5    B1.5                  B.5     A.H.
----------------------------------------------------------------------------
----------------------------------------------------------------------------
----------14h16p-14------(14)-----(14)--13p11\-10------11p10p9--11p10p9--10-
-16\/16---------------------------------------------------------------------
----------------------------------------------------------------------------
----------------------------------------------------------------------------


                  B      B1.5            B      B         A.H. Dive w/ Bar
Rake----|
--------------------------------------------------------------------------
--------------------------------------------------------------------------
p9p8----10p9p8---9------(9)-----(9)p7---9------6~~~---------6~~~~---------
--------------------------------------------------------X-----------------
-----------------------------------------------------X--------------------
--------------------------------------------------------------------------

3.Mouth For War

Intro/Pre-Chorus
  pm........   .................
|---------------------------------------------|
|---------------------------------------------|
|-------------4-------------------4---4---4---|
|-------------4-------------------4---4---4---|
|-0-1-2-2-2-2-2-2-2-0-1-2-2-2-2-2-2---2---2---|
|---------------------------------------------|

Chorus                               Fill n.h............(tricky..)  
|--------------------------------------|-----------------|
|--------------------------------------|--2.75-2.75-2.75-|
|--------------------------------------|--2.75-2.75-2.75-|
|--------------------------------------|-----------------|
|-2---5/9------5------5/9----5/9----5--|-----------------|
|-0---3/7---0--3---0--3/7-0--3/7--0-3--|-----------------|

Verse
 p.m..  ..     ...     ...   ..     ...
|-------------------------------------------|
|-------------------------------------------|
|-------------------------------------------|
|-------------------------------------------|
|-2---8---9/10-----7/8-----5----5/7-----4/5-|
|-0-0-6-0-7/8---0--5/6--0--3--0-3/5--0--2/3-|

p.m..   ..     ..     ..        n.h............
|------------------------------|----------------|
|------------------------------|-2.75-2.75-2.75-|
|------------------------------|-2.75-2.75-2.75-|
|------------------------------|----------------|
|-----8---9/10----7/8-------5--|----------------|
|-0-0-6-0-7/8--0--5/6--0----3--|----------------|

Fill at beginning of each verse
|-----|
|-----|
|-----|
|-----|
|-2-2-|
|-0-0-|

Rhythm under solo/Pre-Breakdown
|-------------------------------------|
|-------------------------------------|
|-------------------------------------|
|-----------4--------8-7--6--4--4-----|
|-4/6-6--6--2--6--6--6-5--4--2--2--4--|
|-2/4-4--4-----4--4----------------2--|

|-------------|
|-------------|
|-------------|
|-2---9--8--7-|
|-2---7--6--5-|
|-0-----------|

|-----------------------------------------|
|-----------------------------------------|
|-----------------------------------------|
|-----------4-------------8-7--6--4--4----|
|-4/6-6--6--2---6--6------6-5--4--2--2--4-|
|-2/4-4--4------4--4--------------------2-|

|-------------|
|-------------|
|-------------|
|-2---9--8--7-|
|-2---7--6--5-|
|-0-----------|

Breakdown

|---------------------------------|
|---------------------------------|
|---------------------------------|
|---------------------------------|
|-6--6---6/4----------------------|
|-4--4---4-2----------------------|

p.m.................
|----------------------------------|
|----------------------------------|
|----------------------------------|
|------------------------9---------|
|-6----------------------9---------|
|-4-4-4-4-4-4-4-4-4------7---------|

p.m................
|---------------------------------|
|---------------------------------|
|---------------------------------|
|------------------------7--------|
|-6----------------------7--------|
|-4-4-4-4-4-4-4-4-4------5--------|

Solo
(take note of the amount of bend required, this really spices up the solo...)
              1.5                 1   1.5
|-----------------------------------------------------|
|---------------9b--------9--12--12b---12b---12-------|
|--------8------------/9------------------------13~---|
|-4h6~------6-----------------------------------------|
|-----------------------------------------------------|
|-----------------------------------------------------|

                                                    1    1-1/2
|--7--7--7--7--7--x--x--7---x--7--/9--------16--19--19b---19b---19~--|
|-----------------x--x------x----------/17---------------------------|
|--4--4--4--4--4--x--x--4---x--4--/6---------------------------------|
|--------------------------------------------------------------------|
|--------------------------------------------------------------------|
|--------------------------------------------------------------------|
                                      
   1/2        1/2        1/2         ____Divebomb______
|---22b-r-b~---22b-r-b~---22b-r-b~---22b--22--22--22r--| 
|--x---------------------------------21b--21--21--21r--| 
|-x----------------------------------------------------|
|------------------------------------------------------|
|------------------------------------------------------|
|------------------------------------------------------|

(very fast, be careful, palm mute slightly the bass notes)
|------------------------------------------------------------------------------|
|------------------------------------------------------------------------------|
|------------------------------------------------------------------------------|
|-------------------------------------------------------------14--------14-16--|
|----------------------14--------14-16-----14-16-17--14-16-17-----16-14--------|
|--/14-14-16--14-16-17-----16-17--------17-------------------------------------|


|------------------------------------------------16------|
|--------------^-------12--^---16-19p16----19b-----19-16-|
|--^-11-13----11-13-14----18b-----------18---------------|
|-14-------14--------------------------------------------|
|--------------------------------------------------------|
|--------------------------------------------------------|


|--------------------------------------------------------16--------|
|------------------------------------16-19p16------19b-------19-16-|
|------------------------14-16--18b-----------18-------------------|
|-----14-16-18--14-16-18-------------------------------------------|
|--17--------------------------------------------------------------|
|------------------------------------------------------------------|

 |------repeat once--------|  1-1/2               1
|---------------------16--------19b--------r16-------------------|
|----16-19p16---19b-----19-16---------------------17b~--\--------|
|-18b---------18-------------------------------------------------|
|----------------------------------------------------------------|
|----------------------------------------------------------------|
|----------------------------------------------------------------|

4.Walk

------------------------------
------------------------------
------------------------------
------------------------8-----
------------------------8-----
--0--0--1b---0-------0--8-----

------------------------------
------------------------------
------------------------------
------------------------6-----
------------------------6-----
--0--0--1b---0-------0--6-----

-------------------------------
-------------------------------
-------------------------------
----------------------------6--
----------------------------4--
--0--0--1b---0-------0---------

-------------------------------------
-------------------------------------
-------------------------------------
-------------------------------------
-------------------------------------
----------1-----3------4-----3-----1-
-0--0--0--1--0--3--0---4--0--3--0--1-


Pre-chorus
---------------
---------------
---------------
-5--6---7------
-3--6---7------
----6---7------

A lesson learned in life....
-----------------------
-----------------------
-----------------------
-5----6----3----2---1--
-3----6----3----2---1--
------6----3----2---1--

chorus (Respect....
---------------------------
---------------------------
---------------------------
------------------------8--
------------------------8--
--0--0--1b---0-------0--8--

----------------------------
----------------------------
----------------------------
------------------------6---
------------------------6---
--0--0--1b---0-------0--6---

-------------------------------
-------------------------------
-------------------------------
----------------------------6--
----------------------------4--
--0--0--1b---0-------0---------

-------------------------------------
-------------------------------------
-------------------------------------
-------------------------------------
-------------------------------------
----------1-----3------4-----3-----1-
-0--0--0--1--0--3--0---4--0--3--0--1-

Are you talking to me???

-------------------------------------
-------------------------------------
-------------------------------------
-------------------------------------
-------------------------------------
----------1-----3------4-----3-----1-
-0--0--0--1--0--3--0---4--0--3--0--1-

outro
-----------------------------------
-----------------------------------
-----------------------------------
-------2-/-1----0-------2-/-1--0---
-------2-/-1----0-------2-/-1--0---
-0-0-0-2-/-1----0-0-0-0-2-/-1--0---

Guitar Solo
  full      full
|----------|----------------------------10----------------------10-------|
|-12b---13b|-~--10----10-------------------13-10-------------------13-10-|
|-12b------|-------13----13-12-10-12-13----------13-12-10-12-13----------|
|----------|-------------------------------------------------------------|
|----------|-------------------------------------------------------------|
|----------|-------------------------------------------------------------|

            vib.       full  2  full
|----------12b~---10-12-----10b-----10-|
|-----------------------13b-----13b----|
|-13-12-10-----------------------------|
|--------------------------------------|
|--------------------------------------|
|--------------------------------------|

   full
|--------10-14-10---10-14-10-14-10----10-------------|
|-13b------------------------------13----13-10-13-10-|
|----------------------------------------------------|
|----------------------------------------------------|
|----------------------------------------------------|
|----------------------------------------------------|

|-----------------------------------------------------|
|----10-----------------------------------------------|
|-13----13-12-10----12----10h11----10-11-10----10h11b-|
|----------------12----12-------------------12--------|
|-----------------------------------------------------|
|-----------------------------------------------------|

    2 vib.                 2.5 vib.                          1.5
|--------------------------------|-------|-13----15----16----18b----|
|--------------------------------|-------|--------------------------|
|-(11b)~--10-11b--11----10-11b~~-|-~~~---|--------------------------|
|--------------------------------|-------|--------------------------|
|--------------------------------|-------|--------------------------|
|--------------------------------|-------|--------------------------|

                                  2  full full  vib. w/bar---
|----------6-7-6---|-------------------------|--------------|
|-3--------------8-|-5-6-5-------------------|--------------|
|-3----------------|-------7-4-5-4br---5b-5b-|-3~~~-5-/--5/-|
|-3--5-3-5---------|-------------------------|--------------|
|------------------|-------------------------|--------------|
|------------------|-------------------------|--------------|

             vib.
|-----------------|--------------------------------------|
|-----------------|--------------------------------------|
|---------12~~~~~-|-----12-------12-------12-------12----|
|-/x-5-/----------|-/12----12-11----11h12----12-11----11-|
|-----------------|--------------------------------------|
|-----------------|--------------------------------------|

                   full vib.
|----------------------------|----8------10-------14-------17-----|
|-------------------------3/-|-/7---7/10----10/13----13/16----16/-|
|-----12----12----12b~~~-----|------------------------------------|
|-h12----12----12------------|------------------------------------|
|----------------------------|------------------------------------|
|----------------------------|------------------------------------|

                   1.5     A.H. dive w/bar
|-----20----20----20b-----|------------||
|-/19----19----19---------|-x----\-----||
|-------------------------|------------||
|-------------------------|------------||
|-------------------------|------------||
|-------------------------|------------||

5.This Love

||-------------------|||-------------------||-----------------|-----|
||-------------------|||-------------------||-----------------|-----|
||o-----------------o|||o-----2-----2-----o||-----------------|-----|
||o-----2-----2-----o|||o---4-----4---4---o||-----2-----2-----|--%--|
||----4-----4---4----|||--2-----3-------3--||---4-----4---4---|-----|
||--2-----3-------3--|||-------------------||-2-----3-------3-|-----|
    e e e e e e e e       e e e e e e e e     e e e e e e e e

|-----------------|-----------------|------|---------------|------||
|-----------------|-----------------|------|---------------|------||
|-----0-----0-----|-----2-----0-----|------|-------2-------|-(2)--||
|---2-----2---2---|---2-----2---2---|---%--|-----2-2-------|-(2)--||
|-4-----3-------3-|-4-----3-------3-|------|---2---3-------|-(3)--||
|-----------------|-----------------|------|-4-----5-------|-(5)--||
  e e e e e e e e   e e e e e e e e          e e e e + h   +  w

  verse 1
|-----------------|-----|-----|-----|-----------------|-----|
|-----------------|-----|-----|-----|-----------------|-----|
|-----------------|-----|-----|-----|-----2-----2-----|-----|
|-----2-----2-----|--%--|--%--|--%--|---4-----4---4---|--%--|
|---4-----4---4---|-----|-----|-----|-2-----3-------3-|-----|
|-2-----3-------3-|-----|-----|-----|-----------------|-----|
  e e e e e e e e                     e e e e e e e e

|-----------------|-----|-----------------|-----------------|-----|
|-----------------|-----|-----------------|-----------------|-----|
|-----------------|-----|-----0-----0-----|-----2-----0-----|-----|
|-----2-----2-----|--%--|---2-----2---2---|---2-----2---2---|--%--|
|---4-----4---4---|-----|-4-----3-------3-|-4-----3-------3-|-----|
|-2-----3-------3-|-----|-----------------|-----------------|-----|
  e e e e e e e e         e e e e e e e e   e e e e e e e e

|-----------------|-----------------|-----------------|-----|
|-----------------|-----------------|-----------------|-----|
|-----------------|-----0-----0-----|-----2-----0-----|-----|
|-----2-----2-----|---2-----2---2---|---2-----2---2---|--%--|
|---2-----3---3---|-4-----3-------3-|-4-----3-------3-|-----|
|-4-----5-------5-|-----------------|-----------------|-----|
  e e e e e e e e   e e e e e e e e   e e e e e e e e

                        pre-chorus  w/fill 1
               2/4     4/4                4x
|--------------|-------||-------------------||
|--------------|-------||-------------------||
|-------2------|-(2)---||o-----------------o||
|-----2-2------|-(2)---||o-----2-----2-----o||
|---2---3------|-(3)---||----4-----4---4----||
|-4-----5------|-(5)---||--2-----3-------3--||
  e e e e + h  +  h


 chorus
 w/dist
|------------------------|---------------------|------------------------|
|------------------------|---------------------|------------------------|
|------------------------|---------------------|------------------------|
|------------------------|---------------------|------------------------|
|---4------4---4-----4-4-|---4------4-6--5---1-|---4------4---4-----4-4-|
|-0-2------2-0-2-----2-2-|-0-2------2-8--7---3-|-0-2------2-0-2-----2-2-|
  s s E E. s s s E E s s   s s E E. s e. s+e e   s s E E. s s s E E s s

|---------------------|-----------------|------------------|
|---------------------|-----------------|------------------|
|---------------------|-----------------|------------------|
|---------------------|-----------------|------------------|
|---4------4-6--5---1-|---4-------4-----|---4-----6--5---1-|
|-0-2------2-8--7---3-|-0-2-----0-2-----|-0-2-----8--7---3-|
  s s E E. s e. s+e e   s s E Q s s E Q   s s E Q e. s+e e

                                                                 fdbk.
|-----------------|------------------||-----------------|-----|-----|-----||
|-----------------|------------------||-----------------|-----|-----|-----||
|-----------------|------------------||-----------------|-----|-----|-----||
|-----------------|------------------||-----------------|-----|-----|-----||
|---4-------4-----|---4-----6--5---1-||-4---------------|-(4)-|-(4)-|-(4)-||
|-0-2-----0-2-----|-0-2-----8--7---3-||-2---------------|-(2)-|-(2)-|-(2)-||
  s s E Q s s E Q   s s E Q e. s+e e || w               +  w  +  w  +  w  ||
                                     ||                 |     |     |     ||
                                     ||clean elec.      |     |     |     ||
                                     ||-----------------|-----|-----|-----||
                                     ||-----------------|-----|-----|-----||
                                     ||-----------------|-----|-----|-----||
                                     ||-----2-----2-----|--%--|--%--|--%--||
                                     ||---4-----4---4---|-----|-----|-----||
                                     ||-2-----3-------3-|-----|-----|-----||
                                        e e e e e e e e

  verse 2
|-----------------|-----|-----|-----|-----------------|-----|
|-----------------|-----|-----|-----|-----------------|-----|
|-----------------|-----|-----|-----|-----2-----2-----|-----|
|-----2-----2-----|--%--|--%--|--%--|---4-----4---4---|--%--|
|---4-----4---4---|-----|-----|-----|-2-----3-------3-|-----|
|-2-----3-------3-|-----|-----|-----|-----------------|-----|
  e e e e e e e e                     e e e e e e e e

|-----------------|-----|-----------------|-----------------|-----|
|-----------------|-----|-----------------|-----------------|-----|
|-----------------|-----|-----0-----0-----|-----2-----0-----|-----|
|-----2-----2-----|--%--|---2-----2---2---|---2-----2---2---|--%--|
|---4-----4---4---|-----|-4-----3-------3-|-4-----3-------3-|-----|
|-2-----3-------3-|-----|-----------------|-----------------|-----|
  e e e e e e e e         e e e e e e e e   e e e e e e e e

|-----------------|-----------------|-----------------|-----|
|-----------------|-----------------|-----------------|-----|
|-----------------|-----0-----0-----|-----2-----0-----|-----|
|-----2-----2-----|---2-----2---2---|---2-----2---2---|--%--|
|---2-----3---3---|-4-----3-------3-|-4-----3-------3-|-----|
|-4-----5-------5-|-----------------|-----------------|-----|
  e e e e e e e e   e e e e e e e e   e e e e e e e e

                        pre-chorus   w/fill 2
               2/4     4/4                4x
|--------------|-------||-------------------||
|--------------|-------||-------------------||
|-------2------|-(2)---||o-----------------o||
|-----2-2------|-(2)---||o-----2-----2-----o||
|---2---3------|-(3)---||----4-----4---4----||
|-4-----5------|-(5)---||--2-----3-------3--||
  e e e e + h  +  h


 chorus
 w/dist
|------------------------|---------------------|------------------------|
|------------------------|---------------------|------------------------|
|------------------------|---------------------|------------------------|
|------------------------|---------------------|------------------------|
|---4------4---4-----4-4-|---4------4-6--5---1-|---4------4---4-----4-4-|
|-0-2------2-0-2-----2-2-|-0-2------2-8--7---3-|-0-2------2-0-2-----2-2-|
  s s E E. s s s E E s s   s s E E. s e. s+e e   s s E E. s s s E E s s

|---------------------|-----------------|------------------|
|---------------------|-----------------|------------------|
|---------------------|-----------------|------------------|
|---------------------|-----------------|------------------|
|---4------4-6--5---1-|---4-------4-----|---4-----6--5---1-|
|-0-2------2-8--7---3-|-0-2-----0-2-----|-0-2-----8--7---3-|
  s s E E. s e. s+e e   s s E Q s s E Q   s s E Q e. s+e e

|-----------------|------------------||
|-----------------|------------------||
|-----------------|------------------||
|-----------------|------------------||
|---4-------4-----|---4-----6--5---1-||
|-0-2-----0-2-----|-0-2-----8--7---3-||
  s s E Q s s E Q   s s E Q e. s+e e

||----------------------------------|---------------------------|
||----------------------------------|---------------------------|
||o---------------------------------|---------------------------|
||o-------------4-------------------|-------------4-------------|
||--------4-------4-----------------|-------4-------4---------5-|
||--0-2-2---2-2-----5-2-3-4-5-2-4-5-|-0-2-2---2-2-----5-2-3-4-3-|
    s s s s s s s s s s s s s s s s   s s s s s s s s s s s s q

                                                                2x
|---------------------------------|------------------------------||
|---------------------------------|------------------------------||
|---------------------------------|-----------------------------o||
|-------------4-------------------|-------------4---------------o||
|-------4-------4-----------------|-------4-------4-3-4-5-6-7-8--||
|-0-2-2---2-2-----5-2-3-4-5-2-4-5-|-0-2-2---2-2-----1-2-3-4-5-6--||
  s s s s s s s s s s s s s s s s   s s s s s s s s e e e e e e
                                                    { 3 } { 3 }

 6/4        3/4       4/4
|----------|---------||
|----------|---------||
|----------|---------||
|----------|---------||
|-9--------|-(9)-\---||
|-7--------|-(7)-\---||
  w.       +  h.

 slower 64 bpm                      |1.,2.,3.                    |
||----------------------------------|----------------------------||
||----------------------------------|----------------------------||
||o---------------------------------|---------------------------o||
||o---------------------------------|---------------------------o||
||--3-5---3-5---3-5---3-5---3-6---3-|-5---3-5---3-5---3-6---3-3--||
||--1-3---1-3---1-3---1-3---1-4---1-|-3---1-3---1-3---1-4---1-1--||
    s s S s s S s s S s s S s s S s   s S s s S s s S s s S s q

|4.                         3/4  dive w/bar
|---------------------------|---------||
|---------------------------|---------||
|---------------------------|---------||
|---------------------------|---------||
|-5---3-5---3-5---3-6---3-3-|-(3)--\--||
|-3---1-3---1-3---1-4---1-1-|-(1)--\--||
  s S s s S s s S s s S s q +  q + h

 tempo I 102 bpm
 clean elec.                       w/Guitar solo
|-----------------|-----|-----|-----||-----|-----|-----|-----|
|-----------------|-----|-----|-----||-----|-----|-----|-----|
|-----------------|-----|-----|-----||-----|-----|-----|-----|
|-----2-----2-----|--%--|--%--|--%--||--%--|--%--|--%--|--%--|
|---4-----4---4---|-----|-----|-----||-----|-----|-----|-----|
|-2-----3-------3-|-----|-----|-----||-----|-----|-----|-----|
 e e e e e e e e

|-----------------|-----|-----------------|-----|
|-----------------|-----|-----------------|-----|
|-----2-----2-----|-----|-----------------|-----|
|---4-----4---4---|--%--|-----2-----2-----|--%--|
|-2-----3-------3-|-----|---4-----4---4---|-----|
|-----------------|-----|-2-----3-------3-|-----|
  e e e e e e e e         e e e e e e e e

|-----------------|-----------------|-----------------|-----------------|
|-----------------|-----------------|-----------------|-----------------|
|-----2-----2-----|-----2-----0-----|-----2-----2-----|-----2-----0-----|
|---3-----3---3---|---3-----3---3---|---3-----3---3---|---3-----3---3---|
|-5-----4-------4-|-3-----2-------2-|-5-----4-------4-|-3-----2-------2-|
|-----------------|-----------------|-----------------|-----------------|
  e e e e e e e e   e e e e e e e e   e e e e e e e e   e e e e e e e e

|-----------------|-----|-----|-----||
|-----------------|-----|-----|-----||
|-----------------|-----|-----|-----||
|-----2-----2-----|--%--|--%--|--%--||
|---4-----4---4---|-----|-----|-----||
|-2-----3-------3-|-----|-----|-----||
  e e e e e e e e

 chorus
 w/dist
|------------------------|---------------------|------------------------|
|------------------------|---------------------|------------------------|
|------------------------|---------------------|------------------------|
|------------------------|---------------------|------------------------|
|---4------4---4-----4-4-|---4------4-6--5---1-|---4------4---4-----4-4-|
|-0-2------2-0-2-----2-2-|-0-2------2-8--7---3-|-0-2------2-0-2-----2-2-|
  s s E E. s s s E E s s   s s E E. s e. s+e e   s s E E. s s s E E s s

|---------------------|-----------------|------------------|
|---------------------|-----------------|------------------|
|---------------------|-----------------|------------------|
|---------------------|-----------------|------------------|
|---4------4-6--5---1-|---4-------4-----|---4-----6--5---1-|
|-0-2------2-8--7---3-|-0-2-----0-2-----|-0-2-----8--7---3-|
  s s E E. s e. s+e e   s s E Q s s E Q   s s E Q e. s+e e

|-----------------|------------------||
|-----------------|------------------||
|-----------------|------------------||
|-----------------|------------------||
|---4-------4-----|---4-----6--5---1-||
|-0-2-----0-2-----|-0-2-----8--7---3-||
  s s E Q s s E Q   s s E Q e. s+e e

                                                                4x
||----------------------------------|----------------------------||
||----------------------------------|----------------------------||
||o---------------------------------|---------------------------o||
||o---------------------------------|---------------------------o||
||--3-5---3-5---3-5---3-5---3-6---3-|-5---3-5---3-5---3-6---3-3--||
||--1-3---1-3---1-3---1-3---1-4---1-|-3---1-3---1-3---1-4---1-1--||
    s s S s s S s s S s s S s s S s   s S s s S s s S s s S s q

|-----------|-------------||
|-----------|-------------||
|-----------|-------------||
|-----------|-------------||
|-2--2----3-|-(3)--3---\--||
|-2--0----1-|-(1)--3---\--||
  q. e+q. e +  q.  e+h

  slower 52 bpm                                                 2x
||----------------------------------|----------------------------||
||----------------------------------|----------------------------||
||o---------------------------------|---------------------------o||
||o---------------------------------|---------------------------o||
||--3-5---3-5---3-5---3-5---3-6---3-|-5---3-5---3-5---3-6---3-3--||
||--1-3---1-3---1-3---1-3---1-4---1-|-3---1-3---1-3---1-4---1-1--||
    s s S s s S s s S s s S s s S s   s S s s S s s S s s S s q

   cross fade                                          repeat and fade
||----------------------------------|----------------------------||
||----------------------------------|----------------------------||
||o---------------------------------|---------------------------o||
||o---------------------------------|---------------------------o||
||--3-5---3-5---3-5---3-5---3-6---3-|-5---3-5---3-5---3-6---3-3--||
||--1-3---1-3---1-3---1-3---1-4---1-|-3---1-3---1-3---1-4---1-1--||
    s s S s s S s s S s s S s s S s   s S s s S s s S s s S s q

                          full
                        |-----|------|------|------|
                        |-----|------|------|------|
                        |-9b~-|-(9)~-|-(9)~-|-(9)~-|
                        |-----|------|------|------|
                        |-----|------|------|------|
                        |-----|------|------|------|
 fade in 102 bpm        |  w  +  w   +  w   +  w   +
                        |     |      |
|-----------------|-----|-----|------|
|-----------------|-----|-----|------|
|-----------------|-----|-----|------|
|-----2-----2-----|--%--|--%--|--%---|  repeat till end
|---4-----4---4---|-----|-----|------|
|-2-----3-------3-|-----|-----|------|
  e e e e e e e e

       full,hold--|                                 1/4         1/2
|-------------------|-----------------|-------|--------------------|
|-------------------|-----------------|-------|--------------------|
|-(9)~-11b---11-11r-|--p9----11p9-11~-|-(11)~-|-14-b-----r--b-14br-|
|-------------------|-----11----------|-------|--------------------|
|-------------------|-----------------|-------|--------------------|
|-------------------|-----------------|-------|--------------------|
+ q   h  + e s  s   + s+s e  s +s e+h + w       q + q + e + e s +s +

  1/2  1/2                           w/wah     1/2       full 1/2 full
|-----------|-------------|----------------------------|-------------------|
|-----------|-------------|----------------------14-15-|-17b-r-17b-~-----r-|
|-b-r-b-r-~-|------14---~-|-~-\-/13-13-14-15-15b-------|-------------------|
|-----------|---x---------|----------------------------|-------------------|
|-----------|-x-----------|----------------------------|-------------------|
|-----------|-------------|----------------------------|-------------------|
+ q. + e+h         q + h. + q+e  e  e  e  e  e  e  e     q + e e + q.. + s
                                    {  3  }  {  3  }

  full 1/2 full 1/2 full    full  full        full full full full full
|-----------------------|--------------------|-------------|-14--14-~-|
|-17b-17b-17b-17b-17b~--|-17b---17b~---------|-14--16--17--|-17b-17b~-|
|-----------------------|--------------------|-16b-18b-19b-|----------|
|-----------------------|--------------------|-------------|----------|
|-----------------------|--------------------|-------------|----------|
|-----------------------|-----------------x\-|-------------|----------|
  e.  s   e   e   e + h   q + e e + q + e e    q.  e+q q     q.  e+h
          {   3   }

     1/4    1/4      1/4    1/4         full          full                full
|---17b---17-17b-17-17b-17-17b-17p14-|---------|----------17-21-20-19-17-19brp17-|
|------------------------------------|-17br-~--|-~---19b-------------------------|
|------------------------------------|---------|---------------------------------|
|------------------------------------|---------|---------------------------------|
|------------------------------------|---------|---------------------------------|
|------------------------------------|---------|---------------------------------|
  S s+e+e+e+ e   e  e   e  s  e + s    w         s S s+e. e  e  e  s  s  s s  s
        { 3  }   {  3   }

                                          hold bend       hold bend
   full            1.5       1.5    full   1.5         1.5
|--------|--------21b-|----21br----21b---|-b---21-r---21b-21-|
|-19b--~-|-~----------|------------------|-------------------|
|--------|------------|------------------|-------------------|
|--------|------------|------------------|-------------------|
|--------|------------|------------------|-------------------|
|--------|---x\-0-----|------------------|-------------------|
  h. + q + h q  e e   + q. e+e+s S q     + e. s+e+s S e+q e  +

                             N.H.               vib.
          hold bends          depress bar -5    w/bar
         1.5 1.75  1.5       and release slowly
|---r---21b-21b-21--r----r-|--------------|-------|-----|-----|-----||
|--------------------------|-3------------|-------|-----|-----|-----||
|--------------------------|--------------|-------|-----|-----|-----||
|--------------------------|--------------|-------|-----|-----|-----||
|--------------------------|--------------|-------|-----|-----|-----||
|--------------------------|--------------|-------|-----|-----|-----||
+ e+s S q   e   e + e. + s   w            + h + h +  w  +  w  +  w




Fill and Solo                    

fill 1
        w/bar                                scoop                  slack
         -1.5    0              scoop     scoop  scoop     scoop  dive   P.H.
|---------------------------|-------------------|----------------------------|
|---------------------------|-------------------|----------------------------|
|--------11---------------~-|-~-------p9-----p8-|----\-6------------\------6-|
|------x--------------------|-------------------|-----------------------x----|
|----x----------------------|-------------------|----------------------------|
|---------------------------|-------------------|----------------------------|
  Q. s s s + e + e + e. + s + h + e + e + q + q + q. + e + q + s + s   s   s +
     { 3 }

     -2     scoop   slack
|---------------------||
|---------------------||
|-\-----/----------\--||
|---------------------||
|---------------------||
|---------------------||
+ e. + s + e + e + h

fill 2
      w/wah                        1/4  1/2   1/2     1/2
|--------------|----------------|-------------------------|
|--------------|----------------|-------------------------|
|-----9h11~----|----------14-16-|-16brp14b---16br---16br--|
|----x---------|----14h16-------|-------------------------|
|--------------|----------------|-------------------------|
|--------------|----------------|-------------------------|
  Q.  s+s+e. E  H E s +s  e  e    s+s+ s+s E e    Q e   E

                 P.H.
     1/2  1/4      full
|----------------------||------------|
|----------------17b-~-||--\---------|
|---16brp14b-----------||------------|
|----------------------||------------|
|----------------------||------------|
|----------------------||------------|
  E s+s+ s+s E E e + q +  q   Q H

Guitar solo
                      full hold bend---------|
-----||---------|-------------------------------|-------------|----------|
-----||---------|-------------------------------|-------------|----------|
--16-||--b---~--|-~--16b--16-16-16-16-16-16-16r-|-p14-~---\---|----------|
-x---||---------|---x---------------------------|-------------|----------|
-----||---------|-------------------------------|-------------|----------|
-----||---------|-------------------------------|-------------|--------x-|
  s  +  q  + h. + e  e+e. s  e  e  e  e  e  e   +  e +e+q+q Q   H Q E. s

   hold bend
  full       full 1/2 full
|-19b-19~---19b-|-r-19b~-rp17----19------|----------------------|
|---------------|-------------19----19b--|-----r-17-19----19--~-|
|---------------|------------------------|-------------18-------|
|---------------|------------------------|----------------------|
|---------------|------------------------|----------------------|
|---------------|------------------------|----------------------|
  q.  e+q+e e.  + e q  + s+s  s  s  e.+q + e.+s  e  e  e  e +q. +
                         { 3  }                  {  3  }

                               full        2  2.5  2.75        1/2
|------------------|-13~-12-10-----10----|--------------13-17-17b-r-13----|
|-~\---------------|-----------13b----13-|-b--b----b-------------------17-|
|-----14h16p14-~-\-|---------------------|--------------------------------|
|----x-------------|---------------------|--------------------------------|
|------------------|---------------------|--------------------------------|
|------------------|---------------------|--------------------------------|
+ q   s+ s+ e+ q+q   q.  e  e  e   e  e  + h            s  s e+s+s  s  s

                            P.H.          w/talk box
                 full hold---|        full    1/2
|---------------------|-------------------|-----------------------|
|-----17/18------15b--|----15--r---~-\----|-----------------------|
|-15~-------14~-------|----------------2b-|-r-b-------------------|
|---------------------|-------------------|-----4p2-2h4~----2-----|
|---------------------|-------------------|-------------------3/4-|
|---------------------|-------------------|-----------------------|
  q      e  e+e. s+q  + q  e + e + q+e s  +  q  s+s t+t+s+q e s+s

                                                  w/bar
                   full    full   full       full   slack
|---------------------|--------------------|--------||
|---------------------|--------------------|-10---\-||
|---------------------|--------------------|-9b---\-||
|-2-------------------|--------------------|--------||
|---4-3-2-3-2-----7br-|---7b-7---7b-7------|--------||
|-------------0~------|-5------5--------5\-|--------||
  e s s s s s s+q q     e e  e e e  e+e e    h + h
  ^     ^ ^ ^             ^  ^   ^
  P.H.  P.H.               P.H.

6.I'm Broken

 a E a E S a S S S +H      3x a E a E S a S S S +E. S S  E.
||----------------------------||-------------------------------|
||o--------------------------o||-------------------------------|
||----------------------------||-------------------------------|
||----------------------------||-------------------------------|
||o-5h7-5h7-5-------2-(2)----o||-5h7-5h7-5-------2-(2)---------|
||------------7s5-3-0-(0)-----||-----------7s5-3-0-(0)-x-x/----|


        ~                   ~     ~~         ~                   ~     ~~
  a E a E S a S S S +S  a S E a S E.   a E a E S a S S S +S  a S E a S E.
|------------------------------------|------------------------------------|
|------------------------------------|------------------------------------|
|------------------------------------|---------------------------------7--|
|-----------------------------5s7-5--|-----------------------------7s9----|
|-5h7-5h7-5-------------5s7-5--------|-5h7-5h7-5-------------5s7-5--------|
|-----------7s5-3-0-(0)--------------|-----------7s5-3-0-(0)--------------|


                                                       D5    D#D#5 D#D#5 D#5
        ~                   ~     ~~         ~               PM|   PM|   PM
  a E a E S a S S S +S  a S E a S E.   a E a E S a S S S +S  S S S S S S S
|------------------------------------|--------------------------------------||
|------------------------------------|--------------------------------------||
|------------------------------------|--------------------------------------||
|-----------------------------5s7-5--|--------------------------------------||
|-5h7-5h7-5-------------5h7-5--------|-5h7-5h7-5-------2-(2)-3-3---3-3---3--||
|-----------7s5-3-0-(0)--------------|-----------7s5-3-0-(0)-1-1---1-1---1--||


   Verse
   7/16
                    PM|                   PM|                   PM|
    S   +S  S   +S  E S   S   +S  S   +S  E S   S   +S  S   +S  E S
||----------------------|---------------------|---------------------|
||o---------------------|---------------------|---------------------|
||----------------------|---------------------|---------------------|
||----------------------|---------------------|---------------------|
||o---------------------|---------------------|---------------------|
||--5b7-(5)-5b7-(5)-0-0-|-5b7-(5)-5b7-(5)-0-0-|-5b7-(5)-5b7-(5)-0-0-|


                  PM|                   PM|                   PM|
  S   +S  S   +S  E S   S   +S  S   +S  E S   S   +S  S   +S  E S
|---------------------|---------------------|---------------------|
|---------------------|---------------------|---------------------|
|---------------------|---------------------|---------------------|
|---------------------|---------------------|---------------------|
|---------------------|---------------------|---------------------|
|-5b7-(5)-5b7-(5)-0-0-|-5b7-(5)-5b7-(5)-0-0-|-5b7-(5)-5b7-(5)-0-0-|


 4/4
                  PM|         ~
  S   +S  S   +S  E S S   +S  E S S S S S
|-----------------------------------------|
|-----------------------------------------|
|-----------------------------------------|
|---------------------------------------5-|
|-----------------------------------------|
|-5b7-(5)-5b7-(5)-0-0-5b7-(5)-5-0-5-6-7---|


 7/16
                  PM|                   PM|
  S   +S  S   +S  E S   S   +S  S   +S  E S
|---------------------|---------------------|
|---------------------|---------------------|
|---------------------|---------------------|
|---------------------|---------------------|
|-5b7-(5)-5b7-(5)-----|-5b7-(5)-5b7-(5)-----|
|-----------------0-0-|-----------------0-0-|


                  PM|                   PM|
  S   +S  S   +S  E S   S   +S  S   +S  E S
|---------------------|---------------------|
|---------------------|---------------------|
|---------------------|---------------------|
|---------------------|---------------------|
|-5b7-(5)-5b7-(5)-----|-5b7-(5)-5b7-(5)-----|
|-----------------0-0-|-----------------0-0-|


                  PM|                   PM|
  S   +S  S   +S  E S   S   +S  S   +S  E S
|---------------------|----------------------|
|---------------------|----------------------|
|---------------------|----------------------|
|---------------------|----------------------|
|-5b7-(5)-5b7-(5)-----|-5b7-(5)-5b7-(5)------|
|-----------------0-0-|-----------------0-0--|


 4/4
                  PM|         ~~
  S   +S  S   +S  E S S   +S  E. +S  S S S
|------------------------------------------||
|------------------------------------------||
|------------------------------------------||
|------------------------------------------||
|-5b7-(5)-5b7-(5)-----5b7-(5)-5--(5)-------||
|-----------------0-0----------------0-5-6-||


 Pre-Chorus
                                   3/8
  S S S S S S S S S S S S S S S S   S S S S S S
|---------------------------------|-------------|
|---------------------------------|-------------|
|---------------------------------|-------------|
|---------------------------------|-------------|
|---------------------------------|-------------|
|-5-3-0---2-3-2-1-0---5-6-5-3-0---|-2-3-2-1-0---|


                                  E5F5E5D#5 D5  D5
 6/8                   5/8                 2/4
  S S S S E S S S S E   S S S S E S S S S   S S S S Q
|---------------------|-------------------|-------------||
|---------------------|-------------------|-------------||
|---------------------|-------------------|-------------||
|---------------------|-------------------|-------------||
|---------------------|-----------4-5-4-3-|-2---2-------||
|-5-6-5-3-0-2-3-2-1-0-|-5-6-5-3-0-2-3-2-1-|-0---0-------||


 4/4
        ~                   ~     ~~         ~                   ~     ~~
  a E a E S a S S S +S  a S E a S E.   a E a E S a S S S +S  a S E a S E.
|------------------------------------|-------------------------------------|
|------------------------------------|-------------------------------------|
|------------------------------------|---------------------------------7---|
|-----------------------------5s7-5--|-----------------------------7s9-----|
|-5h7-5h7-5-------------5s7-5--------|-5h7-5h7-5-------------5s7-5---------|
|-----------7s5-3-0-(0)--------------|-----------7s5-3-0-(0)---------------|


                                      1.
                                                       D5    D#D#5 D#D#5 D#5
        ~                   ~     ~~         ~               PM|   PM|   PM
  a E a E S a S S S +S  a S E a S E.   a E a E S a S S S +S  S S S S S S S
|------------------------------------|---------------------------------------||
|------------------------------------|--------------------------------------o||
|------------------------------------|---------------------------------------||
|-----------------------------5s7-5--|---------------------------------------||
|-5h7-5h7-5-------------5h7-5--------|-5h7-5h7-5-------2-(2)-3-3---3-3---3--o||
|-----------7s5-3-0-(0)--------------|-----------7s5-3-0-(0)-1-1---1-1---1---||


  2.
                          D#D#5 D#D#5 D#D#5 D#D#5 D#D#5 D#D#5
 2/4                 9/8
        ~
  a E a E S a S S S   +S  S S S S S S S S S S S S S S S S S
|-------------------|---------------------------------------||
|-------------------|---------------------------------------||
|-------------------|---------------------------------------||
|-------------------|---------------------------------------||
|-5h7-5h7-5---------|-----3-3---3-3---3-3---3-3---3-3---3-3-||
|-----------7s5-3-0-|-(0)-1-1---1-1---1-1---1-1---1-1---1-1-||


 Interlude
    D#D#5 D#D#5 D#D#5                     D#D#5 D#D#5 D#D#5
 4/4
  S S S S S S S S S S  S S S S S S     E  S S S S S S S S  S S S S S S  3x
|----------------------------------||-----------------------------------||
|----------------------------------||o---------------------------------o||
|----------------------------------||-----------------------------------||
|--------------------------------5-||--------------------------------5--||
|---3-3---3-3---3-3----------------||o-7\-3-3---3-3---3-3--------------o||
|---1-1---1-1---1-1---/7-6-5-6-7---||-----1-1---1-1---1-1-/7-6-5-6-7----||


                     Pre-Chorus
     D#D#5 D#D#5 D#5
 2/4                 6/8
  S  S S S S S S S    S S S S E S S S S E   S S S S E S S S S E
|------------------||---------------------|---------------------|
|------------------||---------------------|---------------------|
|------------------||---------------------|---------------------|
|------------------||---------------------|---------------------|
|-7\-3-3---3-3---3-||---------------------|---------------------|
|----1-1---1-1---1-||-5-6-5-3-0-2-3-2-1-0-|-5-6-5-3-0-2-3-2-1-0-|


                                            D5  D5
                       5/8                 2/4
                                                       ~~
  S S S S E S S S S E   S S S S E S S S S   S S S S  S E.
|---------------------|-------------------|---------------||
|---------------------|-------------------|---------------||
|---------------------|-------------------|---------------||
|---------------------|-------------------|---------------||
|---------------------|-------------------|-2---2---/7-5--||
|-5-6-5-3-0-2-3-2-1-0-|-5-6-5-3-0-2-3-2-1-|-0---0---------||


 Guitar Solo
 6/8
  Gtr II
  S  S     +S   S  S     +S   S  S  S     +S   S  S
|---------------------------------------------------|
|---15----(15)-15-15----(15)----15---------------15-|
|---14b16-(14)----14b16-(14)-------14b16-(14)-------|
|----------------------------14---------------14----|
|---------------------------------------------------|
|---------------------------------------------------|


   ~~~~~~
   E      +S  S  S  S  S  S  S  S  S  S
|---------------------------------------|
|------------------14-14----15----14----|
|-14pb16-(14)S8s12-------12----12----12-|
|---------------------------------------|
|---------------------------------------|
|---------------------------------------|


            ~~
   S  S  S  S  +E   +E    T  T  T  T  T  T  T  T
|------------------------17p12-15p12----12-15p12-|
|-15----14---------------------------17----------|
|----12----12-(12)-(12)\-------------------------|
|------------------------------------------------|
|------------------------------------------------|
|------------------------------------------------|


   T  T  T  T  T  T  T  T  T  T  T  T  T  T  T  T  T  T  T  T  T  T  T  T
|-15p12----12-------------------------------------------------------------|
|-------17----17-16-15p12-17p12-15p12-13-12-15p12-15p12-13-12-13-12-------|
|-------------------------------------------------------------------15p12-|
|-------------------------------------------------------------------------|
|-------------------------------------------------------------------------|
|-------------------------------------------------------------------------|


   T  T  T  T  T  T  T  T  T  S  T  T  T  T  T  T  T  T  T  T  T  T  T
|----------------------------------------------------------------------|
|-15p12-13p12-13-12-------13-12-12-12----------------------------------|
|-------------------15p12-------------15-14p12-14-14-12----12-12s11----|
|-------------------------------------------------------14----------12-|
|----------------------------------------------------------------------|
|----------------------------------------------------------------------|


            ~~~
               |3| |-3-| |-3-|
   T  T  a  E. E S S S S S S S S    +S
|----------------------------------------|
|------------------------------8b10-(8)--|
|-11-11--------------------7h9-----------|
|-------14s12--9-----5h7s9---------------|
|----------------5s7---------------------|
|----------------------------------------|


        \1.5______________/
  +E    S      +S   +S   +T   +T  T T  S  +E  a  S S
|-----[10]----(10)-(10)-(10)-(10)---------------------|
|-(8)-------------------------------------------------|
|---------------------------------9p7-[9]-(9)-9s14S4/-|
|-----------------------------------------------------|
|-----------------------------------------------------|
|-----------------------------------------------------|


 5/8                            2/4
         ~~    ~~    ~~~~~~~                           ~~~~
   a  S  E  S  E  S  S  +S   S    S      +E.  +E      +E
|-------12----14----15-(15)----|-15b18==(15)-(15)b19-(15)-|
|-10s12----12----12---------12-|--------------------------|
|------------------------------|--------------------------|
|------------------------------|--------------------------|
|------------------------------|--------------------------|
|------------------------------|--------------------------|


 6/8
   /       /       /
                                             ~~~~
   E  +S   E  +S   E  +S   E.    E.  E.  E.  E.
|-18-(18)-19-(19)-18-(18)-19--|-21\-16\-21\-18--|
|-18-(18)-19-(19)-18-(18)-19--|-21\-16\-21\-----|
|-----------------------------|-----------------|
|-----------------------------|-----------------|
|-----------------------------|-----------------|
|-----------------------------|-----------------|


 ~~~~~~~          ~~~~~~~~~~
   +S    S  S  S  E     +E.  +S   E
|-(18)\----------19b22-(19)-(19)\----|
|------------------------------------|
|---------------------------------7/-|
|---------------------------------7/-|
|-------14S19\-----------------------|
|-------14S19\-0---------------------|


 5/8
   T  T  T  T  T  T  T  T  T  T  T  T  T  T  T  T  T  T  T  T
|-------------15-17-18-19-------------15-17-19-19-------------|
|-15-17-18-19-------------15-17-18-19-------------15-17-18-19-|
|-------------------------------------------------------------|
|-------------------------------------------------------------|
|-------------------------------------------------------------|
|-------------------------------------------------------------|


 2/4
                        ~~~~~
   S  S  S  S  S  S  S  S
|-15-17-18-19-20-21-22-22b24--||
|-----------------------------||
|-----------------------------||
|-----------------------------||
|-----------------------------||
|-----------------------------||


 Chorus
 4/4
  Gtr I
           ~                   ~     ~~
  a   E  a E S a S S S +S  a S E a S E.
|---------------------------------------|
|---------------------------------------|
|---------------------------------------|
|--------------------------------5s7-5--|
|-5h==7--5h7-5-------------5s7-5--------|
|--------------7s5-3-0-(0)--------------|
|
| Gtr II
|     ~~~~
|    +W
|---(22)--------------------------------|
|---------------------------------------|
|---------------------------------------|
|---------------------------------------|
|---------------------------------------|
|---------------------------------------|


        ~                   ~     ~~         ~                   ~     ~~
  a E a E S a S S S +S  a S E a S E.   a E a E S a S S S +S  a S E a S E.
|------------------------------------|---------------------------------------|
|------------------------------------|---------------------------------------|
|---------------------------------7--|---------------------------------------|
|-----------------------------7s9----|-----------------------------5s7-5-----|
|-5h7-5h7-5-------------5s7-5--------|-5h7-5h7-5-------------5h7-5-----------|
|-----------7s5-3-0-(0)--------------|-----------7s5-3-0-(0)-----------------|
|
|   W                                    W
|------------------------------------|---------------------------------------|
|------------------------------------|---------------------------------------|
|------------------------------------|---------------------------------------|
|------------------------------------|---------------------------------------|
|------------------------------------|---------------------------------------|
|------------------------------------|---------------------------------------|


                  D5    D#D#5 D#D#5 D#5
        ~               PM|   PM|
  a E a E S a S S S +S  S S S S S S S
|-------------------------------------||
|-------------------------------------||
|-------------------------------------||
|-------------------------------------||
|-5h7-5h7-5-------2-(2)-3-3---3-3---3-||
|-----------7s5-3-0-(0)-1-1---1-1---1-||


 Pre-Chorus
 6/8
  S S S S E S S S S E   S S S S E S S S S E
|---------------------|----------------------|
|---------------------|----------------------|
|---------------------|----------------------|
|---------------------|----------------------|
|---------------------|----------------------|
|-5-6-5-3-0-2-3-2-1-0-|-5-6-5-3-0-2-3-2-1-0--|


                                            D5  D5
                       5/8                 2/4
                                                       ~~
  S S S S E S S S S E   S S S S E S S S S   S S S S  S E.
|---------------------|-------------------|---------------||
|---------------------|-------------------|---------------||
|---------------------|-------------------|---------------||
|---------------------|-------------------|---------------||
|---------------------|-------------------|-2---2---/7-5--||
|-5-6-5-3-0-2-3-2-1-0-|-5-6-5-3-0-2-3-2-1-|-0---0---------||


 Chorus
 4/4
  Gtr I
        ~                   ~     ~~
  a E a E S a S S S +S  a S E a S E.
|------------------------------------|
|------------------------------------|
|------------------------------------|
|-----------------------------5s7-5--|
|-5h7-5h7-5-------------5s7-5--------|
|-----------7s5-3-0-(0)--------------|


        ~                     ~~~~~          ~                   ~     ~~
  a E a E S a S S S +S  a S E Q        a E a E S a S S S +S  a S E a S E.
|------------------------------------|------------------------------------|
|------------------------------------|------------------------------------|
|------------------------------------|------------------------------------|
|------------------------------------|-----------------------------5s7-5--|
|-5h7-5h7-5-------------5s7-5-5(10)--|-5h7-5h7-5-------------5h7-5--------|
|-----------7s5-3-0-(0)--------------|-----------7s5-3-0-(0)--------------|


                          D#D#5 D#D#5 D#D#5 D#D#5 D#D#5 D#D#5
 2/4                 9/8
        ~
  a E a E S a S S S   +S  S S S S S S S S S S S S S S S S S
|-------------------|---------------------------------------||
|-------------------|---------------------------------------||
|-------------------|---------------------------------------||
|-------------------|---------------------------------------||
|-5h7-5h7-5---------|-----3-3---3-3---3-3---3-3---3-3---3-3-||
|-----------7s5-3-0-|-(0)-1-1---1-1---1-1---1-1---1-1---1-1-||


 Outro
    D#D#5 D#D#5 D#D#5                     D#D#5 D#D#5 D#D#5
 4/4
  S S S S S S S S S S  S S S S S S     E  S S S S S S S S  S S S S S S  4x
|----------------------------------||-----------------------------------||
|----------------------------------||o---------------------------------o||
|----------------------------------||-----------------------------------||
|--------------------------------5-||--------------------------------5--||
|---3-3---3-3---3-3----------------||o-7\-3-3---3-3---3-3--------------o||
|---1-1---1-1---1-1---/7-6-5-6-7---||-----1-1---1-1---1-1-/7-6-5-6-7----||

7.Becoming

Intro

e----------------------------------------------------------------------|
B----------------------------------------------------------------------|
G----------------------------------------------------------------------|
D---3-3-3-3-3-3-3-3-3-3-3-3-3-3-3-3-3----------------------------------|
A---3-3-3-3-3-3-3-3-3-3-3-3-3-3-3-3-3----------------------------------|
D---3-3-3-3-3-3-3-3-3-3-3-3-3-3-3-3-3----------------------------------|

Main Riff Note:When Playing The notes W/ the Ring Mod. dont completely
mute the d a d strings,this will give you the right sound.

e-------7~-----------------7~------------------------------------------|
B----------------------------------------------------------------------|
G--p.m-----/Palm mute all\----/-p.m.-\---------------------------------|
D--0-0-----2p0-0-0-2p0-0-0----2p0-0-0--3-------------------------------|
A--0-0-----2p0-0-0-2p0-0-0----2p0-0-0--3-------------------------------|
D--0-0-----2p0-0-0-2p0-0-0----2p0-0-0--3-------------------------------|

Verse

e----------------------------------------------------------------------|
B----------------------------------------------------------------------|
G----------------------------------------------------------------------|
D--0-1-0-0-1-0-0-1-0-0-1-3---------------------------------------------|
A--0-1-0-0-1-0-0-1-0-0-1-3---------------------------------------------|
D--0-1-0-0-1-0-0-1-0-0-1-3---------------------------------------------|

Next Riff

e----------------------------------------------------------------------|
B----------------------------------------------------------------------|
G------P.M---------8b--p.m---------------------------------------------|
D--7-5-3-3-0---7-7-----3-3--0------------------------------------------|
A--7-5-3-3-0---7-7-----3-3--0------------------------------------------|
D--7-5-3-3-0---7-7-----3-3--0------------------------------------------|

solo Note: Hit the 12 and move the ring pedal foreward you may have to
pluck the notes more times than noted.

e-----------------------------------------------------------------------|
B-----------------------------------------------------------------------|
G--12~-12~-12~-12~--9~-9~-9~-9~--13~-14~-15~-16~-17~--------------------|
D-----------------------------------------------------------------------|
A-----------------------------------------------------------------------|
D-----------------------------------------------------------------------|

Outro

e----------------------------------------------------------------------|
B----------------------------------------------------------------------|
G----------------------------------------------------------------------|
D--0-1--0-1--0-1--0-1-3------------------------------------------------|
A--0-1--0-1--0-1--0-1-3------------------------------------------------|
D--0-1--0-1--0-1--0-1-3------------------------------------------------|

8.5 Minutes Alone

 W          S S E E S S E E S E S
|----------|-----------------------|
|----------|-----------------------|
|----------|-----------------------|
|----------|-----------------------|
|----------|-5s7-2-x-5s7-2---x-x-2-|
|----------|-3s5-0-x-3s5-0---x-x-0-|
|
|          Gtr IV
| W          S S E E S S E E S E S
|----------|-----------------------|
|----------|-----------------------|
|----------|-----------------------|
|----------|-3s5-0-x-3s5-0---x-x-0-|


  G5A5E5  BbG5E5            G5A5E5  G5A5E5
  S S E E S S E S S S E S   S S E E S S E E S E S
|-------------------------|--------------------------|
|-------------------------|--------------------------|
|-------------------------|--------------------------|
|-------------------------|--------------------------|
|-5s7-2-x-8s5-2---x-x-x-2-|-5s7-2-x-5s7-2---x-x-2----|
|-3s5-0-x-6s3-0---x-x-x-0-|-3s5-0-x-3s5-0---x-x-0----|
|
| S S E E S S E S S S E S   S S E E S S E E S E S
|-------------------------|--------------------------|
|-------------------------|--------------------------|
|-------------------------|--------------------------|
|-3s5-0-x-6s3-0---x-x-x-0-|-3s5-0-x-3s5-0---x-x-0----|


  G5A5E5  BbG5E5          G5A5E5  G5A5E5
  S S E E S S E E S E S   S S E E S S E S S S E S
|-----------------------|-------------------------|
|-----------------------|-------------------------|
|-----------------------|-------------------------|
|-----------------------|-------------------------|
|-5s7-2-x-8s5-2-x-x-x-2-|-5s7-2-x-5s7-2---x-x-x-2-|
|-3s5-0-x-6s3-0-x-x-x-0-|-3s5-0-x-3s5-0---x-x-x-0-|
|
| S S E E S S E E S E S   S S E E S S E S S S E S
|-----------------------|-------------------------|
|-----------------------|-------------------------|
|-----------------------|-------------------------|
|-3s5-0-x-6s3-0-x-x-x-0-|-3s5-0-x-3s5-0---x-x-x-0-|


  G5A5E5  BbG5E5            G5A5E5  G5A5E5
  S S E E S S E S S S E S   S S E E S S E S S S E S
|-------------------------|-------------------------|
|-------------------------|-------------------------|
|-------------------------|-------------------------|
|-------------------------|-------------------------|
|-5s7-2-x-8s5-2---x-x-x-2-|-5s7-2-x-5s7-2---x-x-x-2-|
|-3s5-0-x-6s3-0---x-x-x-0-|-3s5-0-x-3s5-0---x-x-x-0-|
|
| S S E E S S E S S S E S   S S E E S S E S S S E S
|-------------------------|-------------------------|
|-------------------------|-------------------------|
|-------------------------|-------------------------|
|-3s5-0-x-6s3-0---x-x-x-0-|-3s5-0-x-3s5-0---x-x-x-0-|


  G5A5E5  BbG5E5          N.C.
  S S E E S S E E S E S    E S S S S S S S S S S S S S S
|-----------------------|---------------------------------||
|-----------------------|---------------------------------||
|-----------------------|---------------------------------||
|-----------------------|----9----------------------------||
|-5s7-2-x-8s5-2-x-x-x-x-|-/9---9-8-7s5---5-----4-----2----||
|-3s5-0-x-6s3-0-x-x-x-x-|--------------7---5s3---3s1---1--||
|
| S S E E S S S E S E S    E S S S S S S S S S S S S S S
|-----------------------|---------------------------------||
|-----------------------|----9----------------------------||
|-----------------------|-/9---9-8-7s5---5-----4-----2----||
|-3s5-0-x-6s3-0-x-x-x-x-|--------------7---5s3---3s1---1--||


   Verse 1 & 2
    $
      E5
      PM--------|             PM--------|
    E E E E E S S S S S S   E E E E E S S S S S S
||------------------------|-----------------------|
||o-----------------------|-----------------------|
||------------------------|-----------------------|
||----2-2-2-2-2-2---2-2-2-|---2-2-2-2-2-2---2-2-2-|
||o---2-2-2-2-2-2---2-2-2-|---2-2-2-2-2-2---2-2-2-|
||----0-0-0-0-0-0---0-0-0-|---0-0-0-0-0-0---0-0-0-|
|
|   E E E E E S S S S S S   E E E E E S S S S S S
||------------------------|-----------------------|
||o-----------------------|-----------------------|
||o-----------------------|-----------------------|
||----0-0-0-0-0-0---0-0-0-|---0-0-0-0-0-0---0-0-0-|


    Eb5/E
    PM--------|             PM--------|
  E E E E E S S S S S S   E E E E E S S S S S S
|-----------------------|---------------------------||
|-----------------------|--------------------------o||
|-----------------------|---------------------------||
|---1-1-1-1-1-1---1-1-1-|---1-1-1-1-1-1---1-1-1-----||
|---1-1-1-1-1-1---1-1-1-|---1-1-1-1-1-1---1-1-1----o||
|---0-0-0-0-0-0---0-0-0-|---0-0-0-0-0-0---0-0-0-----||
|
| E E E E E S S S S S S   E E E E E S S S S S S
|-----------------------|---------------------------||
|-----------------------|--------------------------o||
|-----------------------|--------------------------o||
|---0-0-0-0-0-0---0-0-0-|---0-0-0-0-0-0---0-0-0-----||


  N.C.
  E  E E E +S  a   +E. Q      E  E E E +S  a   +E. Q
|---------------------------|---------------------------|
|---------------------------|---------------------------|
|---------------------------|---------------------------|
|------5---------------7b9--|------5---------------7b9--|
|---/8---6-(6)--------------|---/8---6-(6)--------------|
|-0------------4b6r(4)------|-0------------4b6r(4)------|
|
| E  E E E +S  a   +E. Q      E  E E E +S  a   +E. Q
|---------------------------|---------------------------|
|------5---------------7b9--|------5---------------7b9--|
|---/8---6-(6)--------------|---/8---6-(6)--------------|
|-0------------4b6r(4)------|-0------------4b6r(4)------|


  E  E E E +S  a   +E. Q      E  E E E +S   E.  +Q
|---------------------------|-------------------------||
|---------------------------|-------------------------||
|---------------------------|-------------------------||
|------5---------------7b9--|------5------------------||
|---/8---6-(6)--------------|---/8---6-(6)------------||
|-0------------4b6r(4)------|-0-------------4b6r(4)\--||
|
| E  E E E +S  a   +E. Q      E  E E E +S   E.  +E
|---------------------------|-------------------------||
|------5---------------7b9--|------5------------------||
|---/8---6-(6)--------------|---/8---6-(6)------------||
|-0------------4b6r(4)------|-0-------------4b6r(4)\--||


 Pre-Chorus
    E5
    PM--------|             PM--------|
  E E E E E S S S S S S   E E E E E S S S S S S
|-----------------------|-----------------------|
|-----------------------|-----------------------|
|-----------------------|-----------------------|
|---2-2-2-2-2-2---2-2-2-|---2-2-2-2-2-2---2-2-2-|
|---2-2-2-2-2-2---2-2-2-|---2-2-2-2-2-2---2-2-2-|
|---0-0-0-0-0-0---0-0-0-|---0-0-0-0-0-0---0-0-0-|
|
| E E E E E S S S S S S   E E E E E S S S S S S
|-----------------------|-----------------------|
|-----------------------|-----------------------|
|-----------------------|-----------------------|
|---0-0-0-0-0-0---0-0-0-|---0-0-0-0-0-0---0-0-0-|


  N.C.          G5A5E5    G5A5E5        N.C.
   ~~~~~~~~~~
   H    Q  Q    S S E S S S S E S S S E S
|-------------|-----------------------------|
|-------------|-----------------------------|
|-------------|-----------------------------|
|-------------|-----------------------------|
|-------------|-5s7-2-x-x-5s7-2---x-x-x-----|
|-/7----2--1--|-3s5-0-x-x-3s5-0---x-x-x-3s==|
|
|  ~~~~~~~~~~
|  H    Q  Q    S S E S S S S E S S S E S
|-------------|-----------------------------|
|-------------|-----------------------------|
|-------------|-----------------------------|
|--7----2--1--|-3s5-0-x-x-3s5-0---0-0-0-3s==|


               G5A5E5    G5A5E5        N.C.
  ~~~~~~~~~~
  H    Q  Q    S S E S S S S E S S S E S
|------------|---------------------------|
|------------|---------------------------|
|------------|---------------------------|
|------------|---------------------------|
|------------|-5s7-2-x-x-5s7-2---x-x-x---|
|-7----6--1--|-3s5-0-x-x-3s5-0---x-x-x-3s|
|
| ~~~~~~~~~~
| H    Q  Q    S S S S S S S S   S S S S
|------------|---------------------------|
|------------|---------------------------|
|------------|---------------------------|
|-7----6--1--|-3s5-0-x-x-3s5-0---x-x-x-3s|


               G5A5E5    G5A5E5        N.C.
  ~~~~~~~~~~
  H    Q  Q    S S E S S S S E S S S E S
|------------|------------------------------|
|------------|------------------------------|
|------------|------------------------------|
|------------|------------------------------|
|------------|-5s7-2-x-x-5s7-2---x-x-x------|
|-7----6--5--|-3s5-0-x-x-3s5-0---x-x-x-3s===|
|
| ~~~~~~~~~~
| H    Q  Q    S S E S S S S E S S S E S
|------------|------------------------------|
|------------|------------------------------|
|------------|------------------------------|
|-7----6--5--|-3s5-0-x-x-3s5-0---x-x-x-3s===|


               Chorus
                G5A5E5  G5A5E5
  H    Q  Q     S S E E S S E S S S E S
|------------||-------------------------|
|------------||-------------------------|
|------------||-------------------------|
|------------||-------------------------|
|------------||-5s7-2-x-5s7-2---x-x-x-2-|
|-7----2--1--||-3s5-0-x-3s5-0---x-x-x-0-|
|
| H    Q  Q     S S E E S S E S S S E S
|------------||-------------------------|
|------------||-------------------------|
|------------||-------------------------|
|-7----2--1--||-3s5-0-x-3s5-0---x-x-x-0-|


  G5A5E5  BbG5E5            G5A5E5  G5A5E5
  S S E E S S E S S S E S   S S E E S S E S S S E S
|-------------------------|-------------------------|
|-------------------------|-------------------------|
|-------------------------|-------------------------|
|-------------------------|-------------------------|
|-5s7-2-x-8s5-2---x-x-x-2-|-5s7-2-x-5s7-2---x-x-x-2-|
|-3s5-0-x-6s3-0---x-x-x-0-|-3s5-0-x-3s5-0---x-x-x-0-|
|
| S S E E S S E S S S E S   S S E E S S E S S S E S
|-------------------------|-------------------------|
|-------------------------|-------------------------|
|-------------------------|-------------------------|
|-3s5-0-x-6s3-0---x-x-x-0-|-3s5-0-x-3s5-0---x-x-x-0-|


  G5A5E5  BbG5E5          G5A5E5  G5A5E5
  S S E E S S E E S E S   S S E E S S E S S S E S
|-----------------------|-------------------------|
|-----------------------|-------------------------|
|-----------------------|-------------------------|
|-----------------------|-------------------------|
|-5s7-2-x-8s5-2-x-x-x-x-|-5s7-2-x-5s7-2---x-x-x-2-|
|-3s5-0-x-6s3-0-x-x-x-x-|-3s5-0-x-3s5-0---x-x-x-0-|
|
| S S E E S S E E S E S   S S E E S S E S S S E S
|-----------------------|-------------------------|
|-----------------------|-------------------------|
|-----------------------|-------------------------|
|-3s5-0-x-6s3-0-x-x-x-x-|-3s5-0-x-3s5-0---x-x-x-0-|


  G5A5E5  BbG5E5            G5A5E5  G5A5E5
  S S E E S S E S S S E S   S S E E S S E S S S E S
|-------------------------|-------------------------|
|-------------------------|-------------------------|
|-------------------------|-------------------------|
|-------------------------|-------------------------|
|-5s7-2-x-8s5-2---x-x-x-2-|-5s7-2-x-5s7-2---x-x-x-2-|
|-3s5-0-x-6s3-0---x-x-x-0-|-3s5-0-x-3s5-0---x-x-x-0-|
|
| S S E E S S E S S S E S   S S E E S S E S S S E S
|-------------------------|-------------------------|
|-------------------------|-------------------------|
|-------------------------|-------------------------|
|-3s5-0-x-6s3-0---x-x-x-0-|-3s5-0-x-3s5-0---x-x-x-0-|


                                                     D.S.
  G5A5E5  BbG5E5          N.C.
  S S E E S S E E S E S    E S S S S S S S S S S S S S S
|-----------------------|---------------------------------|
|-----------------------|---------------------------------|
|-----------------------|---------------------------------|
|-----------------------|----9----------------------------|
|-5s7-2-x-8s5-2-x-x-x-x-|-/9---9-8-7s5---5-----4-----2----|
|-3s5-0-x-6s3-0-x-x-x-x-|--------------7---5s3---3s1---1--|
|
| S S E E S S E E S E S    E S S S S S S S S S S S S S S
|-----------------------|---------------------------------|
|-----------------------|----9----------------------------|
|-----------------------|-/9---9-8-7s5---5-----4-----2----|
|-3s5-0-x-6s3-0-x-x-x-x-|--------------7---5s3---3s1---1--|


    N.C.                                   N.C.
     E S S S S S S S S S S S S S S  3x      E S S S S S S S S S S S S S S  3x
||----------------------------------||-||----------------------------------||
||o--------------------------------o||-||o--------------------------------o||
||----------------------------------||-||----------------------------------||
||-----9----------------------------||-||----------------------------------||
||o-/9---9-8-7s5---5-----4-----2---o||-||o----5---------5-----4-----3-----o||
||---------------7---5s3---3s1---1--||-||--/7---7-6-5s4---4s3---3s2---2s1--||
|
|    E S S S S S S S S S S S S S S  3x      E S S S S S S S S S S S S S S  3x
||----------------------------------||-||----------------------------------||
||o----9---------------------------o||-||o--------------------------------o||
||o-/9---9-8-7s5---5-----4-----2---o||-||o----5---------5-----4-----3-----o||
||---------------7---5s3---3s1---1--||-||--/7---7-6-5s4---4s3---3s2---2s1--||


  N.C.           A5G#5 G5  F#5 F5  G5A5E5  G5A5E5
   E S S S S S S S S S S S S S S   S S E E S S E S S S E S
|--------------------------------|-------------------------|
|--------------------------------|-------------------------|
|--------------------------------|-------------------------|
|--------------------------------|-------------------------|
|----5---------5-7s6-6s5-5s4-4s3-|-5s7-2-x-5s7-2---x-x-x-2-|
|-/7---7-6-5-4---5s4-4s3-3s2-2s1-|-3s5-0-x-3s5-0---x-x-x-0-|
|
|  E S S S S S S S S S S S S S S   S S E E S S E S S S E S
|--------------------------------|-------------------------|
|--------------------------------|-------------------------|
|----5---------5-----------------|-------------------------|
|-/7---7-6-5-4---5s4-4s3-3s2-2s1-|-3s5-0-x-3s5-0---x-x-x-0-|


  G5A5E5  BbG5
              Gtr II
              PM----------------|
              |----6----| |-3-|
  S S E E S S S S S S S S S S S E
|-----------------------------------|
|-----------------------------------|
|-------------x-x-x-x-x-x-x-x-x-x---|
|-------------x-x-x-x-x-x-x-x-x-x---|
|-5s7-2-x-8s5-----------------------|
|-3s5-0-x-5s3-----------------------|
|
| S S E E S S   H
|-----------------------------------|
|-----------------------------------|
|-----------------------------------|
|-3s5-0-x-5s3-----------------------|


  G5A5E5  G5A5E5            G5A5E5  BbG5E5
  Gtr I
  S S E E S S E S S S E S   S S E E S S E E S E S
|-------------------------|-----------------------|
|-------------------------|-----------------------|
|-------------------------|-----------------------|
|-------------------------|-----------------------|
|-5s7-2-x-5s7-2---x-x-x-2-|-5s7-2-x-8s5-2-x-x-x-x-|
|-3s5-0-x-3s5-0---x-x-x-0-|-3s5-0-x-6s3-0-x-x-x-x-|
|
| S S E E S S E S S S E S   S S E E S S E E S E S
|-------------------------|-----------------------|
|-------------------------|-----------------------|
|-------------------------|-----------------------|
|-3s5-0-x-3s5-0---x-x-x-0-|-3s5-0-x-6s3-0-x-x-x-x-|


                    Interlude
                     C       BbC     Bb  C       BbC       BbG
  \1.5______/
  H        +H        S   +S  S S  S  S S S   +S  S S S S S S  S
|-----------------||---------------------------------------------|
|-----------------||-5b6r(5)p3-5-----3---5b6r(5)p3-5---5-5-3-(0)-|
|-----------------||-5b6r(5)p3-5-----3---5b6r(5)p3-5---5-5-3-(0)-|
|-----------------||---------------------------------------------|
|-----------------||---------------------------------------------|
|-0--------(0)----||---------------------------------------------|
|
| W                  S   +S  S S +S  E S S   +S  E     S S S  S
|-----------------||---------------------------------------------|
|-----------------||---------------------------------------3h=5--|
|-----------------||-3b4r(3)-1-3-(3)-1---3b4r(3)-1-----3s5-------|
|-0---------------||-------------------3-------------------------|


  C       BbC     Bb5     N.C.                  Eb      C#Eb    C#N.C.
  Gtr I
                                        ~~~                                           ~~~~
  S   +S  S S  S  S E     S    S  E   S E.      S   +S  S S  S  S E      S   S E    S E.
|-------------------------------------6-------|-------------------------------------9----------|
|-5b6r(5)p3-5-----3-------6-------6b8---6b8---|-8b9r(8)p6-8-----6--------9-----9b11---9b11-----|
|-5b6r(5)p3-5-----3-5b7--------5--------------|-8b9r(8)p6-8-----6-8b10-------8-----------------|
|---------------------------------------------|------------------------------------------------|
|---------------------------------------------|------------------------------------------------|
|---------------------------------------------|------------------------------------------------|
|
| S   +S  S S +S  E     S S   +S  E   S S   E   S    S  S S +S  E      S S   S E    S S    S S
|---------------------------------------------|------------------------------------------------|
|-------------------------------------------3-|--------------------------------------------6h8-|
|-3b4r(3)-1-3-(3)-1-------3b4r(3)-1---3s5-----|-6b7r=6--4-6-(6)-4--------6b7r6-4----6s8--------|
|-----------------------3---------------------|------------------------6-----------------------|
|
| Gtr III
| W                                             W
|---------------------------------------------|------------------------------------------------|
|---------------------------------------------|------------------------------------------------|
|---------------------------------------------|------------------------------------------------|
|---------------------------------------------|------------------------------------------------|
|---------------------------------------------|------------------------------------------------|
|---------------------------------------------|------------------------------------------------|


  Eb        C#Eb     C#
  E     +S  S  S  S    S  S    S   S S S S S   E
|--------------------------------------------------||
|-8b9r==(8)p6--8-------6/--------------------------||
|-8b9r==(8)p6--8-------6/--------------------------||
|--------------------------------------------------||
|-------------------------x----x---x-x-x-x-x-------||
|-------------------------x----x---x-x-x-x-x-/17\--||
|
| S   S  S  S +S  E       S              H
|--------------------------------------------------||
|--------------------------------------------------||
|-6b7r6--4--6-(6)-4/-------------------------------||
|--------------------------------------------------||
|
| Q            E       E      +H
|--------------------[19]---([19])-----------------||
|--------------------------------------------------||
|--------------------------------------------------||
|--------------------------------------------------||
|--------------------------------------------------||
|--------------------------------------------------||


 Guitar Solo
  Gtr III
    TP                       TP                    TP        TP                 TP
   +H                       +H                    +E        +H                 +Q.
|-(19)b22==================(19)----------------|-(19)r=====(19)b22============(19)-----------|
|----------------------------------------------|---------------------------------------------|
|----------------------------------------------|---------------------------------------------|
|----------------------------------------------|---------------------------------------------|
|----------------------------------------------|---------------------------------------------|
|----------------------------------------------|---------------------------------------------|
|
|   S      +S  S S +S  E S   S   +S  E S S S S     S   +S    S      E E S S S   S  S S S S S
|----------------------------------------------|---------------------------------------------|
|----------------------------------------------|---------------------------------------------|
|------------------------------------------5h7-|--------------------------5s7---5------------|
|---5b6r===(5)-3-5-(5)-3-0---5b6r(5)-3-5s7-----|---5b6r(5)---3------5-3-0----------7-6-5-3-0-|


    TP                  TP     TP
   +Q.                 +E     +H
|-(19)r===============(19)---(19)b22-----------------|
|----------------------------------------------------|
|----------------------------------------------------|
|----------------------------------------------------|
|----------------------------------------------------|
|----------------------------------------------------|
|
|   S   +S  S S +S  E      S   S     +S  E S S S S
|----------------------------------------------------|
|----------------------------------------------------|
|----------------------------------------------5h7---|
|---5b6r(5)-3-5-(5)-3------0---5b6r==(5)-3-5s7-------|


  Gtr III
    ~~~~~~
    H                    S     S  S  S  S  S  E
|-(19)------------------19b22-19-18-17----17---------|
|--19----------------------------------20----20b22r==|
|----------------------------------------------------|
|----------------------------------------------------|
|----------------------------------------------------|
|----------------------------------------------------|
|
|   S   +S  S S +S  E S  H
|----------------------------------------------------|
|----------------------------------------------------|
|----------------------------------------------------|
|---5b6r(5)-3-5-(5)-3-0------------------------------|
|
| Gtr II
|                     TP TP    TP TP TP TP TP TP   TP
|   Q..               S  S     S  S  S  S  S  S    S
|----------------------------------------------------|
|----------------------------------------------------|
|----------------------------------------------------|
|----------------------------------------------------|
|---------------------xs=xs====xs=xs=xs=xs=xs=xs===x-|
|---------------------xs=xs====xs=xs=xs=xs=xs=xs===x-|


  C         Bb      CBbC        Bb            C           BbG     Eb        EbC# Eb      C#  Eb           C#  Bb
                     ~~~~~~~
   +E        +S      S  +Q           +E        +E       Q           +W
|-----------------------------------------------------[19]------|-([19])-------------------------------------------|
|-(20)------(20)b21-17-(17)---------(17)------(17)\-------------|--------------------------------------------------|
|---------------------------------------------------------------|--------------------------------------------------|
|---------------------------------------------------------------|--------------------------------------------------|
|---------------------------------------------------------------|--------------------------------------------------|
|---------------------------------------------------------------|--------------------------------------------------|
|
|   S   +S    S      S  +S  E   S     S   +S    E       S S S S      S    S  S S +S  E   S    S   S E   S  S  S S
|---------------------------------------------------------------|--------------------------------------------------|
|-----------------------------------------------------------3h5-|---------------------------------------------6h8--|
|---3b4r(3)---1------3--(3)-1---------3b4r(3)---1-------3s5-----|----6b7r=6--4-6-(6)-4--------6b7r6-4---6s=8-------|
|-------------------------------3-------------------------------|------------------------6-------------------------|
|
|                   Gtr I
|   S   +S    S      S   S  S S S    +S    S    S   S   S S S S      S   +S  S S  S  S S S   +S   S S S S +S  S S
|---------------------------------------------------------------|--------------------------------------------------|
|---5b6r(5)p==3------5------3---5b6r=(5)p==3----5-------5-5-3-0-|----8b9r(8)p6-8-----6---8b9r(8)p=6-8---8-(8)-6-3--|
|---5b6r(5)p==3------5------3---5b6r=(5)p==3----5-------5-5-3-0-|----8b9r(8)p6-8-----6---8b9r(8)p=6-8---8-(8)-6-3--|
|---------------------------------------------------------------|--------------------------------------------------|
|---------------------------------------------------------------|--------------------------------------------------|
|---------------------------------------------------------------|--------------------------------------------------|


  F    EF      Eb     F               Eb  F          EbC
   W
|---------------------------------------------------------|
|---------------------------------------------------------|
|---------------------------------------------------------|
|---------------------------------------------------------|
|---------------------------------------------------------|
|---------------------------------------------------------|
|
|  S     +S  S  S +S  E    S      S   +S   E    S  S S  S
|---------------------------------------------------------|
|----------------------------------------------------8h10-|
|--8b9r==(8)-6--8-(8)-6-----------8b9r(8)--6----8s10------|
|--------------------------8------------------------------|
|
|  S     +S  S  S  S  S S  S     +S    S   S S  S  S S  S
|---------------------------------------------------------|
|-10b11r(10)p8-10-----8---10b11r(10)p==8--10---10-10-8--5-|
|-10b11r(10)p8-10-----8---10b11r(10)p==8--10---10-10-8--5-|
|---------------------------------------------------------|
|---------------------------------------------------------|
|---------------------------------------------------------|


  N.C.
   Q.                        E       +H
|--------------------------[19]b22-([19])-------||
|--------------------------[17]b18-([17])-------||
|-----------------------------------------------||
|-----------------------------------------------||
|-----------------------------------------------||
|-----------------------------------------------||
|
|                                     ~~~~~~
|  S     +S   S  S  +S   S   E       +H
|-----------------------------------------------||
|-----------------------------------------------||
|-10b11r(10)--8-10-(10)--8----------------------||
|---------------------------10------(10)--------||
|
|  S     +S   S  S  +S   S   E       +Q     Q
|-----------------------------------------------||
|-12b13r(12)-10-12-(12)-10--13b15===(13)r-------||
|-----------------------------------------------||
|-----------------------------------------------||
|-----------------------------------------------||
|------------------------------------------13\--||


   Bridge
    F5    BbF5E5    F#5   E5    BbE5F#E5    F5G5
    Gtr I
                    PM            PM  PM
    E E E E S S E E E   S S E E E E S S +S  S E  4x
||--------------------|--------------------------||
||o-------------------|-------------------------o||
||--------------------|--------------------------||
||--------3-----------|---------3----------------||
||o-3-----1-3-2-----4-|-4-2-----1-2-4-2-(2)-3s5-o||
||--1-------1-0-----2-|-2-0-------0-2-0-(0)-1s3--||
|
|   E E E E S S E E E   S S E E E E S S +S  S E  4x
||--------------------|--------------------------||
||o-------------------|-------------------------o||
||o-------1-----------|---------1---------------o||
||--1-------1-0-----2-|-2-0-------0-2-0-(0)-1s3--||


  E5F#E5    F5G5E5F#E5    F5G5
                                  2/4
                                   Gtr II
  E S S +S  S E E S S +S  S S  S   S S S S S S S S
|--------------------------------|------------------||
|--------------------------------|------------------||
|--------------------------------|------------------||
|--------------------------------|-x-x-x-x-x-x-x-x--||
|-2-4-2-(2)-3s5-2-4-2-(2)-3s5s13-|-x-x-x-x-x-x-x-x--||
|-0-2-0-(0)-1s3-0-2-0-(0)-1s3----|-x-x-x-x-x-x-x-x--||
|
| E S S +S  S E E S S +S  S E        H
|--------------------------------|------------------||
|--------------------------------|------------------||
|--------------------------------|------------------||
|-0-2-0-(0)-1s3-0-2-0-(0)-1s3----|------------------||


 Chorus
  G5A5E5  G5A5E5            G5A5E5  BbG5E5
 4/4
  Gtr I
  S S E E S S E S S S E S   S S E E S S E S S S E S
|-------------------------|-------------------------|
|-------------------------|-------------------------|
|-------------------------|-------------------------|
|-------------------------|-------------------------|
|-5s7-2-x-5s7-2---x-x-x-2-|-5s7-2-x-8s5-2---x-x-x-2-|
|-3s5-0-x-3s5-0---x-x-x-0-|-3s5-0-x-6s3-0---x-x-x-0-|
|
| S S E E S S E S S S E S   S S E E S S E S S S E S
|-------------------------|-------------------------|
|-------------------------|-------------------------|
|-------------------------|-------------------------|
|-3s5-0-x-3s5-0---x-x-x-0-|-3s5-0-x-6s3-0---x-x-x-0-|


  G5A5E5  G5A5E5            G5A5E5  Bb5G5E5
  S S E E S S E S S S E S   S S E E S  S E E  S E S
|-------------------------|---------------------------|
|-------------------------|---------------------------|
|-------------------------|---------------------------|
|-------------------------|---------------------------|
|-5s7-2-x-5s7-2---x-x-x-2-|-5s7-2-x-8s=5-2-x--x-x-x---|
|-3s5-0-x-3s5-0---x-x-x-0-|-3s5-0-x-6s=3-0-x--x-x-x---|
|
| S S E E S S E S S S E S   S S E E S  S E E  S E S
|-------------------------|---------------------------|
|-------------------------|---------------------------|
|-------------------------|---------------------------|
|-3s5-0-x-3s5-0---x-x-x-0-|-3s5-0-x-6\-3-0-0--x-x-x---|


  G5A5E5  G5A5E5            G5A5E5  BbG5E5
  S S E E S S E S S S E S   S S E E S S E S S S E S
|-------------------------|-------------------------|
|-------------------------|-------------------------|
|-------------------------|-------------------------|
|-------------------------|-------------------------|
|-5s7-2-x-5s7-2---x-x-x-2-|-5s7-2-x-8s5-2---x-x-x-2-|
|-3s5-0-x-3s5-0---x-x-x-0-|-3s5-0-x-6s3-0---x-x-x-0-|
|
| S S E E S S E S S S E S   S S E E S S E S S S E S
|-------------------------|-------------------------|
|-------------------------|-------------------------|
|-------------------------|-------------------------|
|-3s5-0-x-3s5-0---x-x-x-0-|-3s5-0-x-6s3-0---x-x-x-0-|


  G5A5E5  G5A5E5            G5A5E5  Bb5G5E5
  S S E E S S E S S S E S   S S E E S  S E E S E S
|-------------------------|------------------------|
|-------------------------|------------------------|
|-------------------------|------------------------|
|-------------------------|------------------------|
|-5s7-2-x-5s7-2---x-x-x-2-|-5s7-2-x-8s=5-2-x-x-x-x-|
|-3s5-0-x-3s5-0---x-x-x-0-|-3s5-0-x-6s=3-0-x-x-x-x-|
|
| S S E E S S E S S S E S   S S E E S  S E E S E S
|-------------------------|------------------------|
|-------------------------|------------------------|
|-------------------------|------------------------|
|-3s5-0-x-3s5-0---x-x-x-0-|-3s5-0-x-6\-3-0-x-x-x-x-|


   Outro
    E5(type 2)            G5/D  A5/EE5(type 2)            Bb5/F
    Gtr I
    H             +E.     S +E  E   H             +E.      S +Q
||--------------------------------|--------------------------------|
||o-------------------------------|------------------------6-(6)---|
||--4-------------(4)-----7-(7)s9-|-4-------------(4)------3-(3)---|
||--2-------------(2)-----5-(5)s7-|-2-------------(2)------3-(3)---|
||o-2-------------(2)-----5-(5)s7-|-2-------------(2)--------------|
||--0-------------(0)-------------|-0-------------(0)--------------|
|
|   S S E +E  S S  E  +S  S +E  E   S S E +E  S S  E  +S   S +E  E
||--------------------------------|--------------------------------|
||o-------------------------------|--------------------------------|
||o-------------------------------|--------------------------------|
||--3s5-0-(0)-3s5--0--(0)-3-(3)-5-|-3s5-0-(0)-3s5--0--(0)--6-(6)-6-|
|
|   Gtr III
|   H             +E.     S +E  E   H             +E.      S +Q
||--------------------------------|--------------------------------|
||o-------------------------------|--------------------------------|
||--------------------------------|--------------------------------|
||--2-------------(2)-----5-(5)s7-|-2-------------(2)------8-(8)---|
||o-------------------------------|--------------------------------|
||--0-------------(0)-----3-(3)s5-|-0-------------(0)-----/6-(6)---|


  E5(type 2)            G5/D  A5/EF5(type 2)
  H             +E.     S +E  E   Q..         S S E  S S E.
|-------------------------------|--------------------------------||
|-------------------------------|-------------------------------o||
|-4-------------(4)-----7-(7)s9-|-5-----------x-x-5--x-x-5-------||
|-2-------------(2)-----5-(5)s7-|-3-----------x-x-3--x-x-3-------||
|-2-------------(2)-----5-(5)s7-|-3-----------x-x-3--x-x-3------o||
|-0-------------(0)-------------|-1-----------x-x-1--x-x-1-------||
|
| S S E +E  S S  E  +S  S +E  E   S   S S S S S S S  E E E  S S
|-------------------------------|--------------------------------||
|-------------------------------|-------------------------------o||
|-------------------------------|----------------------0-1--2h3-o||
|-3s5-0-(0)-3s5--0--(0)-3-(3)-5-|-1---1-1-1-1-1-1-1--1-----------||
|
| H             +E.     S +E  E   Q..         S S E  S S E.
|-------------------------------|--------------------------------||
|-------------------------------|-------------------------------o||
|-------------------------------|--------------------------------||
|-2-------------(2)-----5-(5)s7-|-3-----------x-x-3--x-x-3-------||
|-------------------------------|-------------------------------o||
|-0-------------(0)-----3-(3)s5-|-1-----------x-x-1--x-x-1-------||


    G5A5E5                        G5A5E5    BbG5E5
    Gtr I
    S S E S S S S E S S S S S S   S S E S S S S E S S S S S S    4x
||------------------------------|--------------------------------||
||o-----------------------------|-------------------------------o||
||------------------------------|--------------------------------||
||------------------------------|--------------------------------||
||o-5s7-2-----5s7-2-------------|-5s7-2-----8s5-2---------------o||
||--3s5-0-0-0-3s5-0-0-0-0-0-0-0-|-3s5-0-0-0-6s3-0-0-0-0-0-0-0----||
|
|   S S E S S S S E S S S S S S   S S E S S S S E S S S S S S    4x
||------------------------------|--------------------------------||
||o-----------------------------|-------------------------------o||
||o---------------------7-7-7-7-|---------------------7-7-7-7---o||
||--3s5-0-0-0-3s5-0-0-0---------|-3s5-0-0-0-6s3-0-0-0------------||


    G5A5E5    G5A5E5    BbG5E5      G5A5E5     BbG5E5 G5A5Bb5
    S S E S S S S E S S S S E   S S S S E  S S S S E  S S E    6x
||----------------------------|--------------------------------||
||o---------------------------|-------------------------------o||
||----------------------------|--------------------------------||
||----------------------------|--------------------------------||
||o-5s7-2-----5s7-2-----8s5-2-|-----5s7-2------8s5-2--5-7-8---o||
||--3s5-0-0-0-3s5-0-0-0-6s3-0-|-0-0-3s5-0--0-0-6s3-0--3-5-6----||
|
|   S S E S S S S E S S S S E   S S S S E  S S S S E  S S E    6x
||----------------------------|--------------------------------||
||o---------------------------|-------------------------------o||
||o---------------------------|-------------------------------o||
||--3s5-0-0-0-3s5-0-0-0-6s3-0-|-0-0-3s5-0--0-0-6s3-0--3-5-6----||

9.Planet Caravan

E   E   E   E   +E    Q       E     E   E   E   E   E   E   E   E
||--------------0---(0)---------------|----------------------------------||
||o-------------0---(0)---------------|-------------0-------------------o||
||--------------0---(0)---0-----------|---------0---------------0---2----||
||----------5-------------4-------2---|-----4---------------4------------||
||o-----2-----------------------------|-5---------------5---------------o||
||--0---------------------------------|----------------------------------||
 |-The Riff                                                 end The Riff-|



 Jazz Solo:
(Gtr II, III play the riff as back up all the way)
 Gtr I
  Q.          E   H                 +Q        a S E   e   a S S S E   E
|---------------------------------|---------------------------------------|
|---------------------------------|---------------------------------------|
|---------------------------------|---------------------------------------|
|-4-------------------------------|---------------5---7---7s8s7p5-7---5---|
|-------------5---7---------------|-(7)-------5s7-------------------------|
|---------------------------------|---------------------------------------|


                                          PM------|                       |-3-|
  E   S S E.    a E   S S S Q         E   S S S S S a S S a S S a S S a S S S S
|-----------------------------------|-------------------------------------------|
|-----------------------------------|-------------------------------------------|
|-----------------------------------|-------------------------------------------|
|-5-------------------5-------------|-----------5-5-7s8s7-7s8s7-7s8s7-7s8s7p5---|
|-----7p5-7-----5s7-----7p5-7-------|-----5-7-7-------------------------------7-|
|-----------------------------------|-------------------------------------------|



  Q       E   E   E   E   E   E     a a S S S S S S S S e   S S Q
|---------------------------------|-------------------------------------|
|---------------------------------|-----7-8p7---7-----------------------|
|---------------------------------|---x-------9---7s6-7s6---7-----------|
|-5---------------5---4-----------|-x-------------------------7-5-------|
|---------7--p5-----------7---5---|-------------------------------------|
|---------------------------------|-------------------------------------|


                                                   |-3-| |-3-|       |-3-|
  E   a a S S S S  S S S S S S  S S S S    S S E   S S S E   S S S S T T T S S S S
|---------------------------------------|------------------------------------------|
|---------7-8p7---10---7-8p7---10---7-8-|-p7---7---7h8p7-----7---------------------|
|-------x-------7----7-------7----7-----|----7-----------9-----7-6-7-6h7p6-4-6-----|
|-----x---------------------------------|--------------------------------------7s5-|
|---------------------------------------|------------------------------------------|
|---------------------------------------|------------------------------------------|



  T T T T T T T T a Q       +E     S S +Q          E.    S S S S a S S S S S T T T T S S
|------------------------------------------------|---------------------------------------|
|------------------------------------------------|---------------------------------------|
|------------------------------------------------|-------------7-------------------------|
|-7p5p4---5p4---4-----------------/4-------------|---------5-7---7s8---7-5---7h8p7p5-7-5-|
|-------7-----7---5s7-------(7)------5-(5)-------|-5-----x-----------------7-------------|
|------------------------------------------------|---------------------------------------|



  q.          E   +E    S S S S S  S   Q       S e    S S  T  T  T T S  S S S  T  T
|------------------------------------|----------------------------------------------|
|-------------------------------8b10-|-----------8---11---10h11p10p8---10---8-10h11-|
|-------------------------6-7-9------|-9~------9---------------------9----9---------|
|-------------5---(5)---9------------|----------------------------------------------|
|-7----------------------------------|----------------------------------------------|
|------------------------------------|----------------------------------------------|


    |-3-|                                                     |-3-|  |3-|    |-3-|  |3-|    |-3-|  |--3--|
    S S S  E   S  S E    s S  E      +Q          a E    +E    e   S  S  e    e   S  S  e    e   S  S  S  S
|----------------------------------------------|-----------------------------------------------------------|
|-p10-8---10---8-10-----11-8b10---pb(10)-------|-8p6~---(6)/-15--15p14p13---14--14p13p11---13--13p12p10----|
|-------9--------------------------------------|--------------------------------------------------------11-|
|----------------------------------------------|-----------------------------------------------------------|
|----------------------------------------------|-----------------------------------------------------------|
|----------------------------------------------|-----------------------------------------------------------|


                                           |----3----|
   E  Q.           Q.          a a  e      e    e    e   E    E  Q.              S  S
|----------------------------------12---|-14---15---17-------17b19~-----------pb19r17-|
|--------------------------------x------|---------------------------------------------|
|-14b16~-----------------------x--------|---------------------------------------------|
|---------------------------------------|---------------------------------------------|
|---------------------------------------|---------------------------------------------|
|---------------------------------------|---------------------------------------------|


    |---3--|  |--3--|
   +S   S  S  S  S  S  Q  Q.         a a    S  S    T  T  E.      +Q          S  S  S S  S  S  S  S
|-(17)p15p14-------15----------------------------|--------------------------------------------------|
|------------17p15----15b17~-------------pb17r15-|-12p11--------------------------------------------|
|--------------------------------------x---------|-------14~-----(14)~------------------11h12p11h12-|
|------------------------------------x-----------|---------------------------11-12p11p9-------------|
|------------------------------------------------|--------------------------------------------------|
|------------------------------------------------|--------------------------------------------------|



    Q         E    a  E    +Q.            S  T  T    S  S  S  S S  S  S S  S  S  Q.
|-------------------------------------------------|-------------------------------------------|
|-------------------------------------------------|-------------------------------------------|
|-p11~--------------------------------------------|-------------------------------------------|
|------------14---12h14---(14)-----------11h12p11-|-p9h11-------------------------------------|
|-------------------------------------------------|-------12p10p9h10----9---------------------|
|-------------------------------------------------|------------------12---10s12-10~-----------|


             |-----5-----|  |--3--|  |--3--|  |--3--|     |---3----|
   E    E    S  S  S  S  S  S  S  S  S  S  S  S  S  S  a  S  S  a  S
|--------------------------------------------------------------------|
|--------------------------------------------------------------------|
|-----------------------------------14----12-------15-------15-------|
|-----------12----14----12-12h13h14----14----14b16----14b16----14b15-|
|--------------14----14----------------------------------------------|
|-12---14------------------------------------------------------------|



   T  T  T  T  T  T  T  T  T  T  T  T  S  S  S  a  S  S  a  S  S  E.
|-------------------12----------------------12-------12------------------|
|-12-------------12----15p12----------15b17----15b17----17b19-17-15~-----|
|----15p12-14b16-------------15p14p12------------------------------------|
|------------------------------------------------------------------------|
|------------------------------------------------------------------------|
|------------------------------------------------------------------------|


                                                  |---3---|  |--3--|                         |--3--|
   +Q        a  T  T  T  T  T  T  S  H            a  e    S  S  S  S  E    S  S  T  T  T  T  S  S  S  +Q
|--------------17h19p17p15----------------------|---17---15p14----17----------------------------------------|
|-(15)~------x-------------19p17p15-15~---------|-x------------17----15---12-15-12--------------------------|
|-----------------------------------------------|----------------------------------15p14p12----14-----------|
|-----------------------------------------------|-------------------------------------------14----14-(14)---|
|-----------------------------------------------|-----------------------------------------------------------|
|-----------------------------------------------|-----------------------------------------------------------|


                 |--3--|     |--3--|  |-----5-----|     |--3--|  |--3--|
  a  a  E  S  S  S  S  S  a  S  S  S  S  S  S  S  S  a  S  S  S  S  S  S    Q      +E.      T  T  H
|---14b15r14-12-15----12-------------------------------------------------|--------------------------------|
|-x----------------15----15b17r15-12-12h15p12h15p12----------------------|--------------------------------|
|---------------------------------------------------14b16r14-12-14----12-|--------------------------------|
|------------------------------------------------------------------14----|-12-----(12)-----14h16-12-------|
|------------------------------------------------------------------------|--------------------------------|
|------------------------------------------------------------------------|--------------------------------|


                                                                                                       |--3--|
   T  T  S  T  T  T  T  T  T  S  T  T  T  T  a  Q    S  S S  S    S  E.     S  S  S  S  S  S  S  S  a  S  S  S  S  S
|--------------------------------------------------------------|-----------------------------------------------------|
|--------------------------------------------------------------|-----------------------------------------------------|
|-14p12p11h12p11----11-----------------------------------------|-----------------------------12-14-14b16r14-12-14-12-|
|----------------14----14p12p11h12p11----11--------------------|--------------------12-13-14-------------------------|
|-------------------------------------14----12s10---10----9----|-----------10-12-14----------------------------------|
|------------------------------------------------------12---12-|-12-10-----------------------------------------------|

10.Drag The Waters

*INTRO*
|-------------------|-------------------|-------------------|-------------------|
|-------------------|-------------------|-------------------|-------------------|
|-------------------|-------------------|-------------------|---2b--0-2-0-------|
|-------------------|-------------------|-------------------|-------------2-----|
|-------------------|-------------------|-------------------|-------------------|
|-1-0----0-1-0----0-|-1-0----0-1-0----0-|-1-0----0-1-0----0-|-0--------------5b-|
                                                          .....
|Fig. 1                                                               End Fig. 1|
|--------------------|------------------|-------------------|-------------------|
|*-------------------|------------------|-------------------|------------------*|
|--------------------|---2b--0-2-0------|-------------------|---2b--0-2-0-------|
|--------------------|-------------2----|-------------------|-------------2-----|
|*-3-2------3-2------|------------------|-3-2------3-2------|------------------*|
|--1-0----0-1-0----0-|-0-------------5b-|-1-0----0-1-0----0-|-0-------------5b--|
                   .....                                  .....

*VERSE*
      Smack on the wrists is the words...
|--------------------|-----------------|-----------------|---------------------|
|*-------------------|-----------------|-----------------|---------------------|
|--------------------|-----------------|-----------------|---------------------|
|--------------------|-----------------|-----------------|---------------------|
|*-3-2----X----X-X-X-|--X-X-X----X-X-X-|--X-X-X----X-X-X-|-----5~------7~------|
|--1-0----X----X-X-X-|--X-X-X----X-X-X-|--X-X-X----X-X-X-|-3/5-----5/7-----8-7-|
          ..............................................

|-------------------|-----------------|-----------------|-----------------------|
|-------------------|-----------------|-----------------|----------------------*|
|-------------------|-----------------|-----------------|-----------------------|
|-------------------|-----------------|-----------------|-----------------------|
|-3-2----X----X-X-X-|--X-X-X----X-X-X-|--X-X-X----X-X-X-|-----5~------7~--10-9-*|
|-1-0----X----X-X-X-|--X-X-X----X-X-X-|--X-X-X----X-X-X-|-3/5-----5/7------8-7--|
          ..............................................

*CHORUS*
|------------------|-------------------|------------------|-------------------|
|------------------|-------------------|------------------|-------------------|
|---2b--0-2-0------|-------------------|---2b--0-2-0------|-------------------|
|-------------2----|-------------------|-------------2----|-------------------|
|------------------|-3-2------3-2------|------------------|-3-2------3-2------|
|-X-------------5b-|-1-0----0-1-0----0-|-0-------------5b-|-1-0----0-1-0----0-|
                                     .....                                  ...

|---------------------|---------------------|--------------------------------|
|---------------------|---------------------|--------------------------------|
|---2b--0-2-0---------|---------------------|--------------------------------|
|---------------------|---------------------|--------------------------------|
|-------------1-0-----|-----1-1-----3b------|---------1-1-----1b----1b-------|
|-0----------------1b-|---3-----3-1-------1-|-(1)---3-----3-1-----------1----|
...                         .......                   .......

|-------------------------|----------------------------|------------------------|
|-------------------------|----------------------------|------------------------|
|-------------------------|----------------------------|------------------------|
|-------------------------|----------------------------|------------------------|
|---------1-1-----3b------|--------1-1-----3b---1~-----|---------3-3-----5b-----|
|-(1)b--3-----3-1-------1-|-(1)--3-----3-1-----------3-|-(3)b--5-----5-3-------3|
          .......                  .......                       .......

|------------------------------|-------------------------|------------------------|
|------------------------------|-------------------------|------------------------|
|------------------------------|-------------------------|------------------------|
|------------------------------|-------------------------|-----------------5-7--8-|
|---------3-3-----5b----3b-----|---------3-3-----5b------|---------3-3-----3-5--6-|
|-(3)b--5-----5-3-------------3|-(3)b--5-----5-3-------3-|-(3)b--5-----5-3-3-5--6-|
          .......                        .......                   .......

                         Drag the waters some more...
|--------------------|------------------|-------------------|-------------------|
|--------------------|------------------|-------------------|-------------------|
|--------------------|---2b--0-2-0------|-------------------|---2b--0-2-0-------|
|--------------------|-------------2----|-------------------|-------------2-----|
|--3-2------3-2------|------------------|-3-2------3-2------|-------------------|
|--1-0----0-1-0----0-|-0-------------5b-|-1-0----0-1-0----0-|-0-------------5b--|
                   .....                                  .....

|--------------------|------------------|-------------------|-------------------|
|--------------------|------------------|-------------------|-------------------|
|--------------------|---2b--0-2-0------|-------------------|---2b--0-2-0-------|
|--------------------|-------------2----|-------------------|-------------2-----|
|--3-2------3-2------|------------------|-3-2------3-2------|-------------------|
|--1-0----0-1-0----0-|-0-------------5b-|-1-0----0-1-0----0-|-0-------------5b--|
                   .....                                  .....

*BREAK*
|-----------------------|----------------------------------|-----------------------------|
|--------15---15-----15-|----15----15----------------------|-------17p15p12--17-17p15p12-|
|----x-x-14b----14b-----|-14----14----14-(14)p12-14~~(14)\-|-----x-----------------------|
|----x-x----------------|----------------------------------|-----x-----------------------|
|3-2-x-x----------------|----------------------------------|-3-2-x-----------------------|
|1-0--------------------|----------------------------------|-1-0-------------------------|

|----------------------------------------|-------------------|--------------------------|
|-17-17p15p12-17-17p15p12-x-17p15p12-17b~|-------------------|--------------------------|
|----------------------------------------|------2b-(2)--2--0-|-2p0----0-----------------|
|----------------------------------------|-------------------|-----2--------------------|
|----------------------------------------|-3-2---------------|--------------------------|
|----------------------------------------|-1-0---------------|-----------5--(5)b--(5)~~-|

|-------------------|------|
|-------------------|------|
|-------------------|------|
|-------------------|------|
|-3--2--------------|------|
|-1--0--0--0--0--0--|------|
      .......

*SOLO*

|--------------------------------|----------------------------|---------------------------|
|--------------------------------|-7--------------------------|-8---10-8----8------8--8---|
|--------------------7h9-9---7-9-|---9-7---9---7-9-7b--(3)-/9-|---9------9~---9/12---10b--|
|-----5---7--5--7/9--------9-----|-------9---9----------------|---------------------------|
|-5h7---7------------------------|----------------------------|---------------------------|
|--------------------------------|----------------------------|---------------------------|


|-------------------------|-----------------|------------------------------------------|
|-(8)\--------------------|-----------------|------------------------------------------|
|(12)\----12----14--12-14-|-14%%(14)p12-|-14b--14b--(14)p12-14-14b--12~~-----(12)/-|
|-------14--(14)--14------|-----------------|------------------------------------------|
|-------------------------|-----------------|------------------------------------------|
|-------------------------|-----------------|------------------------------------------|
|
|Gtr. 2
|-------------------------|-----------------|-----------------------------------------|
|-------------------------|-----------------|-----------------------------------------|
|2b--0--2-0---------------|-----------------|-----------------------------------------|
|-----------2-------------|-----------------|-----------------------------------------|
|-------------------------|-----------------|-----------------------------------------|
|--------------5b---------|-1--0------------|-----------------------------------------|

               ________________________________
|-12--15--12--^------------*T------T------T----|-15b--------------(15)\-|
|---15--15--15b---15~------19-15--20-15--19-15-|------------------------|
|----------------------------------------------|------------------------|
|----------------------------------------------|------------------------|
|----------------------------------------------|------------------------|
|----------------------------------------------|------------------------|
|[Gtr. 2.]                 *Hold bend while tapping
|----------------------------------------------|------------------------|
|----------------------------------------------|------------------------|
|----------------------------------------------|------2b--0-2-0---------|
|----------------------------------------------|----------------2-------|
|----------------------------------------------|------------------------|
|----------------------------------------------|---------------------5b-|

|-----12------------12-----------12------|------12-----------12----------12-----------12------|
|-------15p12-15b~----15p12-15b----15p12-|--------15p12-15b----15p12-------15p12-15b----15p12-|
|-/12------------------------------------|-14b----------------------14b-----------------------|
|----------------------------------------|----------------------------------------------------|
|----------------------------------------|----------------------------------------------------|
|----------------------------------------|----------------------------------------------------|
|[Gtr.2]
|----------------------------------------|----------------------------------------------------|
|----------------------------------------|----------------------------------------------------|
|----------------------------------------|----------------------------------------------------|
|----------------------------------------|----------------------------------------------------|
|----------------------------------------|----------------------------------------------------|
|-1--0----0---------0--------0----0------|----0-----------0---0-----------0--------0---0------|
                    ....................................................................

|-15b---------(15)~~~~~-|--------------------------|---15-17-18-19-19b-------|
|-----------------------|------------------------10/17-------------------/17-|
|-----------------------|--------------------------|-------------------------|
|-----------------------|--------------------------|-------------------------|
|-----------------------|--------------------------|-------------------------|
|-----------------------|--------------------------|-------------------------|
|[Gtr. 2]
|-----------------------|--------------------------|-------------------------|
|-----------------------|--------------------------|-------------------------|
|-----------------------|---2b--0-2-0--------------|-------------------------|
|-----------------------|-------------2------------|-------------------------|
|-----------------------|-x------------------------|-------------------------|
|--0--0--0-----0--0--0--|-x--------------5b--------|-1--0----0------0--0--0--|
   ........................

|-15--17--18--19-(19)~------|-19--20--21--22--22b----22-22b-|----------(22)--|
|---17--17--17----------/20-|---20--20--20--20--------------|----------------|
|---------------------------|-------------------------------|----------------|
|---------------------------|-------------------------------|----------------|
|---------------------------|-------------------------------|----------------|
|---------------------------|-------------------------------|----------------|
|[Gtr. 2]
|---------------------------|-------------------------------|----------------|
|---------------------------|-------------------------------|----------------|
|---------------------------|-------------------------------|-2b--0-2-0------|
|---------------------------|-------------------------------|-----------2----|
|---------------------------|-------------------------------|----------------|
|---0--0--0------0--0--0----|-----0--0--0--------0--0---0---|--------------5b|

  Yeah      Ha          Drag the waters some more...
|-22b~~~-----22b^^\--|------------------|-------------------|-------------------|
|--------------------|------------------|-------------------|-------------------|
|--------------------|------------------|-------------------|-------------------|
|--------------------|------------------|-------------------|-------------------|
|--------------------|------------------|-------------------|-------------------|
|--------------------|------------------|-------------------|-------------------|
|[Gtr. 2]
|--------------------|------------------|-------------------|-------------------|
|--------------------|------------------|-------------------|-------------------|
|--------------------|---2b--0-2-0------|-------------------|---2b--0-2-0-------|
|--------------------|-------------2----|-------------------|-------------2-----|
|--3-2------3-2------|------------------|-3-2------3-2------|-------------------|
|--1-0----0-1-0----0-|-0-------------5b-|-1-0----0-1-0----0-|-0-------------5b--|
                   .....                                  .....
                                            _____________
|--------------------|------------------|---^---------------|
|--------------------|------------------|---^---------------|
|--------------------|------------------|-7b^--7------7-(7)-|
|--------------------|------------------|-------------------|
|--------------------|------------------|-------------------|
|--------------------|------------------|-------------------|
|
|--------------------|------------------|-------------------|
|--------------------|------------------|-------------------|
|--------------------|---2b--0-2-0------|-------------------|
|--------------------|-------------2----|-------------------|
|--3-2------3-2------|------------------|-3-2------3-2------|
|--1-0----0-1-0----0-|-0-------------5b-|-1-0----0-1-0----0-|
                     

|-------------------|---------------------|------------------|
|-------------------|---------------------|------------------|
|--12-14-14b-14-14b-|14b-------(14)~~~----|--(14)~~~----(14)\|
|-------------------|---------------------|------------------|
|-------------------|---------------------|------------------|
|-------------------|---------------------|------------------|
|
|-------------------|---------------------|------------------|
|-------------------|---------------------|------------------|
|----2b--0-2-0------|---------------------|---2b--0-2-0------|
|--------------2----|---------------------|-------------2----|
|-------------------|-3-2-------3-2-------|------------------|
|-0---------------5-|-1-0---0-0-1-0---0-0-|-0-------------5b-|
                            ...       .......

|------------------------|---------------15b|-----------15b--12-----|
|------------------------|------------------|--------------------15b|
|------------------------|------------------|-----------------------|
|------------------------|------------------|-----------------------|
|------------------------|------------------|-----------------------|
|------------------------|------------------|-----------------------|
|
|------------------------|------------------|-----------------------|
|------------------------|------------------|-----------------------|
|------------------------|---2b--0-2-0------|-----------------------|
|------------------------|-------------2----|-----------------------|
|--3-2--------3-2--------|------------------|-3-2--------3-2--------|
|--1-0-0--0-0-1-0-0--0-0-|-0-------------5b-|-1-0-0--0-0-1-0-0--0-0-|
       ......     ..........                      ......     ......


|-------------------|-----------------------|-17b-15-17p15----------|
|-(15)~~------------|-----------------------|--------------17-17----|
|-------------------|-----------------------|--------------------14-|
|-------------------|-----------------------|-----------------------|
|-------------------|-----------------------|-----------------------|
|-------------------|-----------------------|-----------------------|
|
|-------------------|-----------------------|-----------------------|
|-------------------|-----------------------|-----------------------|
|----2b--0-2-0------|-----------------------|---2b--0-2-0-----------|
|--------------2----|-----------------------|-------------2---------|
|-------------------|-3-2--------3-2--------|-----------------------|
|-0---------------5-|-1-0-0--0-0-1-0-0--0-0-|-0-------------5-------|
                          ......     ..........

   (lyric ad lib)                             ha  huh   ha   huh
|---------------|----------------|---------------|---------------|
|---------------|----------------|---------------|---------------|
|-(14)b~~~------|----------------|---------------|---------------|
|---------------|----------------|---------------|---------------|
|---------------|----------------|---------------|---------------|
|---------------|----------------|---------------|---------------|
|
|---------------|----------------|---------------|---------------|
|---------------|----------------|---------------|---------------|
|---------------|----------------|---------------|---------------|
|---------------|----------------|---------------|---------------|
|---------------|------------x-x-|---------------|---------------|
|-(5)*-(5)--(5)-|-(5)--------x-x-|-1-0--0-1-0--0-|-1-0--0-1-0--0-|
*Use bar to raize each time
                                    
|---------------|------------------|
|---------------|------------------|
|---------------|---2b--0-2-0------|
|---------------|-------------2----|
|---------------|------------------|
|-1-0--0-1-0--0-|-0-------------5b-|

*OUTRO*
|--------------------|------------------|-------------------|-------------------|
|--------------------|------------------|-------------------|-------------------|
|--------------------|---2b--0-2-0------|-------------------|---2b--0-2-0-------|
|--------------------|-------------2----|-------------------|-------------2-----|
|--3-2------3-2------|------------------|-3-2------3-2------|-------------------|
|--1-0----0-1-0----0-|-0-------------5b-|-1-0----0-1-0----0-|-0-------------5b--|
                   .....                                  .....

                                                           in with it out with it...
|--------------------|------------------|--------------------|----------------|
|--------------------|------------------|--------------------|----------------|
|--------------------|---2b--0-2-0------|--------------------|----------------|
|--------------------|-------------2----|--------------------|----------------|
|--3-2------3-2------|------------------|-3-2------3-2-------|-5-7-8--7--8--9-|
|--1-0----0-1-0----0-|-0-------------5b-|-1-0----0-1-0----0-0|-3-5-6--5--6--7-|
                   .....                                  

|--------------------|------------------|--------------------|----------------|
|--------------------|------------------|--------------------|----------------|
|--------------------|---2b--0-2-0------|--------------------|----------------|
|--------------------|-------------2----|--------------------|----------------|
|--3-2------3-2------|------------------|-3-2------3-2-------|-5-7-8--7--8--9-|
|--1-0----0-1-0----0-|-0-------------5b-|-1-0----0-1-0----0-0|-3-5-6--5--6--7-|
                   .....                                  

|--------------------|------------------|--------------------|----------------|
|--------------------|------------------|--------------------|----------------|
|--------------------|---2b--0-2-0------|--------------------|----------------|
|--------------------|-------------2----|--------------------|----------------|
|--3-2------3-2------|------------------|-3-2------3-2-------|-5-7-8--7--8--9-|
|--1-0----0-1-0----0-|-0-------------5b-|-1-0----0-1-0----0-0|-3-5-6--5--6--7-|
                   .....                                  

|--------------------|------------------|-------------------|-------------------||
|--------------------|------------------|-------------------|-------------------||
|--------------------|---2b--0-2-0------|-------------------|---2b--0-2-0-------||
|--------------------|-------------2----|-------------------|-------------2-----||
|--3-2------3-2------|------------------|-3-2------3-2------|-------------------||
|--1-0----0-1-0----0-|-0-------------5b-|-1-0----0-1-0----0-|-0-------------5b--||
                   .....                                  .....

11.Where You Come From

Intro:
~~~~~~~~~~~~~~~~                  ~~~~~~~~~~
|---------------------------|----------------------------|
|---------------------------|----------------------------|
|---------------------------|----------------------------|
|---------------------------|----------------------------|
|-------0-3-5---------------|-5-3-0-----------7----------|
|-0-3-6---------------------|-------6-5-3-0--------------|

~~~~~~~~~~                  [hold======]
|---------------------------|----------------------------|
|---------------------------|----------------------------|
|-----------------7---------|------------------6/7---(7\)|
|---------------------------|------------------5/6---(6\)|
|-------0-3-5---------------|-5-3-0----------------------|
|-0-3-6---------------------|-------6-5-3-0--------------|

1/2 1/2
~~~~      ~~~~~~           [trem/bar \/  /\  ]
|---------------------------|----------------12-(12)(12)-|
|---------------------------|----------------12-(12)(12)-|
|---------------------7-----|----------------11-(11)(11)-|
|---------------------------|----------------------------|
|-------0-3-5---------------|-5-3-0----------------------|
|-0-3-6---------------------|-------6-5-3-0--------------|

~~~~ A.H.~~~~~~~                  {-3-}
|---------------------------|-----------------------------|
|---------------------------|-----------------------------|
|---------------------------|-----------------------------|
|---------------------------|-----------------------------|
|-------0-3-5-----5---------|-5-3-0-----------------5-6-7\|
|-0-3-6---------------------|-------6-5-3-0---2-3-4-------|

~~~~~~~~~~~~~
|---------------------------------|------------------------------|
|---------------------------------|------------------------------|
|---------------------------------|------------------------------|
|-5p0---5p0-----------------------|------------------------------|
|-----7-----7-5p0-5p0---5p0-------|-----------------5^(1)--------|
|---------------------7-----7-5p0-|-3p0-5p0-6-5-3p0--------------|

tr.~~~~~~~~~
|---------------------------------|------------------------------|
|---------------------------------|------------------------------|
|---------------------------------|------------------------------|
|-5p0---5p0-----------------------|------------------0(2)--------|
|-----7-----7-5p0-5p0---5p0-------|------------------------------|
|---------------------7-----7-5p0-|-3p0-5p0-6-5-3p0--------------|

A.H. A.H.~~~~~
|---------------------------------|------------------------------|
|---------------------------------|------------------------------|
|---------------------------------|------------------------------|
|-5p0---5p0-----------------------|------------------------------|
|-----7-----7-5p0-5p0---5p0-------|-----------------5h7-5--------|
|---------------------7-----7-5p0-|-3p0-5p0-6-5-3p0--------------|

[w/trem.bar==]
|---------------------------------|------------------------------|
|---------------------------------|------------------------------|
|---------------------------------|------------------------------|
|-5p0---5p0-----------------------|------------------------------|
|-----7-----7-5p0-5p0---5p0-------|------------------------------|
|---------------------7-----7-5p0-|-3p0-5p0-6-5-3p0-0\-----------|

2gtrs: left   right   left    right     left    right
|-------------------------------|--------------------------------|
|-------------------------------|--------------------------------|
|-------------------------------|--------------------------------|
|-2---2-2-2---2-2-2---2-2-2---2-|-2-2---2-2-2---2-2-2------------|
|-2---2-2-2---2-2-2---2-2-2---2-|-2-2---2-2-2---2-2-2------------|
|-0---0-0-0---0-0-0---0-0-0---0-|-0-0---0-0-0---0-0-0------------|

Riff 1:                                                   ~~~~
|-------------------------------|---------------------------------|
|-------------------------------|---------------------------------|
|-------------------------------|---------------------------------|
|-------------------------------|---------------------------------|
|-7---7-7-7---7-7-7---7-7-7---7-|-7-7---7-7-7---7-7-7-5h7---------|
|-0---0-0-0---0-0-0---0-0-0---0-|-0-0---0-0-0---0-0-0-----5---3h5-|

tr.~~~~~~~~~
|-------------------------------|---------------------------------|
|-------------------------------|---------------------------------|
|-------------------------------|---------------------------------|
|-------------------------------|---------------------0(2)--------|
|-7---7-7-7---7-7-7---7-7-7---7-|-7-7---7-7-7---7-7-7-------------|
|-0---0-0-0---0-0-0---0-0-0---0-|-0-0---0-0-0---0-0-0-------------|

~~~~
|-------------------------------|---------------------------------|
|-------------------------------|---------------------------------|
|-------------------------------|---------------------------------|
|-------------------------------|---------------------------------|
|-7---7-7-7---7-7-7---7-7-7---7-|-7-7---7-7-7---7-7-7-5h7---------|
|-0---0-0-0---0-0-0---0-0-0---0-|-0-0---0-0-0---0-0-0-----5---3h5-|

|-------------------------------|---------------------------------|
|-------------------------------|---------------------------------|
|-------------------------------|---------------------------------|
|-------------------------------|-5p0---5p0-----------------------|
|-7---7-7-7---7-7-7---7-7-7---7-|-----7-----7-5p0-5p0---5p0-------|
|-0---0-0-0---0-0-0---0-0-0---0-|---------------------7-----7-5p0-|

Pre-chorus:
~~~~~~~~~~~~~~~~
|---------------------------|----------------------------|
|---------------------------|----------------------------|
|---------------------------|----------------------------|
|---------------------------|----------------------------|
|-------0-3-5---------------|-5-3-0-------------------14\|
|-0-3-6---------------------|-------6-5-3-0--------------|

[hold===========]
~~~~~~~~
|---------------------------|----------------------------|
|---------------------------|----------------------------|
|---------------------------|------------------6/7-------|
|---------------------------|------------------5/6-------|
|-------0-3-5------5/6---3--|-5-3-0----------------------|
|-0-3-6------------3/4---1--|-------6-5-3-0--------------|

1/2 1/2
~~~~~~~~~~           [trem/bar \/  /\  ]
|---------------------------|----------------------------|
|---------------------------|----------------------------|
|---------------------------|----------------------------|
|---------------------------|----------------------------|
|-------0-3-5-----5---------|-5-3-0----------------------|
|-0-3-6---------------------|-------6-5-3-0------0----0--|


|---------------------------|-----------------------------|
|---------------------------|-----------------------------|
|---------------------------|-----------------------------|
|---------------------------|-----------------------------|
|-------0-3-5-----5/6---3---|-5-3-0-------2---------------|
|-0-3-6-----------3/4---1---|-------6-5-3-0---------------|

Chorus:
~~~~~~~~~~~
|---------------------------------|------------------------------|
|---------------------------------|------------------------------|
|---------------------------------|------------------------------|
|-5p0---5p0-----------------------|------------------------------|
|-----7-----7-5p0-5p0---5p0-------|-----------------5h7----------|
|---------------------7-----7-5p0-|-3p0-5p0-6-5-3p0--------------|

A.H.~~~~~~~~~
|---------------------------------|------------------------------|
|---------------------------------|------------------------------|
|---------------------------------|------------------------------|
|-5p0---5p0-----------------------|------------------------------|
|-----7-----7-5p0-5p0---5p0-------|-----------------5^(1)---\5---|
|---------------------7-----7-5p0-|-3p0-5p0-6-5-3p0--------------|

tr.~~~~~~~~~~
|---------------------------------|------------------------------|
|---------------------------------|------------------------------|
|---------------------------------|------------------------------|
|-5p0---5p0-----------------------|------------------------------|
|-----7-----7-5p0-5p0---5p0-------|-----------------0(2)---------|
|---------------------7-----7-5p0-|-3p0-5p0-6-5-3p0--------------|

[1.....
|---------------------------------||------------------------------|
|---------------------------------||------------------------------|
|---------------------------------||------------------------------|
|-5p0---5p0-----------------------||------------------------------|
|-----7-----7-5p0-5p0---5p0-------||------------------------------|
|---------------------7-----7-5p0-||-3p0-5p0-6-5-3p0-0------------|

A.H.~~~~~~~~       ~~~~~~
|---------------------------------|----------------|
|---------------------------------|----------------|
|---------------------------------|----------------|
|---------------------------------|----------------|
|-------------------------5/7-----|-------7/10-----|
|-3---5---6-5-3h5-0---3p0---------|---3p0----------|

......1]
|-------------------------------|--------------------------------||
|-------------------------------|--------------------------------||
|-------------------------------|--------------------------------||
|-2---2-2-2---2-2-2---2-2-2---2-|-2-2---2-2-2---2-2-2------------||
|-2---2-2-2---2-2-2---2-2-2---2-|-2-2---2-2-2---2-2-2------------||
|-0---0-0-0---0-0-0---0-0-0---0-|-0-0---0-0-0---0-0-0------------||

then:[2............
||-------------------------------|-------------------------------|
||-------------------------------|-------------------------------|
||-------------------------------|-------------------------------|
||-------------------------------|-------------------------------|
||-------------------------------|-------------------------------|
||-3p0-5p0-0-5-3-5-0-------------|-3---5---6h5-3p5-0-------------|

A.H.~~~~
|---------------------------------|-------------------------------|
|---------------------------------|-------------------------------|
|---------------------------------|-------------------------------|
|---------------------------------|-------------------------------|
|-------------------------5/7-----|-------------------------------|
|-3p0-5p0-0-5-3-5-0---3p0---------|-3---5---6h5-3p5-0-------------|

A.H.~~~~
|---------------------------------|-------------------------------|
|---------------------------------|-------------------------------|
|---------------------------------|-------------------------------|
|---------------------------------|-------------------------------|
|-------------------------5-------|-------------------------------|
|-3p0-5p0-0-5-3-5-0---3p0---------|-3---5---6h5-3p5-0-------------|

A.H.~~~~
|---------------------------------|-------------------------------|
|---------------------------------|-------------------------------|
|---------------------------------|-------------------------------|
|---------------------------------|-------------------------------|
|-------------------------5/7-----|-------------------------------|
|-3p0-5p0-0-5-3-5-0---3p0---------|-3---5---6h5-3p5-0-------------|

[grad. steady gliss           .........2]
|---------------------------------|---------------|---------------||
|---------------------------------|---------------|---------------||
|---------------------------------|---------------|---------------||
|-------------------------5=======|>(7)===========|(12)==>(14)----||
|-------------------------5=======|>(7)===========|(12)==>(14)----||
|-3p0-5p0-0-5-3-5-0---3p0---------|---------------|---------------||


Guitar solo:
\w/trem.bar___________________
T      T         T         T\________T_________T_________T_________T________/
\/               /\                  \/                  /\
|-9h12p9-12p9h12p9-12p9h12p9-12p9h12p9-12p9h12p9-12p9h12p9-12p9h12p9-12p9h12p9-|
|------------------------------------------------------------------------------|
|------------------------------------------------------------------------------|
|------------------------------------------------------------------------------|
|------------------------------------------------------------------------------|
|------------------------------------------------------------------------------|
___________________________________________
T         T         T         T         T\        T
/\                                      \/
|-12p9h12p9-12p9h12p9-12p9h12p9-12p9h12p9-12p9h12p9-12p9h12p9------------------|
|-------------------------------------------------------------12\--------------|
|------------------------------------------------------------------------------|
|------------------------------------------------------------------------------|
|------------------------------------------------------------------------------|
|------------------------------------------------------------------------------|

t    t    t    t    t    t    t    t    t    t    t    t    t    t    t
|------22p0-23p1-24p2-24p2-24p2-24p2-24p2-23p1-23p1-23p1-22p0-22p0-22p0-24p2-|
|-22p2-----------------------------------------------------------------------|
|----------------------------------------------------------------------------|
|----------------------------------------------------------------------------|
|----------------------------------------------------------------------------|
|----------------------------------------------------------------------------|

t    t    t    t    t    t    t    t    t    t                           5/2
|-24p2-24p2-24p2-23p1-23p1-23p1-23p1-22p0-22p0-22p1--------------------------|
|-------------------------------------------------------------------------19^|
|----------------------------------------------------------------------------|
|----------------------------------------------------------------------------|
|----------------------------------------------------------------------------|
|----------------------------------------------------------------------------|

grad.release===>     1     1       1     1     1     1---\         3/2~~~
|---------------17----17----|-17----17----17----17---------------------------|
|----------(19)----19^---19^|----19^---19^---19^---19^19(19)p17---19^(19)p17-|
|---------------------------|-----------------------------------18-----------|
|---------------------------|------------------------------------------------|
|---------------------------|------------------------------------------------|
|---------------------------|------------------------------------------------|

1--\           1--\           1--\           1~~~
|-19-19^-(19)p17-19-19^-(19)p17-19-19^-(19)p17-19-19^---|
|-------------------------------------------------------|
|-------------------------------------------------------|
|-------------------------------------------------------|
|-------------------------------------------------------|
|-------------------------------------------------------|

1--\        1--\       5/2~~~~~~~~~~                   1--\            ~~~~
|-17-19^-(19)p17-19^-(19)p17-19^----------19\|-----------15-17^-(17)--15--17-----|
|--------------------------------------------|-15/17-------------------------16--|
|--------------------------------------------|-----------------------------------|
|--------------------------------------------|-----------------------------------|
|--------------------------------------------|-----------------------------------|
|--------------------------------------------|-----------------------------------|

~~~              1--\ 3/2   1--\       ~~~~~~                           2  ~~~
|--------15----17^-(17)^--17^-(17)p15-----|------------17-17----16----16^----|
|-----------16------------------------15--|---------20-------20----20--------|
|-----------------------------------------|-------------------------------18-|
|-----------------------------------------|----------------------------------|
|-----------------------------------------|----------------------------------|
|-----------------------------------------|----------------------------------|

~~~   1  ~~ 3/2  ~~~  ~~~~~~~          1--\  1--\      ~~~
|----------21^-21\-------|-------15--17^-(17)^(17)p15-----|
|---20^-20--------15/17--|----------------------------16--|
|------------------------|--------------------------------|
|------------------------|--------------------------------|
|------------------------|--------------------------------|
|------------------------|--------------------------------|

[grad. gliss.]
~~~   1  ~~   1  ~~  ~~~~~~   3/2-\ 3/2-\ 3/2             ~~~     3/2 ~~~ 3/2    ~~~~
|-----------------------|----19^-(19)^-(19)^-----------------|---21^-21--21^----21---|
|---16^-16--16^-16--15--|--------------------18--17----------|---------------17\-----|
|-----------------------|----------------------------19--18--|-----------------------|
|-----------------------|------------------------------------|-----------------------|
|-----------------------|------------------------------------|-----------------------|
|-----------------------|------------------------------------|-----------------------|

End of solo. (not too simple? :E)

[A.H.===========================]
~~~~  ~~~~  ~~~~
|-------------------------|------------------------------|-----------------|
|-------------------------|------------------------------|-----------------|
|-------------------------|------------------------------|-----------------|
|-2-----------------------|-2------------------5---------|-7---7-----------|
|-2-------------------2-5-|-2----------------7-----7-5---|---------7-5-----|
|-0-------------------0-3-|-0----------------------------|-------------7-5-|

random pick slides down the neck
|-------------------------|-------------------------|-----------------|
|-------------------------|-------------------------|-----------------|
|-------------------------|-------------------------|-----------------|
|-------------------------|---------################|-----------------|
|-2---------------2-5---3-|-2-------################|-----------------|
|-0---------------0-3---1-|-0-------################|-3p0-5p0-6p5-3p0-|

Faster: d=152
[-3-] [-3-] [-3-] [-3-]   [-3-] [-3-] [-3-] [-3-]
|-------------------------|-------------------------|-----------------|
|-------------------------|-------------------------|-----------------|
|-------------------------|-------------------------|---0-------0-----|
|-------------------------|-------------------------|-5-------3-------|
|-------5-6-7-------5-6-7-|-------5-6-7-------5-6-7-|-5---5---3---3---|
|-5-6-7-------5-6-7-------|-5-6-7-------5-6-7-------|-3---3---1---1---|

[-3-] [-3-] [-3-] [-3-]   [-3-] [-3-] [-3-] [-3-]
|-------------------------|-------------------------|-----------------|
|-------------------------|-------------------------|-----------------|
|-------------------------|-------------------------|---0-------0-----|
|-------------------------|-------------------------|---------6-------|
|-------5-6-7-------5-6-7-|-------5-6-7-------5-6-7-|/8---8---6---6---|
|-5-6-7-------5-6-7-------|-5-6-7-------5-6-7-------|/6---6---4---4---|

[-3-] [-3-] [-3-] [-3-]   [-3-] [-3-] [-3-] [-3-]
|-------------------------|-------------------------|-----------------|
|-------------------------|-------------------------|-----------------|
|-------------------------|-------------------------|---0-------0-----|
|-------------------------|-------------------------|-5-------3-------|
|-------5-6-7-------5-6-7-|-------5-6-7-------5-6-7-|-5---5---3---3---|
|-5-6-7-------5-6-7-------|-5-6-7-------5-6-7-------|-3---3---1---1---|

[-3-] [-3-] [-3-] [-3-]   [-3-] [-3-] [-3-] [-3-]
|-------------------------|-------------------------|-------------------|
|-------------------------|-------------------------|-------------------|
|-------------------------|-------------------------|---0--------0------|
|-------------------------|-------------------------|-8------/10---10---|
|-------5-6-7-------5-6-7-|-------5-6-7-------5-6-7-|-8---8--/10---10---|
|-5-6-7-------5-6-7-------|-5-6-7-------5-6-7-------|-6---6--/8----8----|

[-3-] [-3-] [-3-] [-3-]   [-3-] [-3-] [-3-] [-3-]
|-------------------------|-------------------------|-----------------|
|-------------------------|-------------------------|-----------------|
|-------------------------|-------------------------|-----------------|
|-------------------------|-------------------------|-5---5 \ 3---3---|
|-------5-6-7-------5-6-7-|-------5-6-7-------5-6-7-|-5---5 \ 3---3---|
|-5-6-7-------5-6-7-------|-5-6-7-------5-6-7-------|-3---3 \ 1---1---|

[-3-] [-3-] [-3-] [-3-]   [-3-] [-3-] [-3-] [-3-]
|-------------------------|-------------------------|-----------------|
|-------------------------|-------------------------|-----------------|
|-------------------------|-------------------------|-----------------|
|-------------------------|-------------------------|-----8---6-------|
|-------5-6-7-------5-6-7-|-------5-6-7-------5-6-7-|-8---8---6-------|
|-5-6-7-------5-6-7-------|-5-6-7-------5-6-7-------|-6---6---4-------|

[-3-] [-3-] [-3-] [-3-]   [-3-] [-3-] [-3-] [-3-]
|-------------------------|-------------------------|-----------------|
|-------------------------|-------------------------|-----------------|
|-------------------------|-------------------------|-----------------|
|-------------------------|-------------------------|-5---5 \ 3---3---|
|-------5-6-7-------5-6-7-|-------5-6-7-------5-6-7-|-5---5 \ 3---3---|
|-5-6-7-------5-6-7-------|-5-6-7-------5-6-7-------|-3---3 \ 1---1---|

[-3-] [-3-] [-3-] [-3-]   [-3-] [-3-] [-3-] [-3-]
|-------------------------|-------------------------|-------------------|
|-------------------------|-------------------------|-------------------|
|-------------------------|-------------------------|-------------------|
|-------------------------|-------------------------|-8-------10---10---|
|-------5-6-7-------5-6-7-|-------5-6-7-------5-6-7-|-8---8---10---10---|
|-5-6-7-------5-6-7-------|-5-6-7-------5-6-7-------|-6---6---8----8----|

[-3-]       [-3-]         [-3-]       [-3-]
|-------------------------|-------------------------|-----------------|
|-------------------------|-------------------------|-----------------|
|-------------------------|-------------------------|-----------------|
|-------5\----------5\----|-------5\----------5\----|-----------------|
|-------5\----------5\----|-------5\----------5\----|-5---5---3---3---|
|-5-6-7-------5-6-7-------|-5-6-7-------5-6-7-------|-3---3---1---1---|

[-3-]       [-3-]         [-3-]       [-3-]
|-------------------------|-------------------------|-----------------|
|-------------------------|-------------------------|-----------------|
|-------12----------12\---|-------12----------12\---|-----------------|
|-------12----------12\---|-------12----------12\---|/8-------6-------|
|-------10----------10\---|-------10----------10\---|/8---8---6---6---|
|-0-0-0-------0-0-0-------|-0-0-0-------0-0-0-------|/6---6---4---4---|

[-3-]       [-3-]         [-3-]       [-3-]
|-------------------------|-------------------------|-----------------|
|-------------------------|-------------------------|-----------------|
|-------------------------|-------------------------|-----------------|
|-------5\----------5\----|-------5\----------5\----|-----------------|
|-------5\----------5\----|-------5\----------5\----|-5---5---3---3---|
|-5-6-7-------5-6-7-------|-5-6-7-------5-6-7-------|-3---3---1---1---|

[-3-]       [-3-]         [-3-]       [-3-]
|-------------------------|-------------------------|-------------------|
|-------------------------|-------------------------|-------------------|
|-------12----------12\---|-------12----------12\---|-------------------|
|-------12----------12\---|-------12----------12\---|/8-------10---10---|
|-------10----------10\---|-------10----------10\---|/8---8---10---10---|
|-5-6-7-------5-6-7-------|-5-6-7-------5-6-7-------|/6---6---8----8----|

[-3-]       [-3-]         [-3-]       [-3-]
|-------------------------|-------------------------|-----------------|
|-------------------------|-------------------------|-----------------|
|-------------------------|-------------------------|-----------------|
|-------5-----------5\----|-------5-----------5\----|-----------------|
|-------5-----------5\----|-------5-----------5\----|-5---5---3---3---|
|-5-6-7-------5-6-7-------|-5-6-7-------5-6-7-------|-3---3---1---1---|

[-3-]       [-3-]         [-3-]       [-3-]
|-------------------------|-------------------------|-----------------|
|-------------------------|-------------------------|-----------------|
|-------12----------12\---|-------12----------12\---|-----------------|
|-------12----------12\---|-------12----------12\---|-----------------|
|-------10----------10\---|-------10----------10\---|/8---8---6---6---|
|-5-6-7-------5-6-7-------|-5-6-7-------5-6-7-------|/6---6---4---4---|

.....Fade out........

12.Cat Scratch Fever

 Intro and Chorus:
   |------------------------------------------------------------------|
   |------------------------------------------------------------------|
   |------------2-4-5-5-2-4-5----------------2-4-5-5-5-4-2---|
   |------------2-4-5-5-2-4-5----------------2-4-5-5-5-4-2---|
   |------------0-2-3-3-0-2-3----------------0-2-3-3-3-2-0---|
   |-0-3-4--------------------------0-3-4-------------------------|


   |----------------------------------------------|
   |----------------------------------------------|
   |----2--2--5--5--2--2--5--5--2--5--2----|
   |----2--2--5--5--2--2--5--5--2--5--2----|
   |----0--0--3--3--0--0--3--3--0--3--0----|
   |----------------------------------------------| G D A

Bridge
  Gtr I
      ~~~~~~~~    ~~~~~~~~~~~~~~~~
  +E  E E E E Q   E   +E  E E E E Q    E
|-------------------|--------------------|
|-------------------|--------------------|
|-(8)-8-8-8-8-8\--5-|-(5)-5-5-5-5-5\--/8-|
|-(8)-8-8-8-8-8\--5-|-(5)-5-5-5-5-5\--/8-|
|-(6)-6-6-6-6-6\--3-|-(3)-3-3-3-3-3\--/6-|
|-------------------|--------------------|


                     Gtr II
   W                    E  E E E E E E E
|--------------------|-------------------|
|--------------------|-----6-5---6-5-----|
|--------------------|-----5-5-5-5-5-5---|
|--------------------|---------5-----5---|
|--------------------|-------------------|
|--------------------|-------------------|
|
| Gtr I
|  ~~~~~~~~~~~
| +E  E E E E Q    E   +Q.     E E E E E
|--------------------|-------------------|
|--------------------|-------------------|
|-(8)-8-8-8-8-8\--/5-|-(5)-----5-5-5-5S8-|
|-(8)-8-8-8-8-8\--/5-|-(5)-----5-5-5-5S8-|
|-(6)-6-6-6-6-6\--/3-|-(3)-----3-3-3-3S6-|
|--------------------|-------------------|


  Gtr I
   ~~~~~~~~~~~     ~~~~~~~~~~~~~~~~
  +E  E E E E Q    E   +E  E E E E Q    E
|--------------------|--------------------|
|--------------------|--------------------|
|-(8)-8-8-8-8-8\--/5-|-(5)-5-5-5-5-5\--/8-|
|-(8)-8-8-8-8-8\--/5-|-(5)-5-5-5-5-5\--/8-|
|-(6)-6-6-6-6-6\--/3-|-(3)-3-3-3-3-3\--/6-|
|--------------------|--------------------|


                                          Gtr II
   W                   W                     H       E a E E E
|-------------------|---------------------|---------------------||
|-------------------|---------------------|---------------------||
|-------------------|---------------------|----------------5-7--||
|-------------------|---------------------|------------5s7------||
|-------------------|---------------------|---------------------||
|-------------------|---------------------|---------------------||
|
| Gtr I
|  ~~~~~~~~~~~~~~~
| +E  E E E E E E E   +E  E E E +E  E E E   +E  Q  E E   E E E
|-------------------|---------------------|---------------------||
|-------------------|---------------------|---------------------||
|-(8)-8-8-8-8-8-8-9-|-(9)-----9-(9)-----9-|-(9)-9--9------------||
|-(8)-8-8-8-8-8-8-9-|-(9)-----9-(9)-----9-|-(9)-9--9------------||
|-(6)-6-6-6-6-6-6-7-|-(7)-----7-(7)-----7-|-(7)-7--7------------||
|-------------------|-----0-0-------0-0---|--------------0-3-4--||


 Guitar Solo
   ~~~~~~~~~~~~~~~~~         ~~~~~~           ~~~~
   E E E E  E E E E   E E E  E +E  E E a     +E
|-------------------|----------------------------|
|-/8-8-8-8--8-8-8-8-|-8-7-5--------5-8-8b10==(8)-|
|-/9-9-9-9--9-9-9-9-|-9-7-5----------------------|
|-------------------|--------7-(7)---------------|
|-------------------|----------------------------|
|-------------------|----------------------------|
|
|             ~              ~~~~~~
|  E E E E  E Q   E   E E E  E +E  E E        E
|-------------------|----------------------------|
|-------------------|----------------------------|
|--2---4---/5-5-----|-2-4---/5-(5)---------------|
|--2---4---/5-5-----|-2-4---/5-(5)---------------|
|----0---0--------0-|-----0----------------------|
|-------------------|--------------0-3--------4--|


 ~~~~~~         ~~~~
  +Q     a     +Q      S S S S S S S S
|--------------------------------------|
|-(8)r---8b10==(8)r----8-5-------------|
|--------------------------8-7-5---5-7-|
|--------------------------------7-----|
|--------------------------------------|
|--------------------------------------|

13.Revolution Is My Name

E E   +E     E   +E     E   +E     E
||------------------------------------------|
||o-----------------------------------------|
||---------------8b9-(8)pb9------------9b10-|
||------------------------------------------|
||o---6b7-(6)pb7------------6b7-(6)pb7------|
||--0---------------------------------------|
|
|   Gtr II
|     TP   TP    TP   TP    TP   TP    TP
|   E E   +E     E   +E     E   +E     E
||------------------------------------------|
||o-----------------------------------------|
||---------------8b9-(8)pb9------------9b10-|
||------------------------------------------|
||o---6b7-(6)pb7------------6b7-(6)pb7------|
||--0---------------------------------------|


  +E     E   +E     E    +E      E   +E     E  3x E E   +E     E   +E     E   +E     E
|----------------------------------------------||----------------------------------------|
|---------------------------------------------o||----------------------------------------|
|-(9)b10---------------------------------------||--------------8b9-(8)pb9------------8b9-|
|--------8b9-(8)pb9----------------------------||----------------------------------------|
|-------------------9b10-(9)pb10--------------o||---6b7-(6)pb7------------6b7-(6)pb7-----|
|--------------------------------5b6-(5)pb6-1--||-0--------------------------------------|
|
|  TP    TP   TP    TP    TP     TP   TP            TP   TP    TP   TP    TP   TP    TP
| +E     E   +E     E    +E      E   +E     E  3x E E   +E     E   +E     E   +E     E
|----------------------------------------------||----------------------------------------|
|---------------------------------------------o||----------------------------------------|
|-(9)b10---------------------------------------||--------------8b9-(8)pb9------------8b9-|
|--------8b9-(8)pb9----------------------------||----------------------------------------|
|-------------------9b10-(9)pb10--------------o||---6b7-(6)pb7------------6b7-(6)pb7-----|
|--------------------------------5b6-(5)pb6-1--||-0--------------------------------------|


                         Gtr I
  +H.            Q       E E   +E     E   +E     E   +E     E
|--------------------||------------------------------------------|
|--------------------||o-----------------------------------------|
|-(8)b10-------------||---------------8b9-(8)pb9------------9b10-|
|--------------------||------------------------------------------|
|--------------------||o---6b7-(6)pb7------------6b7-(6)pb7------|
|---------------12\--||--0---------------------------------------|
|
| +H.            Q       E E   +E     E   +E     E   +E     E
|--------------------||------------------------------------------|
|--------------------||o-----------------------------------------|
|-(8)b10.5-----------||---------------8b9-(8)b9-------------9b10-|
|--------------------||------------------------------------------|
|--------------------||o---6b7-(6)b7-------------6b7-(6)b7-------|
|---------------12\--||--0---------------------------------------|


  +E      E   +E     E    +E      E   +E     E  4x W
|-----------------------------------------------||------|
|----------------------------------------------o||------|
|-(9)b10----------------------------------------||------|
|---------8b9-(8)pb9----------------------------||------|
|--------------------9b10-(9)pb10--------------o||------|
|---------------------------------5b6-(5)pb6-1--||-0----|
|
| +E      E   +E     E    +E      E   +E     E  4x W
|-----------------------------------------------||------|
|----------------------------------------------o||------|
|-(9)pb10---------------------------------------||------|
|---------8b9-(8)b9-----------------------------||------|
|--------------------9b10-(9)b10---------------o||------|
|---------------------------------5b6-(5)b6--1--||-0----|


  Tempo II Q.=138
  $
  E5
 12/8
  Gtrs I, II
  E E E E E E E E E E E E   E E E E E E     E     E     E     E     E     E
|-------------------------|-----------------------------------------------------|
|-------------------------|-----------------------------------------------------|
|-------------------------|-----------------------------------------------------|
|-------------------------|-----------------------------------------------------|
|-------------------------|-7p5---7---5b5.5-------------------------------------|
|-0-0-0-0-0-0-0-0-0-0-0-0-|-----7---x-------7b7.5-6b6.5-5b5.5-3b3.5-5b5.5-3b3.5-|


  Q  e +e  Q  Q  e +e  Q
|---------------------------|
|---------------------------|
|---------------------------|
|---------------------------|
|---------------------------|
|-0--0-(0)-0--0--0-(0)-0----|


  E E E E E E E E E E E E   E E E E E E E E E E E E
|-------------------------|-------------------------|
|-------------------------|-------------------------|
|-------------------------|-------------------------|
|-------5-----------5-----|-------------------------|
|-7p5-----7p5-7p5-----7p5-|-------------------------|
|-----7-----------7-------|-0-0-0-0-0-0-0-0-0-0-0-0-|


  E E E E E E     E     E     E     E     E     E
|------------------------------------------------------|
|------------------------------------------------------|
|------------------------------------------------------|
|------------------------------------------------------|
|-7p5---7---5b5.5--------------------------------------|
|-----7---x-------7b7.5-6b6.5-5b5.5-3b3.5-5b5.5-3b3.5--|


                                                     Verse
                            C5      Eb5               E5
                                                      PM------------------|
  Q  e +e  Q  Q  e +e  Q    H.      Q.   +Q   +E      E E E q  E E E E q  E
|-------------------------|------------------------||------------------------|
|-------------------------|------------------------||------------------------|
|-------------------------|-5-------8----(8)--(8)\-||------------------------|
|-------------------------|-5-------8----(8)--(8)\-||------------------------|
|-------------------------|-3-------6----(6)--(6)\-||------------------------|
|-0--0-(0)-0--0--0-(0)-0--|-3-------6----(6)--(6)\-||-0-6-0-3--5-0-6-0-3--5--|


             G5F#5   F5    E5
  PM-------|               PM------------------|
  E E E q  E E E E E E E   E E E q  E E E E q  E
|------------------------|-----------------------|
|------------------------|-----------------------|
|------------------------|-----------------------|
|------------------------|-----------------------|
|---1------0-5s4-4-4s3-3-|---1------0---1------0-|
|-0---0-3----3s2-2-2s1-1-|-0---0-3----0---0-3----|


             G5F#5   F5    E5
  PM-------|               PM------------------|
  E E E q  E E E E E E E   E E E q  E E E E q  E
|------------------------|-----------------------|
|------------------------|-----------------------|
|------------------------|-----------------------|
|------------------------|-----------------------|
|----------0-5s4-4-4s3-3-|-----------------------|
|-0-6-0-3----3s2-2-2s1-1-|-0-6-0-3--5-0-6-0-3--5-|


             G5F#5   F5    E5
  PM-------|               PM------------------|
  E E E q  E E E E E E E   E E E q  E E E E q  E
|------------------------|-----------------------|
|------------------------|-----------------------|
|------------------------|-----------------------|
|------------------------|-----------------------|
|---1------0-5s4-4-4s3-3-|---1------0---1------0-|
|-0---0-3----3s2-2-2s1-1-|-0---0-3----0---0-3----|


                            Pre-Chorus
                             E5
  PM----------|              PM--------------------|
  E E E E E E E E E  Q.      E E E E E E E E E E E E
|-------------------------||-------------------------|
|-------------------------||-------------------------|
|-------------------------||-------------------------|
|-------------------------||-------------------------|
|-------------------------||-------------------------|
|-0-6-0-3-0-5-0-----12\---||-0-6-0-3-0-5-0-6-0-3-0-5-|


              G5F#5   F5    E5
  PM--------|               PM------------------|
  E E E E E E E E E E E E   E E E q  E E E E q  E
|-------------------------|-----------------------|
|-------------------------|-----------------------|
|-------------------------|-----------------------|
|-------------------------|-----------------------|
|-------------5s4-4-4s3-3-|-----------------------|
|-0-6-0-3-0-5-3s2-2-2s1-1-|-0-6-0-3--5-0-6-0-3--5-|


             G5F#5   F5    E5
  PM-------|               PM--------------------|
  E E E q  E E E E E E E   E E E E E E E E E E E E
|------------------------|-------------------------|
|------------------------|-------------------------|
|------------------------|-------------------------|
|------------------------|-------------------------|
|------------5s4-4-4s3-3-|-------------------------|
|-0-6-0-3--5-3s2-2-2s1-1-|-0-6-0-3-0-5-0-6-0-3-0-5-|


              G5F#5   F5    E5
  PM--------|               PM------------------|
  E E E E E E E E E E E E   E E E q  E E E E q  E
|-------------------------|-----------------------|
|-------------------------|-----------------------|
|-------------------------|-----------------------|
|-------------------------|-----------------------|
|-------------5s4-4-4s3-3-|-----------------------|
|-0-6-0-3-0-5-3s2-2-2s1-1-|-0-6-0-3--5-0-6-0-3--5-|


                        Chorus
  C5      Eb5            E5
                                      ~~~~~~~~
  H.      Q  E +E  Q     Q.   Q  E Q  E   +Q   E
|---------------------||-------------------------|
|---------------------||-------------------------|
|-5-------8--8-(8)-8--||-------------------------|
|-5-------8--8-(8)-8--||-------------------------|
|-3-------6--6-(6)-6--||------5--7-8--7b8r(7)----|
|-3-------6--6-(6)-6--||-0---------------------0-|


                   F5   E5
          ~~~~~~~~                        ~~~~~~~~
  Q  E Q  E   +Q   E Q  E   +Q.   Q  E Q  E   +Q   E
|-------------------------|--------------------------|
|-------------------------|--------------------------|
|-------------------------|--------------------------|
|-------------------------|--------------------------|
|-5--7-8--7b8r(7)--3-3----|-------5--7-8--7b8r(7)----|
|------------------1-1--0-|-(0)--------------------0-|


                   F5   E5
          ~~~~~~~~
  Q  E Q  E   +Q   E Q  E
|-------------------------|
|-------------------------|
|-------------------------|
|-------------------------|
|-5--7-8--7b8r(7)--3-3----|
|------------------1-1--0-|


                                              F5   E5
                ~~~~~~~~             ~~~~~~~~
  +Q.   Q  E Q  E   +Q   E   Q  E Q  E   +Q   E Q  E
|--------------------------|--------------------------|
|--------------------------|--------------------------|
|--------------------------|--------------------------|
|------------8-------------|------8-------------------|
|-------5--7---------------|-5--7-------------3-3-----|
|-(0)-----------6b7r(6)--0-|---------6b7r(6)--1-1--0--|


                             Bb5   A5    G#5   G5
---------------------------------PM----PM----PM----PM
  +Q.   Q  E Q  E   +Q   E   Q   E Q   E Q   E Q   E
|--------------------------|-------------------------||
|--------------------------|-------------------------||
|--------------------------|-------------------------||
|------------8-------------|-----8-----7-----6-----5-||
|-------5--7---------------|-8-----7-----6-----5-----||
|-(0)-----------6b7r(6)--0-|-6---6-5---5-4---4-3---3-||
|                            Q   E Q   E Q   E Q   E
|
| Gtr II
|  W                         E E E E E E E E E E E E
|--------------------------|-------------------------||
|--------------------------|-------------------------||
|--------------------------|-------------------------||
|--------------------------|-----8-----7-----6-----5-||
|--------------------------|---8-----7-----6-----5---||
|--------------------------|-6-----5-----4-----3-----||


 Interlude I
  Tempo I Q=96
  F#5
 4/4
  Gtr I
          ~     ~     ~                       ~
  E E S S E S S E S S E   E E S S S S S S S S Q
|-----------------------|------------------------|
|-----------------------|------------------------|
|-----------------------|-----------1-2p1-2-4s6--|
|-----4p2-4-------------|-----4p2-4--------------|
|-----------4p3-4-1p0-1-|------------------------|
|-2-2-------------------|-2-2--------------------|
|
| Gtr II
|         ~     ~     ~                       ~
| E E S S E S S E S S E   E E S S S S S S S S Q
|-----------------------|------------------------|
|-----------------------|------------------------|
|-----------------------|-----------1-2p1-2-4s6--|
|-----4p2-4-------------|-----4p2-4--------------|
|-----------4p3-4-1p0-1-|------------------------|
|-2-2-------------------|-2-2--------------------|


                                         To Coda
          ~     ~     ~                       ~
  E E S S E S S E S S E   E E S S S S S S S S Q
|-----------------------|------------------------||
|-----------------------|------------------------||
|-----3p2-3-------------|-----3p2-3-4-6p4-6-8-9--||
|-----------4p3-4-------|------------------------||
|-----------------4p3-4-|------------------------||
|-2-2-------------------|-2-2--------------------||
|
|         ~     ~     ~                       ~
| E E S S E S S E S S E   E E S S S S S S S S Q
|-----------------------|------------------------||
|-----------------------|------------------------||
|-----------------------|-----------1-2p1-2-4s6--||
|-----4p2-4-------------|-----4p2-4--------------||
|-----------4p3-4-1p0-1-|------------------------||
|-2-2-------------------|-2-2--------------------||


 Guitar Solo I
  A5
  Gtrs I, II
                                 ~~~~~              ~~~~~
  E E S S S S S S S S S S S S    Q      S   S   E   Q.     S S
|-----------------------------|--------------------------------|
|-----------------------------|--------------------------------|
|-----------------------------|------------------------------5-|
|-----7p5---7---5-------------|--------------------------------|
|---------7-------7-6-5-3-5p3-|-[5]b7--[3]-[5]-[3]-------------|
|-5-5-------------------------|--------------------[3]b5-------|


  Gtr I
  S   S S S   S S S   S T T T T T T T T T T T T T T T T
|-------5-------5-----5-8p7p5---7p5-----5---------------|
|-----5-------5---------------8-----8p7---8p7p5-8p7p5---|
|-7b9-----7b9-----7b9---------------------------------8-|
|-------------------------------------------------------|
|-------------------------------------------------------|
|-------------------------------------------------------|


                               D.S. al Coda
                                Gtrs I, II
  T T T T T T T T T T T T T T S Q     Q
|-------------------------------5-----6-----||
|-7p5-----5---------------------8b10--9b11--||
|-----8p7---8p7p5-8p7p5---5h7-5-------------||
|-----------------------7-------------------||
|-------------------------------------------||
|-------------------------------------------||


 Guitar Solo II
  &
  A5   C5 B5  G5 F5  E5F5C5
  Gtrs I, II
    Q   S S S  S S S S S Q     E S S   +S    S S S S    E.   +S      +E      S
|---------------------------|------------------5-------------------------------|
|---------------------------|----------------5---5-8b10-8b10-(8)pb10-(8)pb10---|
|-------9-7-----------------|----5-7b9-(7)b9-----------------------------------|
|-/10--10-9----9-7---5-7----|-/7-----------------------------------------------|
|-/12---------10-8---7-8-7--|--------------------------------------------------|
|------------------------8--|--------------------------------------------------|
    Q   S S S  S S S S S Q


  W
|-8p7p5---5--------5-8p7p5---5--------5-8p7p5---5------|
|-------8---8b10-----------8---8b10-----------8---8b10-|
|------------------------------------------------------|
|------------------------------------------------------|
|------------------------------------------------------|
|------------------------------------------------------|
  T T T T E S    E S T T T T E S    E S T T T T E S
          |3|    |3|         |3|    |3|         |3|


                                                                 ~
  W
|---5------5------5------5------5------5---------------------------||
|-----8b10---8b10---8b10---8b10---8b10---8p5-8p5---5---------------||
|------------------------------------------------8---8-7p5---5h7-5-||
|----------------------------------------------------------7-------||
|------------------------------------------------------------------||
|------------------------------------------------------------------||
  S S S    S S    S S    S S    S S    S T T T T T T T T T T T T E
  |-3-|    |--3---| |--3---|    |--3---|


  B5
                              ~~~
   W
|-----------------------------------|
|----------------6-7-6-7h8-7-(7)----|
|--------6-7-6-7--------------------|
|-/9-8-9----------------------------|
|-----------------------------------|
|-----------------------------------|
   S S S S S S S S S S a S S +Q


  W
|------------------------------------------------------------------||
|-7h8p7p6-7p6---6-7p6---6------------------------------------------||
|-------------9-------9---9-7p6---7p6-----6------------------------||
|-------------------------------9-----9p7---9p7p6-9p7p6---7p6------||
|-------------------------------------------------------9-----9p7--||
|------------------------------------------------------------------||
  T T T T T T T T T T T T T T T T T T T T T T T T T T T T T T T T


  C#5
                                  2/4
   ~~                          ~
                                                |-3--|
   Q   S S S  S S  S S S  S  S E    S       +E. E  E E
|--------------------------------|---------------------||
|--------------------------------|-11b11.5r(11)--------||
|------------------------------9-|-11b11.5r(11)-9-11-9-||
|----------------------9-10-11---|---------------------||
|--------9---10---11-------------|---------------------||
|-/9--12-------------------------|---------------------||


  E7
 4/4
  Gtr I
   |--3--|  |---3----|     |--3--|  |---3----|
   E  E  E  E     E  E     E  E  E  E     E  E
|-12----------------------15----------------------|
|----14-11-------11----------17-14-------14-------|
|----------13b15----13b15----------16b18----16b18-|
|-------------------------------------------------|
|-------------------------------------------------|
|-------------------------------------------------|
|
| Gtr II
|  |--3--|  |---3----|     |--3--|  |---3----|
|  E  E  E  E     E  E     E  E  E  E     E  E
|--9----------------------12----------------------|
|----11--8--------8----------14-11-------11-------|
|----------10b12----10b12----------13b15----13b15-|
|-------------------------------------------------|
|-------------------------------------------------|
|-------------------------------------------------|


                           ~~~~~~~~~~~~~~~
   |--3--|  |---3----|
   E  E  E  E     E  E     E       +Q.
|-18----------------------20b20.5-(20)b21---||
|----20-17-------17-------------------------||
|----------19b21----19b21-------------------||
|-------------------------------------------||
|-------------------------------------------||
|-------------------------------------------||
|
|                          ~~~~~~~~~~~~~~~
|  |--3--|  |---3----|
|  E  E  E  E     E  E     E       +Q.
|-15----------------------17b17.5-(17)b18---||
|----17-14-------14-------------------------||
|----------16b18----16b18-------------------||
|-------------------------------------------||
|-------------------------------------------||
|-------------------------------------------||


   Bridge
    E5
   4/4
    Gtrs I, II
    PM--|                       PM|       PM
    S S S S     +S       E      S S E     S  E       E
||-----------------------------------------------------|
||o-------9b9.5-(9)b9.5-10b10.5-----9b9.5---10b10.5-10-|
||--------9b9.5-(9)b9.5-10b10.5-----9b9.5---10b10.5-10-|
||-----------------------------------------------------|
||o----------------------------------------------------|
||--0-0-0-----------------------0-0-------0------------|


  PM--|                       PM|       PM
  S S S S     +S       E      S S E     S  E       E
|-----------------------------------------------------|
|-------9b9.5-(9)b9.5-10b10.5-----9b9.5---10b10.5-10--|
|-------9b9.5-(9)b9.5-10b10.5-----9b9.5---10b10.5-10--|
|-----------------------------------------------------|
|-----------------------------------------------------|
|-0-0-0-----------------------0-0-------0-------------|


  PM--|                       PM|       PM
  S S S S     +S       E      S S E     S  E       E
|----------------------------------------------------|
|-------9b9.5-(9)b9.5-10b10.5-----9b9.5---10b10.5-10-|
|-------9b9.5-(9)b9.5-10b10.5-----9b9.5---10b10.5-10-|
|----------------------------------------------------|
|----------------------------------------------------|
|-0-0-0-----------------------0-0-------0------------|


  PM--|                       PM|       PM
  S S S S     +S       E      S S E     S  E       E
|----------------------------------------------------|
|-------9b9.5-(9)b9.5-10b10.5-----9b9.5---10b10.5-10-|
|-------9b9.5-(9)b9.5-10b10.5-----9b9.5---10b10.5-10-|
|----------------------------------------------------|
|----------------------------------------------------|
|-0-0-0-----------------------0-0-------0------------|


  E5    G5    A5E5    G5E5B5Bb5 E5    G5    A5E5    G5E5G5B5Bb5
  S S S S +S  E S +S  E S E E   S S S S +S  E S +S  S S S E E
|-----------------------------|-------------------------------|
|-----------------------------|-------------------------------|
|-----------------------------|-------------------------------|
|-----------------------------|-------------------------------|
|-2-2-2-5-(5)-7-2-(2)-5-2S9-8-|-2-2-2-5-(5)-7-2-(2)-5---5S9-8-|
|-0-0-0-3-(3)-5-0-(0)-3-0S7-6-|-0-0-0-3-(3)-5-0-(0)-3-0-3S7-6-|


  E5    G5    A5E5    G5E5B5Bb5 E5    G5    A5E5    G5E5G5B5Bb5
  S S S S +S  E S +S  E S E E   S S S S +S  E S +S  S S S E E
|-----------------------------|-------------------------------|
|-----------------------------|-------------------------------|
|-----------------------------|-------------------------------|
|-----------------------------|-------------------------------|
|-2-2-2-5-(5)-7-2-(2)-5-2S9-8-|-2-2-2-5-(5)-7-2-(2)-5---5S9-8-|
|-0-0-0-3-(3)-5-0-(0)-3-0S7-6-|-0-0-0-3-(3)-5-0-(0)-3-0-3S7-6-|


                                            1.
  N.C.
                                            2/4
  T  T T T S S S S S S T T T T S S S S S S   T T T T S S S S S S
|------------------------------------------|-----------------------||
|------------------------------------------|----------------------o||
|-9h10p9p7-9-7-----------------------------|-----------------------||
|--------------9-8-7-5-7h8p7p5-7-5---------|-----------------------||
|----------------------------------7-6-5-3-|-5h6p5p3-5-3----------o||
|------------------------------------------|-------------5-4-3-1---||


                                   Midtro
  2.                              Tempo II Q.=138
                        E5          E5
 2/4                   4/4         12/8
                                    Gtrs I, II
  T T T T S S S S S S   W           E E E E E E E E E E E E
|---------------------|----------||--------------------------|
|---------------------|----------||--------------------------|
|---------------------|----------||--------------------------|
|---------------------|----------||--------------------------|
|-5h6p5p3-5-3---------|----------||--------------------------|
|-------------5-4-3-1-|-0--------||-0-0-0-0-0-0-0-0-0-0-0-0--|


  E E E E E E     E     E     E     E     E     E
|-----------------------------------------------------|
|-----------------------------------------------------|
|-----------------------------------------------------|
|-----------------------------------------------------|
|-7p5---7---5b5.5-------------------------------------|
|-----7---x-------7b7.5-6b6.5-5b5.5-3b3.5-5b5.5-3b3.5-|


                            C5      Eb5
  Q  e +e  Q  Q  e +e  Q    H.      Q  E +E  Q
|-------------------------|----------------------||
|-------------------------|----------------------||
|-------------------------|-5-------8--8-(8)-8---||
|-------------------------|-5-------8--8-(8)-8---||
|-------------------------|-3-------6--6-(6)-6---||
|-0--0-(0)-0--0--0-(0)-0--|-3-------6--6-(6)-6---||


   Chorus
    Tempo II Q.=130
    E5
   12/8
                 ~~~~~~~~
    Q.   Q  E Q  E   +Q   E
||--------------------------|
||o-------------------------|
||--------------------------|
||--------------------------|
||o------5--7-8--7b8r(7)----|
||--0---------------------0-|


                   F5   E5
          ~~~~~~~~                        ~~~~~~~~
  Q  E Q  E   +Q   E Q  E   +Q.   Q  E Q  E   +Q   E
|-------------------------|---------------------------|
|-------------------------|---------------------------|
|-------------------------|---------------------------|
|-------------------------|---------------------------|
|-5--7-8--7b8r(7)--3-3----|-------5--7-8--7b8r(7)-----|
|------------------1-1--0-|-(0)--------------------0--|


                   F5   E5
          ~~~~~~~~
  Q  E Q  E   +Q   E Q  E
|-------------------------|
|-------------------------|
|-------------------------|
|-------------------------|
|-5--7-8--7b8r(7)--3-3----|
|------------------1-1--0-|


                                              F5   E5
                ~~~~~~~~             ~~~~~~~~
  +Q.   Q  E Q  E   +Q   E   Q  E Q  E   +Q   E Q  E
|--------------------------|--------------------------|
|--------------------------|--------------------------|
|--------------------------|--------------------------|
|------------8-------------|------8-------------------|
|-------5--7---------------|-5--7-------------3-3-----|
|-(0)-----------6b7r(6)--0-|---------6b7r(6)--1-1--0--|


                            1.
                             Bb5   A5    G#5   G5
                             Gtr I
                ~~~~~~~~         PM    PM    PM    PM
  +Q.   Q  E Q  E   +Q   E   Q   E Q   E Q   E Q   E
|--------------------------|--------------------------||
|--------------------------|-------------------------o||
|--------------------------|--------------------------||
|------------8-------------|-----8-----7-----6-----5--||
|-------5--7---------------|-8-----7-----6-----5-----o||
|-(0)-----------6b7r(6)--0-|-6---6-5---5-4---4-3---3--||
|
|                            Gtr II
|  W                         E E E E E E E E E E E E
|--------------------------|--------------------------||
|--------------------------|-------------------------o||
|--------------------------|--------------------------||
|--------------------------|-----8-----7-----6-----5--||
|--------------------------|---8-----7-----6-----5---o||
|--------------------------|-6-----5-----4-----3------||


  2.
  Bb5  A5   G5   F5 E5
  Gtrs I, II
  Q.   Q.   Q.   Q  E   +E  H    H    Q  E
|---------------------|--------------------*|
|---------------------|--------------------*|
|---------------------|--------------------*|
|---------------------|--------------------*|
|-8----7----5----3--2-|-(2)----------------*|
|-6----5----3----1--0-|-(0)----------------*|

14.I'll Cast A Shadow

Riff A
A |-------------------------------|                |-----------------------|
F |----------10---------7-----7---| Play 3 times   |----------8^v^v^-------|
C |----------10---------7-----7---|  then          |----------8^v^v^-------|
G |-------------------------------|                |-----------------------|
C |--0-0-0-0----0-0-0-0---0-0-----|                |--0-0-0-0---------10\--|
     . . . .    . . . .   . .                         . . . .

Riff B
A |----------------------------------------------------|
F |----------10---------7-------------3----------------|
C |----------10---------7-----------3------------------|
G |-------------------------------1---------3-5^3-0----|
C |--0-0-0-0----0-0-0-0---0-0-1^3-------3^5---------3--|
     . . . .    . . . .   . .                               Play 2 X
A |----------------------------------------------------|
F |----------10---------7-------------------------3----|
C |----------10---------7-----------------------3------|
G |-------------------------------3-5^3-0-----1--------|
C |--0-0-0-0----0-0-0-0---0-0-3^5---------3-1----------|
     . . . .    . . . .   . . 

Riff C
C |-----------------------------------------------------------------------|
G |--3---0--3----0--3--0--/8--6^v^v^----3---0--3----0--3--0--/8--6----/9--|
C |--3---0--3----0--3--0--/8--6^v^v^----3---0--3----0--3--0--/8--6----/9--|


Riff D  Harmonics                                               |---5---5---5---5---|
G |--------------------|            |---5---5---5---5----|      |-----4---4---4---4-|
C |---5-5-5-5-5-5-5-5--|  Play 4 X  |-----4---4---4---4--|  2 X |-------------------|


Riff E
C |--------------------------------------|  |--------------------------------------|
G |--------------------------------------|  |--0--3--5--6--5--0--3--5--0--1--3--0--|
C |--0--3--5--6--5--0--3--5--0--1--3--0--|  |--0--3--5--6--5--0--3--5--0--1--3--0--|
     .  .  .  .  .  .  .  .  .  .  .  .

Riff F
C |----------------------------|
G |-----/5--8^^^5----8^v^v^----|
C |--0------------6------------|


15.Goddamn Electric

Solo:                       ~~       ~~        ~~~~~~~

|----------------------------------------|--------------------------|
|----------------------------------------|--------------------------|
|---------------------------------6b8----|--6h8h10-(10)-13h15-13b15-|
|-------------6h=8---6h8-6b7r=6h8-----8--|--------------------------|
|---------6s8------8---------------------|--------------------------|
|-4b6-(4)--------------------------------|--------------------------|



|--------------------------------------------------|
|--------------------------------------------------|
|-(13)pb15-13h15-13b15-13h15-13b15-15-13b15---15---|
|--------------------------------------------------|
|--------------------------------------------------|
|--------------------------------------------------|



|----------------------------|
|----------------------------|
|-13b15---15-13b15-(13)-(13)-|
|----------------------------|
|----------------------------|
|----------------------------|


   ~~~~~~~~~~~~~~


|---------------------12-17p12-17p12-------12--17p12-17p12-------12-|----|
|-15b17-(15)pb17-(15)----------------12h15-----------------12h15----|----|
|-------------------------------------------------------------------|----|
|-------------------------------------------------------------------|----|
|-------------------------------------------------------------------|----|
|-------------------------------------------------------------------|----|


   |--3--|  |--3--|  |--3--|  |--3--|  |--3--|  |--3--|  |--3--|  |--3--|

|-15p12-------------15p12-------------------------------------------------|
|-------15p12-------------15p12-------15p12-------------15p12-------------|
|-------------15p14-------------15p14-------15p14p12----------15p14p12----|
|----------------------------------------------------14----------------14-|
|-------------------------------------------------------------------------|
|-------------------------------------------------------------------------|


   ~~~~~~      /2                       ~~~~~
             w/trem. bar
|-15b17===(15)r15b19--12h15p12h15p12----------------|
|------------------------------------15b17-(15)pb17-|
|---------------------------------------------------|
|---------------------------------------------------|
|---------------------------------------------------|
|---------------------------------------------------|



   |--3--|  |--3--|  |--3--|  |--3--|  |--3--|  |--3--|

|-12h14h15p14S17-14-14h17p15p14S19-15-15h19p17p15S19-17----|
|----------------------------------------------------------|
|----------------------------------------------------------|
|----------------------------------------------------------|
|----------------------------------------------------------|
|----------------------------------------------------------|


   T  T           T  T           T  T


|-19s20p17p15p14-19s20p17p15p14-19s20p17p15p14----|
|-------------------------------------------------|
|-------------------------------------------------|
|-------------------------------------------------|
|-------------------------------------------------|
|-------------------------------------------------|


   T  T

|-19s22-20p18p17h18p17-17p15p14-14-15b17rp12----------------------------------------------|
|--------------------------------------------15p13h15p13p12h13p12h13p12-------------------|
|-----------------------------------------------------------------------14p12h14p12p11-12-|
|-----------------------------------------------------------------------------------------|
|-----------------------------------------------------------------------------------------|
|-----------------------------------------------------------------------------------------|



   ~~~~ /1     /1 1/2 /1   /1 1/2  \6
      bendings w/trem. bar
|----------------------------------------|
|----------------------------------------|
|-----12b14--12b15--14b16--12b15-(12)----|
|-14-------------------------------------|
|----------------------------------------|
|----------------------------------------|

16.Hole In The Sky

Intro/Verse    repeat 2x
e -----------------------------------------------------|
b -----------------------------------------------------|
g ------9-7-9--------9-7-9--------9-7-9----------------|
d -2-2----------2-2----------2-2----------5--7---------|
a -2-2----------2-2----------2-2----------5--7---------|
e -0-0----------0-0----------0-0----------3--5---------|

e -----------------------------------------------------|
b -----------------------------------------------------|
g ------9-7-9--------9-7-9--------9-7-9----------------|
d -2-2----------2-2----------2-2----------7--5---------|
a -2-2----------2-2----------2-2----------7--5---------|
e -0-0----------0-0----------0-0----------5--3---------|


Chorus       repeat 4x
e -----------------------------------------------------|
b -----------------------------------------------------|
g --------7-9-7--0-------------------------------------|
d -2-2---------------7-9-7--0--------------------------|
a -2-2--------------------------7-9-7~-----------------|
e -0-0-------------------------------------------------|

Verse        repeat 2x
e -----------------------------------------------------|
b -----------------------------------------------------|
g ------9-7-9--------9-7-9--------9-7-9----------------|
d -2-2----------2-2----------2-2----------5--7---------|
a -2-2----------2-2----------2-2----------5--7---------|
e -0-0----------0-0----------0-0----------3--5---------|


e -----------------------------------------------------|
b -----------------------------------------------------|
g ------9-7-9--------9-7-9--------9-7-9----------------|
d -2-2----------2-2----------2-2----------7--5---------|
a -2-2----------2-2----------2-2----------7--5---------|
e -0-0----------0-0----------0-0----------5--3---------|

Chorus       repeat 4x
e -----------------------------------------------------|
b -----------------------------------------------------|
g --------7-9-7--0-------------------------------------|
d -2-2---------------7-9-7--0--------------------------|
a -2-2--------------------------7-9-7~-----------------|
e -0-0-------------------------------------------------|

Verse       repeat 2x
e -----------------------------------------------------|
b -----------------------------------------------------|
g ------9-7-9--------9-7-9--------9-7-9----------------|
d -2-2----------2-2----------2-2----------5--7---------|
a -2-2----------2-2----------2-2----------5--7---------|
e -0-0----------0-0----------0-0----------3--5---------|


e -----------------------------------------------------|
b -----------------------------------------------------|
g ------9-7-9--------9-7-9--------9-7-9----------------|
d -2-2----------2-2----------2-2----------7--5---------|
a -2-2----------2-2----------2-2----------7--5---------|
e -0-0----------0-0----------0-0----------5--3---------|

Verse 2    repeat 13x
e -----------------------------------------------------|
b -----------------------------------------------------|
g -6-6-5-3---------------------------------------------|
d ---------6-------------------------------------------|
a -----------------------------------------------------|
e -----------------------------------------------------|

e -----------------------------------------------------|
b -----------------------------------------------------|
g -----------------------------------------------------|
d -4-4-4--3~-------------------------------------------|
a -4-4-4--3~-------------------------------------------|
e -2-2-2--1~-------------------------------------------|

Verse       repeat 4x
e -----------------------------------------------------|
b -----------------------------------------------------|
g ------9-7-9--------9-7-9--------9-7-9----------------|
d -2-2----------2-2----------2-2----------5--7---------|
a -2-2----------2-2----------2-2----------5--7---------|
e -0-0----------0-0----------0-0----------3--5---------|


e -----------------------------------------------------|
b -----------------------------------------------------|
g ------9-7-9--------9-7-9--------9-7-9----------------|
d -2-2----------2-2----------2-2----------7--5---------|
a -2-2----------2-2----------2-2----------7--5---------|
e -0-0----------0-0----------0-0----------5--3---------|

Verse 2    repeat 13x
e -----------------------------------------------------|
b -----------------------------------------------------|
g -6-6-5-3---------------------------------------------|
d ---------6-------------------------------------------|
a -----------------------------------------------------|
e -----------------------------------------------------|


e -----------------------------------------------------|
b -----------------------------------------------------|
g -----------------------------------------------------|
d -4-4-4--3~-------------------------------------------|
a -4-4-4--3~-------------------------------------------|
e -2-2-2--1~-------------------------------------------|

Solo

e -----------------------------------------------------|
b -----------------------------------------------------|
g -----------------------------------------------------|
d -----------5/7--5/7------------5/7--5/7--------------|
a -5/7--5/7b-----------5/7--5/7b-----------------------|
e -----------------------------------------------------|

e ----------------------------------------------------------------------------------------------5--------|
b ------------------------------------------------------------------------------------------5-8---8-5----|
g -----------------------------------------------------------------5h-7h-5h-7h-5h-7h-5h--------------7fb-|
d --------------------------------------------5h-7h-5h-7h-5h-7h-5h---------------------------------------|
a -----------------------5h-7h-5h-7h-5h-7h-5h------------------------------------------------------------|
e -5h-7h-5h-7h-5h-7h-5h----------------------------------------------------------------------------------|

e ---------------------10------7-10-------7-10------7-10-10-10-10-------|
b ------------------------7-10-------7-10------7-10---------------------|
g ----------------------------------------------------------------------|
d -5--5--5--------------------------------------------------------------|
a ----------5--5--5--5fb------------------------------------------------|
e ----------------------------------------------------------------------|

e -10-10-10-10-10-10-10-9-7--7-9-16-16-16-16----------------------------|
b ----------------------------------------------------------------------|
g ----------------------------------------------------------------------|
d ----------------------------------------------------------------------|
a ----------------------------------------------------------------------|
e ----------------------------------------------------------------------|

e -15-12-------15-12----------------------------------------------------|
b -------15-9--------15-9--9-10-9-7-5-7-5-------------------------------|
g ----------------------------------------7-5-7-5---13~fb---------------|
d ------------------------------------------------9---------------------|
a ----------------------------------------------------------------------|
e ----------------------------------------------------------------------|

Verse
e -----------------------------------------------------|
b -----------------------------------------------------|
g ------9-7-9--------9-7-9--------9-7-9----------------|
d -2-2----------2-2----------2-2----------5--7---------|
a -2-2----------2-2----------2-2----------5--7---------|
e -0-0----------0-0----------0-0----------3--5---------|


e -----------------------------------------------------|
b -----------------------------------------------------|
g ------9-7-9--------9-7-9--------9-7-9----------------|
d -2-2----------2-2----------2-2----------7--5---------|
a -2-2----------2-2----------2-2----------7--5---------|
e -0-0----------0-0----------0-0----------5--3---------|

Verse 2    repeat 13x
e -----------------------------------------------------|
b -----------------------------------------------------|
g -6-6-5-3---------------------------------------------|
d ---------6-------------------------------------------|
a -----------------------------------------------------|
e -----------------------------------------------------|


e -----------------------------------------------------|
b -----------------------------------------------------|
g -----------------------------------------------------|
d -4-4-4--3-3-3-3-3-3-3-3-3-2~-------------------------|
a -4-4-4--3-3-3-3-3-3-3-3-3-2~-------------------------|
e -2-2-2--1-1-1-1-1-1-1-1-1-0~-------------------------|

Chorus
e -----------------------------------------------------|
b -----------------------------------------------------|
g --------7-9-7--0-------------------------------------|
d -2-2---------------7-9-7--0--------------------------|
a -2-2--------------------------7-9-7~-----------------|
e -0-0-------------------------------------------------|


e -----------------------------------------------------|
b -----------------------------------------------------|
g --------7-9-7--0-------------------------------------|
d -2-2---------------7-9-7--0--------------------------|
a -2-2---------------------------7~fb------------------|
e -0-0-------------------------------------------------|


e -----------------------------------------------------|
b -----------------------------------------------------|
g --------7-9-7--0-------------------------------------|
d -2-2---------------7-9-7--0--------------------------|
a -2-2--------------------------7-9-7~-----------------|
e -0-0-------------------------------------------------|


e -----------------------------------------------------|
b -----------------------------------------------------|
g --------7-9-7--0-------------------------------------|
d -2-2---------------7-9-7--0--------------------------|
a -2-2---------------------------7~fb------------------|
e -0-0-------------------------------------------------|

Verse
e -----------------------------------------------------|
b -----------------------------------------------------|
g ------9-7-9--------9-7-9--------9-7-9----------------|
d -2-2----------2-2----------2-2----------5--7---------|
a -2-2----------2-2----------2-2----------5--7---------|
e -0-0----------0-0----------0-0----------3--5---------|


e -----------------------------------------------------|
b -----------------------------------------------------|
g ------9-7-9--------9-7-9--------9-7-9----------------|
d -2-2----------2-2----------2-2----------7--5---------|
a -2-2----------2-2----------2-2----------7--5---------|
e -0-0----------0-0----------0-0----------5--3---------|

e -----------------------------------------------------|
b -----------------------------------------------------|
g ------9-7-9--------9-7-9--------9-7-9----------------|
d -2-2----------2-2----------2-2----------5--7---------|
a -2-2----------2-2----------2-2----------5--7---------|
e -0-0----------0-0----------0-0----------3--5---------|

e -----------------------------------------------------|
b -----------------------------------------------------|
g ------9-7-9--------9-7-9-----------------------------|
d -2-2----------2-2------------------------------------|
a -2-2----------2-2------------------------------------|
e -0-0----------0-0------------------------------------|

And There We Go
The Whole Pantera's Greatest Hits CD
Althought Keep In Mind That These Are Not Tabs
There Just The Highest Ranked Tabs On The Site
I Take No Credit 
R.I.P. Dimebag Darrell

                                    -Rock On, Iowa
comments
print report bad tab
2 comments total.
0 reply
avenged_7_fold wrote on May 7 2007, 11:39 am

R.I.P. Dime *goes off and crys*

0 reply
z3rst0r3r wrote on May 14 2014, 09:02 pm

where┬┤s cat scratch fever, lulz.
awesome job

I want to post or [tab]
guest
You may want to rate the tab now too:
select rating
Please do not post tabs as comments. Select "correction" instead!