Oops, an error
Loading. Please wait.

The Great Southern Trendkill Tab

ver1
ver1

Album

Whole song

More versions @911Tabs.com
21,892 views 51 this week
4 commentsread comments
1 2 3 4 5
excellent!
x 5
Autoscroll
+/-
esc
set tempo
stop
Contributor
WARNING: You are trying to view
                                    content from Ultimate-Guitar.com
                                    in an unauthorized application,
                                    which is prohibited.

                                    Please use an official Ultimate
                                    Guitar Tabs application for iPhone,
                                    iPad or Android to access legitimate
                                    chords, guitar, bass, and drum tabs
                                    from Ultimate-Guitar.com database.

                                    Type "ultimate guitar tabs" in Apple
                                    App Store's or Android Market's
                                    search to find the application.
R.I.P.:DIMEBAG DARRELL

1.THE GREAT SOUTHERN TRENDKILL

**TUNE DOWN 1 1/2 STEPS** 
 
Fig. 1                                                        End fig. 1 
|-----------------|-----------------|-----------------|-----------------| 
|-----------------|-----------------|-----------------|-----------------| 
|-----------------|-----------------|-----------------|-----------------| 
|-----------------|-----------------|-----------------|-----------------| 
|-----------------|-----------------|-----------------|-----------------| 
|-0-0-0-0-0-0-0-0-|-0-0-0-0-0-0-0-0-|-0-0-0-0-0-0-0-0-|-0-0-0-0-0-0-0-0-| 
  ..................................................................... 
 
Repete Fig. 1 once 
 
|-------------------------------|------------------------| 
|-------------------------------|------------------------| 
|-------------------------------|------------------------| 
|-3-2-2-2---2-2-2---2-2-2---2-2-|------------------------| 
|-3-2-2-2---2-2-2---2-2-2---2-2-|--------1-2--------3--4-| 
|-1-0-0-0---0-0-0---0-0-0---0-0-|-0-3--x-----3-3--0-1--2-| 
  ............................. 
 
Riff A 
|-------------------------| 
|-------------------------| 
|-------------------------| 
|-------------------------| 
|--------1-2---------3--4-| 
|-3-3--x-----3-3--0--1--2-| 
 
Chorus: 
|-------------|----------------|-------------------| 
|-------------|----------------|-------------------| 
|-------------|----------------|-------------------| 
|-2-----------|-2--2-2---------|-2-2-2-2-2---------| 
|-2-----------|-2--2-2---------|-2-2-2-2-2---------| 
|-0-----3/19\-|-0--0-0---0-/13-|-0-0-0-0-0---3/19\-| 
 
Bridge: 
|----------------------------------|----------------------------------| 
|----------------------------------|----------------------------------| 
|----------------------------------|----------------------------------| 
|-5b--------------------5----5---5-|-5-------5-5--------------------5-| 
|----7p5-7-7p5---5-------------7---|---7p5-------7p5------------------| 
|--------------7---4/7-------------|-------7---------7--5~~--6~~--7---| 
 
|----------------------------------|----------------------------------| 
|----------------------------------|----------------------------------| 
|----------------------------------|----------------------------------| 
|(5b)-------------------5----5---5-|-5-------5-5--------------------3-| 
|----7p5-7-7p5---5-------------7---|---7p5-------7p5------------------| 
|--------------7---4/7-------------|-------7---------7--5~~--6~~--7---| 
 
|----------------------------------|-------------------------------------| 
|----------------------------------|-------------------------------------| 
|----------------------------------|-------------------------------------| 
|-(3)--------------------------[3]-|-(3b)------------------------------3-| 
|------5p3-5-5p3-----3-------------|------5p3-5-5p3----3-----------------| 
|-----------------5-----3--4--5~---|-----------------5---5--4--[3]~~~----| 
 
|------------------------------------------| 
|------------------------------------------| 
|------------------------------------------| 
|-(3)-----------------3--4--[5]~----[3]~~--| 
|------5p3-5-5p3----3----------------------| 
|-----------------5------------------------| 
 
|------------------------------------------| 
|------------------------------------------| 
|------------------------------------------| 
|-(3)--------------3---3-----------------5-| 
|-----5p3-5-5p3----------[5]b--r(5)~~------| 
|---------------5--------------------------| 
 
 
 
*SOLO* 
|-----------------------|--------12-------12------------------------| 
|-12--12--12--12--------|-(12)-----12-------12------------------18b-| 
|--9b--9b--9b--9b-r(9)b-|--(9)-------11b------11-r(11)-9~~--(9)/----| 
|-----------------------|-------------------------------------------| 
|-----------------------|-------------------------------------------| 
|-----------------------|-------------------------------------------| 
 
|------17-18-19------------------------| 
|-(18)---------19b-r(19)p17-19b~~--18b-| 
|--------------------------------------| 
|--------------------------------------| 
|--------------------------------------| 
|--------------------------------------| 
 
|------17-18-19------------------19---19------------| 
|-(18)---------19b-r(19)p17-19b----19---19-r(19)-17-| 
|---------------------------------------------------| 
|---------------------------------------------------| 
|---------------------------------------------------| 
|---------------------------------------------------| 
 
|-----24~~-----24p23-24b--------|------------------------------------------| 
|-24b------24b---------------10-|-(10)-------------------------------------| 
|----------------------------10-|-(10)-------------------------------------| 
|-------------------------------|------12p10-12-12p10--10------------------| 
|-------------------------------|------------------------12\10--8h10p8~--x-| 
|-------------------------------|------------------------------------------| 
 
|-------------------------------------------------------|-----|------------| 
|-13p10-----------13p10-----------10*--12b-12b-12~--13b-|(13)-|-(13)--(13b)| 
|------13p12p10--------13p12p10---10*--12b-12b-12~------|-----|------------| 
|--------------12--------------12-----------------------|-----|------------| 
|-------------------------------------------------------|-----|------------| 
|-------------------------------------------------------|-----|------------| 
 
|-24-19-19-19-24-19-19-24-----------------------24-19-19-19-24-19-19-24-| 
|------------------------19-19-12-19-19-12-19-19------------------------| 
|-----------------------------------------------------------------------| 
|-----------------------------------------------------------------------| 
|-----------------------------------------------------------------------| 
|-----------------------------------------------------------------------| 
 
|------------------------24-19-19-19-24-19-19-24------------------------| 
|-19-19-12-19-19-12-19-19-----------------------19-19-12-19-19-12-19-19-| 
|-----------------------------------------------------------------------| 
|-----------------------------------------------------------------------| 
|-----------------------------------------------------------------------| 
|-----------------------------------------------------------------------| 
 
|-------------------------------------|-------------------------------------| 
|-24-------24-------24--22b--24--24b~-|-(24)~--24-24p20-22h23p22p20-22p20---| 
|---21-23b---21-23b---21-------21-----|----------------------------------19-| 
|-------------------------------------|-------------------------------------| 
|-------------------------------------|-------------------------------------| 
|-------------------------------------|-------------------------------------| 
 
|-----|-----------------------------|-----------|-----|----------| 
|-----|------15-----12--------------|-----------|-----|----20/22-| 
|-19b-|-\14b---\11b---11b-r(11)\9p7-|-(7)--(7)*-|-----|----------| 
|-----|-----------------------------|-----------|-----|----------| 
|-----|-----------------------------|-----------|-----|----------| 
|-----|-----------------------------|-----------|-----|----------| 
 
|-----22-22--22--22~-22~-22~-22/25|(25)/25/25/25--(25)\-------| 
|-(22)-----22--22-----------------|---------------------------| 
|---------------------------------|-----------------------/13-| 
|---------------------------------|---------------------------| 
|---------------------------------|---------------------------| 
|---------------------------------|---------------------------| 
 
|-------------------------------------------|-----------/25-22~~-| 
|------13----------------13-----------------|--/18-15~~----------| 
|-(13)----13\12-10--/13-----13\12-10--(10)\-|--------------------| 
|-------------------------------------------|--------------------| 
|-------------------------------------------|--------------------| 
|-------------------------------------------|--------------------| 
 
|-15-15-15-0-14-15-14-0-14-0-0-14-0-0-14-0-12-12-12-0-10-12-10-0-10-0-0-10-| 
|--------------------------------------------------------------------------| 
|--------------------------------------------------------------------------| 
|--------------------------------------------------------------------------| 
|--------------------------------------------------------------------------| 
|--------------------------------------------------------------------------| 
 .......................................................................... 
 
|-0-0-10-0-|-8-8-8-0-7-8-7-0-7-0-0-7-0-0-5-0-1--1-1-1-1-1-1-1-1-1-1-1-| 
|----------|----------------------------------------------------------| 
|----------|----------------------------------------------------------| 
|----------|----------------------------------------------------------| 
|----------|----------------------------------------------------------| 
|----------|----------------------------------------------------------| 
 ..................................................................... 
 
 
During that last part guitar 2 playes: 
|----------------------------|----------------------------| 
|----------------------------|----------------------------| 
|----------------------------|----------------------------| 
|-(5)b--------------5----[5]-|-(5)b--------------5----[5]-| 
|------7-5-7-7---------------|------7-5-7-7---------------| 
|--------------0-------------|--------------1-------------|

2.WAR NERVE

***TUNE DOWN 1 1/2 STEPS*** 
 
                              |Repete this-------------------------| 
|------------|---------------||-------------------|----------------|| 
|------------|---------------||-------------------|----------------|| 
|------------|---------------||-------------------|----------------|| 
|-/7b---7--5-|-2-----8--7--5-||--2-----/7b---7--5-|-2-----8--7--5--|| 
|--x----x--x-|-2-----x--x--x-||--2------x----x--x-|-2-----x--x--x--|| 
|-/5b---5--3-|-0-----6--5--3-||--0-----/5b---5--3-|-0-----6--5--3--|| 
 
|-----------|--------|------|----------------------------| 
|-----------|--------|------|----------------------------| 
|-----------|--------|------|----------------------------| 
|-2----3--3-|--------|-7--3-|-2-2-2-2--2-2-2-2-2------5b-| 
|-2----3--3-|-10--10-|-7--3-|-2-2-2-2--2-2-2-2-2------x--| 
|-0----1--1-|--8---7-|-5--1-|-0-0-0-0--0-0-0-0-0---x--3b-| 
                              .................. 
 
|----------------------------| 
|----------------------------| 
|----------------------------| 
|-2-2-2-2--2-2-2-2-2------7b-| 
|-2-2-2-2--2-2-2-2-2------x--| 
|-0-0-0-0--0-0-0-0-0---x--5b-| 
  .................. 
 
|----------------------------| 
|----------------------------| 
|----------------------------| 
|-2-2-2-2--2-2-2-2-2------5b-| 
|-2-2-2-2--2-2-2-2-2------x--| 
|-0-0-0-0--0-0-0-0-0---x--3b-| 
  .................. 
 
|----------------------------| 
|----------------------------| 
|----------------------------| 
|-2-2-2-2--2-2-2-2-2------7b-| 
|-2-2-2-2--2-2-2-2-2------x--| 
|-0-0-0-0--0-0-0-0-0---x--5b-| 
  .................. 
 
|----------------------------| 
|----------------------------| 
|----------------------------| 
|-2-2-2-2--2-2-2-2-2------8b-| 
|-2-2-2-2--2-2-2-2-2------x--| 
|-0-0-0-0--0-0-0-0-0---x--6b-| 
  .................. 
 
Play this 4 times 
||-----------------------------|| 
||-----------------------------|| 
||-----------------------------|| 
||-2-2-2-2--2-2-2-2-2-----/13b-|| 
||-2-2-2-2--2-2-2-2-2------x---|| 
||-0-0-0-0--0-0-0-0-0---x-/11b-|| 
   .................. 
 
|--------------------| 
|--------------------| 
|--------------------| 
|-2-2-2-2--2-2-2-2-2-| 
|-2-2-2-2--2-2-2-2-2-| 
|-0-0-0-0--0-0-0-0-0-| 
  .................. 
 
Play this 3 times 
||----------------------------|| 
||----------------------------|| 
||----------------------------|| 
||-2-2-2-2--2-2-2-2-2------3b-|| 
||-2-2-2-2--2-2-2-2-2------x--|| 
||-0-0-0-0--0-0-0-0-0---x--1b-|| 
   .................. 
 
|-----------------------------| 
|-----------------------------| 
|-----------------------------| 
|-2-2-2-2--2-2-2-2-2-----/13b-| 
|-2-2-2-2--2-2-2-2-2------x---| 
|-0-0-0-0--0-0-0-0-0---x-/11b-| 
  .................. 
 
Verse: Play this a bunch 
|-----------------------------| 
|-----------------------------| 
|-----------------------------| 
|-2-2-2-2--2-2-2-2-2-----/13b-| 
|-2-2-2-2--2-2-2-2-2------x---| 
|-0-0-0-0--0-0-0-0-0---x-/11b-| 
  .................. 
 
 
*CHORUS* 
|--------------------|---------------------|--------------------|--------------------| 
|--------------------|---------------------|--------------------|--------------------| 
|--------------------|---------------------|--------------------|--------------------| 
|-----4-4b--4-2h4----|---------------------|------5-7b--7-5h7---|--------------------| 
|--------------------|---------------------|--------------------|--------------------| 
|-0----------------6~|-(6)---6/9--6--3p2-0-|-(0)--------------6~|-(6)--6/9--6--3p2-0-| 
 
|--------------------|---------------------|--------------------|--------------------| 
|--------------------|---------------------|--------------------|--------------------| 
|--------------------|---------------------|--------------------|--------------------| 
|-----4-4b--4-2h4----|---------------------|------5-7b--7-5-----|--------------------| 
|--------------------|---------------------|----------------7---|--------------------| 
|-0----------------6~|-(6)---6/9--6--3p2-0-|-(0)--------------6*|-(6)*---------------| 
 
Play 3 times 
||------------------------------|| 
||------------------------------|| 
||------------------------------|| 
||------------------------------|| 
||------------------------------|| 
||-11b~---0--11----11b~---0--11-|| 
 
|---------------------------| 
|---------------------------| 
|---------------------------| 
|----------------/7b---7--5-| 
|-----------------x----x--x-| 
|-/11b---0--11\--/5b---5--3-| 
 
Play 3 times 
||------------------------------|| 
||------------------------------|| 
||------------------------------|| 
||------------------------------|| 
||------------------------------|| 
||-11b~---0--11----11b~---0--11-|| 
 
|--------------------| 
|--------------------| 
|--------------------| 
|--------------------| 
|-----------9---3--3-| 
|-/11b---0--7---1--1-| 
 
*BRIDGE* 
Play 2 times 
||--------------------------------|--------------------------------|| 
||--------------------------------|--------------------------------|| 
||--------------------------------|--------------------------------|| 
||--------------------------------|--------------------------------|| 
||--------------------------------|--------------------------------|| 
||-0--3-3-3-3-3-3-3p0-3-3-3p0-3-3-|-0--3-3-3-3-3-3-3p0-3-3-3p0-3-3-|| 
   ............................................................... 
 
|-----------------------------|------------------------------| 
|-----------------------------|------------------------------| 
|-----------------------------|------------------------------| 
|-----------------------------|------------------------------| 
|-----------------------7---6-|------------------------------| 
|-0--0-0-0-0-0-0-2h3p2----0---|-0--0-0-0-0-0-0-5h6p5--3-0-3b-| 
  ................                 .............. 
 
 HATE MAIL        NOT READ... 
|---------------|---------------| 
|---------------|---------------| 
|---------------|---------------| 
|---------------|---------------| 
|---------2-3---|---------2-3---| 
|-11\---1-----1-|-11\---1-----1-| 
 
*OUTRO* 
|------------------------|-------------------------|-------------------------| 
|------------------------|-------------------------|-------------------------| 
|------------------------|-------------------------|-------------------------| 
|------------------------|-------------------------|-------------------------| 
|-2-2-2-2-2-2-2--8-8-7-5-|-2-2-2-2-2----8-8-8-7--5-|-2-2-2-2-2-2-2--8-8-7--5-| 
|-0-0-0-0-0-0-0--6-6-5-3-|-0-0-0-0-0-0--6-6-6-5--3-|-0-0-0-0-0-0-0--6-6-5--3-| 
 
|---------------------------|------| 
|---------------------------|------| 
|---------------------------|------| 
|---------------------------|-2----| 
|-2-2-2-2-2-2-2-2-3-3-3-3-3-|-2----| 
|-0-0-0-0-0-0-0-0-1-1-1-1-1-|-0----| 

3.DRAG THE WATERS

*INTRO*
|-------------------|-------------------|-------------------|-------------------|
|-------------------|-------------------|-------------------|-------------------|
|-------------------|-------------------|-------------------|---2b--0-2-0-------|
|-------------------|-------------------|-------------------|-------------2-----|
|-------------------|-------------------|-------------------|-------------------|
|-1-0----0-1-0----0-|-1-0----0-1-0----0-|-1-0----0-1-0----0-|-0--------------5b-|
                                                          .....
|Fig. 1                                                               End Fig. 1|
|--------------------|------------------|-------------------|-------------------|
|*-------------------|------------------|-------------------|------------------*|
|--------------------|---2b--0-2-0------|-------------------|---2b--0-2-0-------|
|--------------------|-------------2----|-------------------|-------------2-----|
|*-3-2------3-2------|------------------|-3-2------3-2------|------------------*|
|--1-0----0-1-0----0-|-0-------------5b-|-1-0----0-1-0----0-|-0-------------5b--|
                   .....                                  .....

*VERSE*
      Smack on the wrists is the words...
|--------------------|-----------------|-----------------|---------------------|
|*-------------------|-----------------|-----------------|---------------------|
|--------------------|-----------------|-----------------|---------------------|
|--------------------|-----------------|-----------------|---------------------|
|*-3-2----X----X-X-X-|--X-X-X----X-X-X-|--X-X-X----X-X-X-|-----5~------7~------|
|--1-0----X----X-X-X-|--X-X-X----X-X-X-|--X-X-X----X-X-X-|-3/5-----5/7-----8-7-|
          ..............................................

|-------------------|-----------------|-----------------|-----------------------|
|-------------------|-----------------|-----------------|----------------------*|
|-------------------|-----------------|-----------------|-----------------------|
|-------------------|-----------------|-----------------|-----------------------|
|-3-2----X----X-X-X-|--X-X-X----X-X-X-|--X-X-X----X-X-X-|-----5~------7~--10-9-*|
|-1-0----X----X-X-X-|--X-X-X----X-X-X-|--X-X-X----X-X-X-|-3/5-----5/7------8-7--|
          ..............................................

*CHORUS*
|------------------|-------------------|------------------|-------------------|
|------------------|-------------------|------------------|-------------------|
|---2b--0-2-0------|-------------------|---2b--0-2-0------|-------------------|
|-------------2----|-------------------|-------------2----|-------------------|
|------------------|-3-2------3-2------|------------------|-3-2------3-2------|
|-X-------------5b-|-1-0----0-1-0----0-|-0-------------5b-|-1-0----0-1-0----0-|
                                     .....                                  ...

|---------------------|---------------------|--------------------------------|
|---------------------|---------------------|--------------------------------|
|---2b--0-2-0---------|---------------------|--------------------------------|
|---------------------|---------------------|--------------------------------|
|-------------1-0-----|-----1-1-----3b------|---------1-1-----1b----1b-------|
|-0----------------1b-|---3-----3-1-------1-|-(1)---3-----3-1-----------1----|
...                         .......                   .......

|-------------------------|----------------------------|------------------------|
|-------------------------|----------------------------|------------------------|
|-------------------------|----------------------------|------------------------|
|-------------------------|----------------------------|------------------------|
|---------1-1-----3b------|--------1-1-----3b---1~-----|---------3-3-----5b-----|
|-(1)b--3-----3-1-------1-|-(1)--3-----3-1-----------3-|-(3)b--5-----5-3-------3|
          .......                  .......                       .......

|------------------------------|-------------------------|------------------------|
|------------------------------|-------------------------|------------------------|
|------------------------------|-------------------------|------------------------|
|------------------------------|-------------------------|-----------------5-7--8-|
|---------3-3-----5b----3b-----|---------3-3-----5b------|---------3-3-----3-5--6-|
|-(3)b--5-----5-3-------------3|-(3)b--5-----5-3-------3-|-(3)b--5-----5-3-3-5--6-|
          .......                        .......                   .......

                         Drag the waters some more...
|--------------------|------------------|-------------------|-------------------|
|--------------------|------------------|-------------------|-------------------|
|--------------------|---2b--0-2-0------|-------------------|---2b--0-2-0-------|
|--------------------|-------------2----|-------------------|-------------2-----|
|--3-2------3-2------|------------------|-3-2------3-2------|-------------------|
|--1-0----0-1-0----0-|-0-------------5b-|-1-0----0-1-0----0-|-0-------------5b--|
                   .....                                  .....

|--------------------|------------------|-------------------|-------------------|
|--------------------|------------------|-------------------|-------------------|
|--------------------|---2b--0-2-0------|-------------------|---2b--0-2-0-------|
|--------------------|-------------2----|-------------------|-------------2-----|
|--3-2------3-2------|------------------|-3-2------3-2------|-------------------|
|--1-0----0-1-0----0-|-0-------------5b-|-1-0----0-1-0----0-|-0-------------5b--|
                   .....                                  .....

*BREAK*
|-----------------------|----------------------------------|-----------------------------|
|--------15---15-----15-|----15----15----------------------|-------17p15p12--17-17p15p12-|
|----x-x-14b----14b-----|-14----14----14-(14)p12-14~~(14)-|-----x-----------------------|
|----x-x----------------|----------------------------------|-----x-----------------------|
|3-2-x-x----------------|----------------------------------|-3-2-x-----------------------|
|1-0--------------------|----------------------------------|-1-0-------------------------|

|----------------------------------------|-------------------|--------------------------|
|-17-17p15p12-17-17p15p12-x-17p15p12-17b~|-------------------|--------------------------|
|----------------------------------------|------2b-(2)--2--0-|-2p0----0-----------------|
|----------------------------------------|-------------------|-----2--------------------|
|----------------------------------------|-3-2---------------|--------------------------|
|----------------------------------------|-1-0---------------|-----------5--(5)b--(5)~~-|

|-------------------|------|
|-------------------|------|
|-------------------|------|
|-------------------|------|
|-3--2--------------|------|
|-1--0--0--0--0--0--|------|
      .......

*SOLO*

|--------------------------------|----------------------------|---------------------------|
|--------------------------------|-7--------------------------|-8---10-8----8------8--8---|
|--------------------7h9-9---7-9-|---9-7---9---7-9-7b--(3)-/9-|---9------9~---9/12---10b--|
|-----5---7--5--7/9--------9-----|-------9---9----------------|---------------------------|
|-5h7---7------------------------|----------------------------|---------------------------|
|--------------------------------|----------------------------|---------------------------|


|-------------------------|-----------------|------------------------------------------|
|-(8)--------------------|-----------------|------------------------------------------|
|(12)----12----14--12-14-|-14%%%%%-(14)p12-|-14b--14b--(14)p12-14-14b--12~~-----(12)/-|
|-------14--(14)--14------|-----------------|------------------------------------------|
|-------------------------|-----------------|------------------------------------------|
|-------------------------|-----------------|------------------------------------------|
|
|Gtr. 2
|-------------------------|-----------------|-----------------------------------------|
|-------------------------|-----------------|-----------------------------------------|
|2b--0--2-0---------------|-----------------|-----------------------------------------|
|-----------2-------------|-----------------|-----------------------------------------|
|-------------------------|-----------------|-----------------------------------------|
|--------------5b---------|-1--0------------|-----------------------------------------|

               ________________________________
|-12--15--12--^------------*T------T------T----|-15b--------------(15)-|
|---15--15--15b---15~------19-15--20-15--19-15-|------------------------|
|----------------------------------------------|------------------------|
|----------------------------------------------|------------------------|
|----------------------------------------------|------------------------|
|----------------------------------------------|------------------------|
|[Gtr. 2.]                 *Hold bend while tapping
|----------------------------------------------|------------------------|
|----------------------------------------------|------------------------|
|----------------------------------------------|------2b--0-2-0---------|
|----------------------------------------------|----------------2-------|
|----------------------------------------------|------------------------|
|----------------------------------------------|---------------------5b-|

|-----12------------12-----------12------|------12-----------12----------12-----------12------|
|-------15p12-15b~----15p12-15b----15p12-|--------15p12-15b----15p12-------15p12-15b----15p12-|
|-/12------------------------------------|-14b----------------------14b-----------------------|
|----------------------------------------|----------------------------------------------------|
|----------------------------------------|----------------------------------------------------|
|----------------------------------------|----------------------------------------------------|
|[Gtr.2]
|----------------------------------------|----------------------------------------------------|
|----------------------------------------|----------------------------------------------------|
|----------------------------------------|----------------------------------------------------|
|----------------------------------------|----------------------------------------------------|
|----------------------------------------|----------------------------------------------------|
|-1--0----0---------0--------0----0------|----0-----------0---0-----------0--------0---0------|
                    ....................................................................

|-15b---------(15)~~~~~-|--------------------------|---15-17-18-19-19b-------|
|-----------------------|------------------------10/17-------------------/17-|
|-----------------------|--------------------------|-------------------------|
|-----------------------|--------------------------|-------------------------|
|-----------------------|--------------------------|-------------------------|
|-----------------------|--------------------------|-------------------------|
|[Gtr. 2]
|-----------------------|--------------------------|-------------------------|
|-----------------------|--------------------------|-------------------------|
|-----------------------|---2b--0-2-0--------------|-------------------------|
|-----------------------|-------------2------------|-------------------------|
|-----------------------|-x------------------------|-------------------------|
|--0--0--0-----0--0--0--|-x--------------5b--------|-1--0----0------0--0--0--|
   ........................

|-15--17--18--19-(19)~------|-19--20--21--22--22b----22-22b-|----------(22)--|
|---17--17--17----------/20-|---20--20--20--20--------------|----------------|
|---------------------------|-------------------------------|----------------|
|---------------------------|-------------------------------|----------------|
|---------------------------|-------------------------------|----------------|
|---------------------------|-------------------------------|----------------|
|[Gtr. 2]
|---------------------------|-------------------------------|----------------|
|---------------------------|-------------------------------|----------------|
|---------------------------|-------------------------------|-2b--0-2-0------|
|---------------------------|-------------------------------|-----------2----|
|---------------------------|-------------------------------|----------------|
|---0--0--0------0--0--0----|-----0--0--0--------0--0---0---|--------------5b|

  Yeah      Ha          Drag the waters some more...
|-22b~~~-----22b^^--|------------------|-------------------|-------------------|
|--------------------|------------------|-------------------|-------------------|
|--------------------|------------------|-------------------|-------------------|
|--------------------|------------------|-------------------|-------------------|
|--------------------|------------------|-------------------|-------------------|
|--------------------|------------------|-------------------|-------------------|
|[Gtr. 2]
|--------------------|------------------|-------------------|-------------------|
|--------------------|------------------|-------------------|-------------------|
|--------------------|---2b--0-2-0------|-------------------|---2b--0-2-0-------|
|--------------------|-------------2----|-------------------|-------------2-----|
|--3-2------3-2------|------------------|-3-2------3-2------|-------------------|
|--1-0----0-1-0----0-|-0-------------5b-|-1-0----0-1-0----0-|-0-------------5b--|
                   .....                                  .....
                                            _____________
|--------------------|------------------|---^---------------|
|--------------------|------------------|---^---------------|
|--------------------|------------------|-7b^--7------7-(7)-|
|--------------------|------------------|-------------------|
|--------------------|------------------|-------------------|
|--------------------|------------------|-------------------|
|
|--------------------|------------------|-------------------|
|--------------------|------------------|-------------------|
|--------------------|---2b--0-2-0------|-------------------|
|--------------------|-------------2----|-------------------|
|--3-2------3-2------|------------------|-3-2------3-2------|
|--1-0----0-1-0----0-|-0-------------5b-|-1-0----0-1-0----0-|
                     

|-------------------|---------------------|------------------|
|-------------------|---------------------|------------------|
|--12-14-14b-14-14b-|14b-------(14)~~~----|--(14)~~~----(14)|
|-------------------|---------------------|------------------|
|-------------------|---------------------|------------------|
|-------------------|---------------------|------------------|
|
|-------------------|---------------------|------------------|
|-------------------|---------------------|------------------|
|----2b--0-2-0------|---------------------|---2b--0-2-0------|
|--------------2----|---------------------|-------------2----|
|-------------------|-3-2-------3-2-------|------------------|
|-0---------------5-|-1-0---0-0-1-0---0-0-|-0-------------5b-|
                            ...       .......

|------------------------|---------------15b|-----------15b--12-----|
|------------------------|------------------|--------------------15b|
|------------------------|------------------|-----------------------|
|------------------------|------------------|-----------------------|
|------------------------|------------------|-----------------------|
|------------------------|------------------|-----------------------|
|
|------------------------|------------------|-----------------------|
|------------------------|------------------|-----------------------|
|------------------------|---2b--0-2-0------|-----------------------|
|------------------------|-------------2----|-----------------------|
|--3-2--------3-2--------|------------------|-3-2--------3-2--------|
|--1-0-0--0-0-1-0-0--0-0-|-0-------------5b-|-1-0-0--0-0-1-0-0--0-0-|
       ......     ..........                      ......     ......


|-------------------|-----------------------|-17b-15-17p15----------|
|-(15)~~------------|-----------------------|--------------17-17----|
|-------------------|-----------------------|--------------------14-|
|-------------------|-----------------------|-----------------------|
|-------------------|-----------------------|-----------------------|
|-------------------|-----------------------|-----------------------|
|
|-------------------|-----------------------|-----------------------|
|-------------------|-----------------------|-----------------------|
|----2b--0-2-0------|-----------------------|---2b--0-2-0-----------|
|--------------2----|-----------------------|-------------2---------|
|-------------------|-3-2--------3-2--------|-----------------------|
|-0---------------5-|-1-0-0--0-0-1-0-0--0-0-|-0-------------5-------|
                          ......     ..........

   (lyric ad lib)                             ha  huh   ha   huh
|---------------|----------------|---------------|---------------|
|---------------|----------------|---------------|---------------|
|-(14)b~~~------|----------------|---------------|---------------|
|---------------|----------------|---------------|---------------|
|---------------|----------------|---------------|---------------|
|---------------|----------------|---------------|---------------|
|
|---------------|----------------|---------------|---------------|
|---------------|----------------|---------------|---------------|
|---------------|----------------|---------------|---------------|
|---------------|----------------|---------------|---------------|
|---------------|------------x-x-|---------------|---------------|
|-(5)*-(5)--(5)-|-(5)--------x-x-|-1-0--0-1-0--0-|-1-0--0-1-0--0-|
*Use bar to raize each time
                                    
|---------------|------------------|
|---------------|------------------|
|---------------|---2b--0-2-0------|
|---------------|-------------2----|
|---------------|------------------|
|-1-0--0-1-0--0-|-0-------------5b-|

*OUTRO*
|--------------------|------------------|-------------------|-------------------|
|--------------------|------------------|-------------------|-------------------|
|--------------------|---2b--0-2-0------|-------------------|---2b--0-2-0-------|
|--------------------|-------------2----|-------------------|-------------2-----|
|--3-2------3-2------|------------------|-3-2------3-2------|-------------------|
|--1-0----0-1-0----0-|-0-------------5b-|-1-0----0-1-0----0-|-0-------------5b--|
                   .....                                  .....

                                                           in with it out with it...
|--------------------|------------------|--------------------|----------------|
|--------------------|------------------|--------------------|----------------|
|--------------------|---2b--0-2-0------|--------------------|----------------|
|--------------------|-------------2----|--------------------|----------------|
|--3-2------3-2------|------------------|-3-2------3-2-------|-5-7-8--7--8--9-|
|--1-0----0-1-0----0-|-0-------------5b-|-1-0----0-1-0----0-0|-3-5-6--5--6--7-|
                   .....                                  

|--------------------|------------------|--------------------|----------------|
|--------------------|------------------|--------------------|----------------|
|--------------------|---2b--0-2-0------|--------------------|----------------|
|--------------------|-------------2----|--------------------|----------------|
|--3-2------3-2------|------------------|-3-2------3-2-------|-5-7-8--7--8--9-|
|--1-0----0-1-0----0-|-0-------------5b-|-1-0----0-1-0----0-0|-3-5-6--5--6--7-|
                   .....                                  

|--------------------|------------------|--------------------|----------------|
|--------------------|------------------|--------------------|----------------|
|--------------------|---2b--0-2-0------|--------------------|----------------|
|--------------------|-------------2----|--------------------|----------------|
|--3-2------3-2------|------------------|-3-2------3-2-------|-5-7-8--7--8--9-|
|--1-0----0-1-0----0-|-0-------------5b-|-1-0----0-1-0----0-0|-3-5-6--5--6--7-|
                   .....                                  

|--------------------|------------------|-------------------|-------------------|
|--------------------|------------------|-------------------|-------------------|
|--------------------|---2b--0-2-0------|-------------------|---2b--0-2-0-------|
|--------------------|-------------2----|-------------------|-------------2-----|
|--3-2------3-2------|------------------|-3-2------3-2------|-------------------|
|--1-0----0-1-0----0-|-0-------------5b-|-1-0----0-1-0----0-|-0-------------5b--|
                   .....                                  .....

4.10'S

tune down 1 1/2 steps 
 
*VERSE* 
Repeat a whole bunch 
||----------------------------2--|-----------------------2--|| 
||----------------------------2--|-----------------------2--|| 
||----------------------------2--|-----------------------2--|| 
||--4-4b--4--4--4--4--4-------4--|--4-4b--4--4--4--4--4--4--|| 
||-----------------------4-------|-----------------------4--|| 
||-----------------------2-------|-----------------------2--|| 
 
 
*CHORUS* 
||------------------------|-----------------------------| 
||------------------------|-----------------------------| 
||------------------------|--------------------0--------| 
||----------2--4b-----(4)-|----------2-2-(2)-----2-(2)r-| 
||--------2---------------|--------2--------------------| 
||-0--2/4-----------------|-0--2/4----------------------| 
 
|------------------------|-----------------------------|| 
|------------------------|-----------------------------|| 
|------------------------|-----------------------------|| 
|----------2--4b-----(4)-|----------2-2-(2)-------(2)r-|| 
|--------2---------------|--------2--------------------|| 
|-0--2/4-----------------|-0--2/4----------------------|| 
 
*BRIDGE* 
Gtr. 2 (Acoustic) 
|------------------------------0-----| 
|------3--------3-----3----------3---| 
|--------0----0---------0----------0-| 
|---4------------------------4-------| 
|-2----------------------------------| 
|-----------2------3-------0---------| 
 
 
Gtr.3 
|---------|-------------|--------------------------| 
|-----11b-|-(11)\7--8\3-|-/12~~----7--10-(10)b~~~~-| 
|---------|-------------|--------------------------| 
|---------|-------------|--------------------------| 
|---------|-------------|--------------------------| 
|---------|-------------|--------------------------| 
| 
|Gtr.4 
|---------|-------------|--------------------------| 
|---------|-------------|--------------------------| 
|-----10b-|-(10)\6--7\2-|-/11~~----6--2b~~~~-------| 
|---------|-------------|--------------------------| 
|---------|-------------|--------------------------| 
|---------|-------------|--------------------------| 
 
 
*SOLO* 
|----------------------------------|------------------------------------|---------------12----| 
|----------------------------------|------------------------------------|-10------10------12b-| 
|-9b-r-b------12p9----(9r)p7-9b----|-7~~----9-9p7---7b-----7~~---x--/11-|------/11------------| 
|----------------------------------|--------------9----9p7--------------|---------------------| 
|----------------------------------|------------------------------------|---------------------| 
|----------------------------------|------------------------------------|---------------------| 
 
|------------------------------|--------------------------------------------| 
|-(12r)--10h12-----10--7---(7)-|-17b-r-b-------(17r)--x-17b~~---15-17b--15b-| 
|-------------11b------9b--(9)-|--------------------------------------------| 
|------------------------------|--------------------------------------------| 
|------------------------------|--------------------------------------------| 
|------------------------------|--------------------------------------------| 
 
|--------------------------------------------------------------------------------| 
|-17-17p15----15-15--------------------------------------------------------------| 
|----------16-------16p14-16-16p14----14-14--------------------------------------| 
|----------------------------------16-------16p14-16-16p15----15-15p14----14\12*-| 
|----------------------------------------------------------17----------16--------| 
|--------------------------------------------------------------------------------| 
 
|-----------------------------------------------------| 
|-----------------------------------------------------| 
|------------------[7]----------[7]-------------------| 
|-(12)*----(12)---------9-----------9p7---7-----------| 
|---------------------------------------9----9\7---5b-| 
|-----------------------------------------------------| 
 
|---------------------------------------------------------------------------------------| 
|---------------------------------------14h15p14h15p14--14-17p14-17p14---15p14-15p14----| 
|--------------------14----16--14--16b-----------------------------------------------17-| 
|------12----14-/16-----16--------------------------------------------------------------| 
|-/14-----14----------------------------------------------------------------------------| 
|---------------------------------------------------------------------------------------| 
 
 
|-----------------------14---------------------17b~~---(17r)b~~---------(17)\----| 
|-14p13-------------14------17p14------------------------------------------------| 
|-------16p14-16b----------------16b--(16r)p14-----------------------------------| 
|--------------------------------------------------------------------------------| 
|--------------------------------------------------------------------------------| 
|--------------------------------------------------------------------------------| 
| 
|Gtr. 2 
|--------------------------------------------------0---------------------0-------| 
|----------------------------------3-----------------3------------3--------3---3-| 
|-----------------------------------------------0------0------------0--------0---| 
|-----------------4--------------------------------------------4-----------------| 
|--------------------------------------------------------------------------------| 
|-3-------------------------------------------------------2----------------------| 
 
 
|-22~~--------------------------------------------------------------------| 
|------------------22~~---------20p19-20p19-20b~~-----------------------x-| 
|-------------------------------------------------------------------------| 
|-------------------------------------------------------------------------| 
|-------------------------------------------------------------------------| 
|-------------------------------------------------------------------------| 
| 
|Gtr. 2 
|-------------------------------------------------------------------------| 
|-----7----------------7---------------------7---------------5------------| 
|---------7---7------------7---7-----------------7---7------------6-------| 
|--0-------------------------------------------------------------------7--| 
|-------------------4------------------------------------0----------------| 
|--------------------------------------7----------------------------------| 
 
 
|-22b----------(22r)~~-------22p19-22p19-------------------------------------------| 
|----------------------------------------22p19-------------------------------------| 
|----------------------------------------------22p21p19-22p21p19-------------------| 
|----------------------------------------------------------------21p19-------------| 
|----------------------------------------------------------------------21p20p19----| 
|-------------------------------------------------------------------------------22-| 
| 
|Gtr. 2 
|-----------------0----------------------------------------------------------------| 
|---------3----------3--------------------3--------------------------3-------------| 
|------------0----------0--------------------0-------------------------------4-----| 
|------4-------------------4----------4---------------------4----------------------| 
|---------------------------------------------------1------------------------------| 
|--3------------------------------2------------------------------------------------| 
 
 
|--------------------------------------------|--------------------------------------| 
|--------------------------------------------|--------------------------------------| 
|--------------------------------------------|--------------------------------------| 
|--------------------------------------------|--------------------------------------| 
|--------------------------------------------|--------------------------------------| 
|-19~~-------------(19)\--------22---(22)\---|--22---(22)\----22--(22)\-------------|

5.13 STEPS TO NOWHERE

**TUNE DOWN 1 1/2 STEPS** 
 
Intro After Drums 
|Play 3 times-------------| 
||----------------|------||--------------------------------------| 
||----------------|------||--------------------------------------| 
||----------------|------||--------------------------------------| 
||-2--------------|-2----||--------------------------------5---7-| 
||-2---8-----(8)\-|-2----||-2------------------5---7-5-6-7---7---| 
||-0---6-----(6)\-|-0----||-0-------/7---5-6-7---7---------------| 
                                         ....................... 
 
|-------------------------------------| 
|-------------------------------------| 
|----------------------------12----14-| 
|----------12----14-12-13-14----14----| 
|-12-13-14----14----------------------| 
|-------------------------------------| 
  ................................... 
 
*VERSE* 
||--------------------------------|-------------------------------------|| 
||--------------------------------|-------------------------------------|| 
||--------------------------------|-------------------------------------|| 
||-2----------------------0-------|--2----------------------------5---7-|| 
||-2---8--(8)\--------1h2---1p0---|--2---8\-----------5---7-5-6-7---7---|| 
||-0---6--(6)\------0-----------3-|--0---6\-----5-6-7---7---------------|| 
                                                ....................... 
 
*CHORUS* 
Thir-teen    Thir-teen... 
|------------------------------------------------|-----------------------------| 
|------------------------------------------------|-----------------------------| 
|------------------------------------------------|-----------------------------| 
|-8--8---x-x-8---8---x-x-8---8---x-x-8---8---x-x-|---8---8---x-x-8---8---x-x-8-| 
|-8--8---x-x-8---8---x-x-8---8---x-x-8---8---x-x-|---8---8---x-x-8---8---x-x-8-| 
|-6--6---x-x-6---6---x-x-6---6---x-x-6---6---x-x-|---6---6---x-x-6---6---x-x-6-| 
 
|----------------------| 
|----------------------| 
|----------------------| 
|----------------------| 
|-5h7-7-5h7-7-5h7-7-7\-| 
|----------------------| 
 
 
*BRIDGE* 
                       Your backlash dislocates... 
|---------------------|----------------------------------------| 
|---------------------|----------------------------------------| 
|---------------------|----------------------------------------| 
|---------------------|----------------------------------------| 
|------------5b---2~~-|----------------------------------------| 
|-4b---1~~------------|-1-4-5-6\--1-4-5-6\--1-4-5-6\--1-4-5-6\-| 
 
|----------------------------------------|---------------| 
|----------------------------------------|---------------| 
|----------------------------------------|---------------| 
|----------------------------------------|---------------| 
|----------------------------------------|---------5---2-| 
|-1-4-5-6\--1-4-5-6\--1-4-5-6\--1-4-5-6\-|-4---1---------| 
 
|----------------------------------------|------------------------------------------| 
|----------------------------------------|------------------------------------------| 
|----------------------------------------|------------------------------------------| 
|----------------------------------------|------------------------------------------| 
|----------------------------------------|------------------------------------------| 
|-1-4-5-6\--1-4-5-6\--1-4-5-6\--1-4-5-6\-|-1-4-5-6\--1-4-5-6\--1-4-5-6\----1-4-5-6\-| 
 
|---------------------|----------------------------------------| 
|---------------------|----------------------------------------| 
|---------------------|----------------------------------------| 
|-------------6----4--|----------------------------------------| 
|-------------4----2--|----------------------------------------| 
|-4b---1~~----4----2--|-1-4-5-6\--1-4-5-6\--1-4-5-6\--1-4-5-6\-| 
 
|----------------------------------------|-----------------| 
|----------------------------------------|-----------------| 
|----------------------------------------|-----------------| 
|----------------------------------------|-----------------| 
|----------------------------------------|---------5---[2]-| 
|-1-4-5-6\--1-4-5-6\--1-4-5-6\--1-4-5-6\-|-4---1-----------| 
 
|----------------------------------------|----------------------------------------| 
|----------------------------------------|----------------------------------------| 
|----------------------------------------|----------------------------------------| 
|----------------------------------------|----------------------------------------| 
|----------------------------------------|----------------------------------------| 
|-1-4-5-6\--1-4-5-6\--1-4-5-6\--1-4-5-6\-|-1-4-5-6\--1-4-5-6\--1-4-5-6\--1-4-5-6\-| 
 
Two Guitars 
|---------------|---------------|----------------------16~~-|--------------------------| 
|---------------|---------------|---------------------------|--------------------7b~~--| 
|-1-------4---1-|-4-------7---4-|---------------------------|--------------------------| 
|-----3---------|-----6---------|---------------------------|--------------------------| 
|---------5---2-|---------5---2-|-------------5----2--------|-----------5----2---------| 
|-4---1---------|-4---1---------|---4----1------------------|-4----1-------------------| 
 
|-------------------------| 
|--------------------12~~-| 
|-------------------------| 
|-------------------------| 
|-----------5----2--------| 
|-4----1------------------| 
 
|-------------------17b~~-| 
|-------------------------| 
|-------------------------| 
|-------------------------| 
|-----------5----2--------| 
|-4----1------------------| 
 
|-------------------17~---| 
|-------------------------| 
|-------------------------| 
|-------------------------| 
|-----------5----2--------| 
|-4----1------------------| 
 
|-------------------------| 
|--------------------7b~~-| 
|-------------------------| 
|-------------------------| 
|-----------5----2--------| 
|-4----1------------------| 
 
|-------------------------| 
|--------------------12~~-| 
|-------------------------| 
|-------------------------| 
|-----------5----2--------| 
|-4----1------------------| 
 
|------------------17b--(17r)-| 
|-----------------------------| 
|-----------------------------| 
|-----------------------------| 
|-----------5----2------------| 
|-4----1----------------------| 
 
|--------------------------| 
|--------------------17b~~-| 
|--------------------------| 
|--------------------------| 
|-----------5----2---------| 
|-4----1-------------------| 
 
|-----------20b--|----------------------|------------------------------| 
|-----------23b--|----------------------|------------------------------| 
|----------------|----------------------|------------------------------| 
|----------------|----------------------|-2----------------------------| 
|----------------|-5h7-7-7-7-7-7-7-7-7\-|-2---8---5h7-7-7-7-7-7-7-7-7\-| 
|-4----1---------|----------------------|-0---6------------------------| 
 
|-----------------------------|------------------------------|------------------------------| 
|-----------------------------|------------------------------|------------------------------| 
|-----------------------------|------------------------------|------------------------------| 
|-2---------------------------|-2----------------------------|-2----------------------------| 
|-2---8---5h7-7-5h7-7-5h7-7-7-|-2---8---5h7-7-7-7-7-7-7-7-7\-|-2---8---5h7-7-5h7-7-5h7-7-7\-| 
|-0---6-----------------------|-0---6------------------------|-0---6------------------------| 
 
|------------------------------------------|-----------------------------| 
|------------------------------------------|-----------------------------| 
|------------------------------------------|-----------------------------| 
|-8--8---x-x-8---8---x-x-8---8---x-x-8---8-|---8---8-------8---8-------8-| 
|-8--8---x-x-8---8---x-x-8---8---x-x-8---8-|---8---8-------8---8-------8-| 
|-6--6---x-x-6---6---x-x-6---6---x-x-6---6-|---6---6-------6---6-------6-|

6.SUICIDE NOTE PT.1

*** DROP D TUNING *** 
6=D  3=G 
5=A  2=B 
4=D  1=E 
 
12 string acoustic 
|Riff A-------------------------|Gtr. 2 w/Riff A 
||-----------------------------||----------------------------------------3-| 
||-----------------------------||-------------3---------------3-----3----3-| 
||-----------------------------||-9/10---7/9-----5/7-----3/5-----3----3----| 
||----3/5-3--2h3-2-----0-----0-||------------------------------------------| 
||-----------------0h1---1/3---||------------------------------------------| 
||-0---------------------------||------------------------------------------| 
 
*VERSE* 
Fig. 1 
||-------------------------------|----------------------------------| 
||*-2-----2-2-0----0-2-----2-2-0-|-2------2----0----2----2----2-0-0-| 
||--0-----0-0-0----0-0-----0-0-0-|-0------0----0----0----0----0-0-0-| 
||*-0---0-0---0------0---0-0---0-|-0---0--0----0----0----0----0-0-0-| 
||--5---5-5---5------5---5-5---5-|-5---5--5----5----5----5----5-5-5-| 
||--5---5-4---5------5---5-5---5-|-5---5--5----5----5----5----5-5-5-| 
 
                                                            End Fig. 1 
|----------------------------------|----------------------------------| 
|----------------------------------|----------------------------------| 
|--------------------------0-------|--------------------------0-------| 
|----4/5-4----2/4-2--------0-----0-|----4/5-4----2/4-2--------0-----0-| 
|----------------------0h2---2/4---|----------------------0h2---2/4---| 
|-0--------------------------------|-0--------------------------------| 
 
*Pre Chorus* 
When im hiding  when i need it..... 
|--------3----------------------3--3----------|----------------------------| 
|--------3----------------------3--3----------|----------------------------| 
|--------0----------------------0--0h2--------|--------------------------0-| 
|-0---0--0-------0---0-------0--0--0--2b--(2)-|----4h5-4h5-2----4h5-4--2-0-| 
|-x---x----------x---x-------x-----x--x-------|--------------------------x-| 
|-3---3----------3---3-------3-----3--3b--(2)-|-0------------0-----------3-| 
 
|-----------3--------------------3--3---------|---------------2--| 
|-----------3--------------------3--3---------|---------------3--| 
|-(0)-------0----0---------------0--0h2-------|---------------2--| 
|-(0)-0--0--0----0----0----0--0--0--0--2b-(2)-|----4h5-4p0-2--0--| 
|-----x--x------------x----x--x--------x------|------------------| 
|-(3)-3--3------------3----3--3--------3b-(2)-|-0----------------| 
 
*CHORUS* 
|-2----2---2--2-----------------------|----2------2----------------------------| 
|-3----3---3--3-----3---3--3--3--3--3-|----3------3----------3----3--3--3----3-| 
|-2----2---2--2-----0---0--0--0--0--0-|----2------2------2---0----0--0--0----0-| 
|-0----0---0--0--0--0---0--0-----0--0-|-0--0------0------0---0----0-----0----0-| 
|-0----0---------x---------x-----x--x-|-0---------0----------x----------x------| 
|-0----0---------3---------2-----2--2-|-0---------0----------2----------3------| 
 
|----2----2----2--2----------------------|-2--2----2--2----2-------------------------| 
|----3----3----3--3--3--3----3--3--3---3-|-3--3----3--3----3--3--3---3-----3----3--3-| 
|----2----2----2--2--0--0----0--0--0---0-|-2--2----2--2----2-----0---0-----0----0--0-| 
|-0--0----0----0--0--0--0----0--0--0---0-|-0--0----0--0----0-----0---0-----0----0--0-| 
|-0-------0----------x----------x--------|-0----------0----------x---------x---------| 
|-0-------0----------3----------2--------|-0----------0----------2---------3---------| 
 
Riff A then: 
 
|------------------------------|---------------2-| 
|------------------------------|---------------3-| 
|----------------------0-------|---------------2-| 
|----3/5-3--2/3-2------0-----0-|---4h5-3----2--0-| 
|------------------0h1---1/3---|-----------------| 
|-0----------------------------|-0---------------| 
 
*OUTRO* 
Riff A then: 
Play this with Riff A: 
*fill 1* 
|------------------------------------|----------------------------------| 
|------------------------------------|----------------------------------| 
|---[7]~~~-------5~~~---(5)/9b--(9r)-|---------9b-(9r)------------------| 
|--x---------------------------------|-9~~~-------------8~~~------(8)\5-| 
|-x----------------------------------|----------------------------------| 
|------------------------------------|----------------------------------| 
 
|-------------------------------|-------------------------|-----| 
|----------------------8--------|-------------------------|-----| 
|-5/7----[7]~~~---5----9b--(9r)-|---------9------------4*-|-(4)-| 
|-------------------------------|-9~~~----------8---------|-----| 
|-------------------------------|-------------------------|-----| 
|-------------------------------|-------------------------|-----| 
 
Last note in song: 
|-1-| 
|-3-| 
|-2-| 
|-0-| 
|-0-| 
|-0-|

7.SUICIDE NOTE PT.2

* = Whammy pedal


Riff A
			 *    *    * *                  *    *    * *
|------------------6----6----6-6------------------6----6----6-6---|
|-----------------------------------------------------------------|
|-----------------------------------------------------------------|
|-----------------------------------------------------------------|
|-----------------------------------------------------------------|
|---00000000000--------------------00000000000--------------------|
Repeat 2x

Riff B
			 * * * * *                 * * * * *
|------------------6-6-6-6-6-----------------6-6-6-6-6------------|
|-----------------------------------------------------------------|
|-----------------------------------------------------------------|
|-----------------------------------------------------------------|
|-----------------------------------------------------------------|
|----00000000000---------------00000000000------------------------|
Repeat 2x

Riff C

|-----------------------------------------------------------------|
|-----------------------------------------------------------------|
|-----------------------------------------------------------------|
|-----------------------------------------------------------------|
|-0-----------3/5---3/5---3/5-----0-----------3/5---3/5---3/5-----|
|-0---0-0-0-0-3/5-0-3/5-0-3/5-0-0-0---0-0-0-0-3/5-0-3/5-0-3/5-----|
Repeat 2x

Riff D

|-----------------------------------------------------------------|
|-----------------------------------------------------------------|
|-----------------------------------------------------------------|
|-----------------------------------------------------------------|
|---5-----10-----3--------3-3--5----------------------------------|
|---5-----10-----3--------3-3--5----------------------------------|


Riff E

|------------------------------------------------------------------------|
|------------------------------------------------------------------------|
|------------------------------------------------------------------------|
|------------------------------------------------------------------------|
|-----------1----0------------3/5/8------------1----0------------3/5/6---|
|-0----0----1----0----0-0-0-0-3/5/8--0----0----1----0----0-0-0-0-3/5/6---|

8.LIVING THROUGH ME(HELL'S WRATH)

Tuning = D (D,G,C,F,A,D)

Riff A.1
|---------------------------------------------------|
|---------------------------------------------------|
|---------------------------------------------------|Gtrs I
|-4-----4---4-----4---4-------------4-----4---4-----|  & II
|-4-----4---4-----4---4-------------4-----4---4-----|
|-2-2-2-2-2-2-2-2-2-2-2-2-2222-2222-2-2-2-2-2-2-2-2-|
pm  . .   .   . .   .   . .... ....   . .   .   . .

Riff A.2
|---------------|
|---------------|
|---------------|Gtr I
|-4-------------|
|-4-------------|
|-2/4/18fb---\0-|
|               |
|---------------|
|---------------|
|---------------|Gtr II
|-4-------------|
|-4-------------|
|-2/4/14fb---\0-|

Riff B.1
|-----------------------------------|
|-----------------------------------|
|-----------------------------------|Gtrs I
|-2-----2---2-----2---2-------------|  & II
|-2-----2---2-----2---2---2222-3333-|
|-0-0-0-0-0-0-0-0-0-0-0-0-0000-1111-|
pm  . .   .   . .   .   . .... ....

Repeat Riff B.1 (3 times)

|----------------------|
|----------------------|
|----------------------|Gtrs I
|----------------------|  & II
|----------------------|
|-0000-0-5hb---3---5hb-|

Repeat Riff B.1 (4 times)

Riff C.1
|----------------------------------|
|----------------------------------|
|----------------------------------|Gtrs I
|----------------------------------|  & II
|-9-----8-888-7---7-5-555-555-4----|
|-7-7-7-6-666-5-5-5-3-333-222-2----|
pm  . .   ...   .   . ... ...

Riff D.1
|-------------------------------------------------------------------|
|-------------------------------------------------------------------|
|-------p-------------------p------------p-------------------p------|Gtrs I
|------2-0----------p------5-0-1/2------2-0----------p------5-0-7/8-|  & II
|------------1/2---5-0-1/2--------------------1/2---5-0-1/2---------|
|-0--------0-----0-----------------0--------0-----0-----------------|

Riff D.2
|-------------------------------------------------------------------|
|-------------------------------------------------------------------|
|-------p-------------------p------------p-------------------p------|Gtrs I
|------2-0----------p------5-0-1/2------2-0----------p------5-0-8\7-|  & II
|------------1/2---5-0-1/2--------------------1/2---5-0-1/2---------|
|-0--------0-----0-----------------0--------0-----0-----------------|

Riff A.3
|-------------------------------------|
|-------------------------------------|
|-------------------------------------|Gtr I
|-4-----4---4-----4---4---------------|
|-4-----4---4-----4---4---------------|
|-2-2-2-2-2-2-2-2-2-2-2-(2)/17~----\0-|
                                      |
|-------------------------------------|
|-------------------------------------|
|-------------------------------------|Gtr II
|-4-----4---4-----4---4---------------|
|-4-----4---4-----4---4---------------|
|-2-2-2-2-2-2-2-2-2-2-2-(2)/21~----\0-|

Repeat riff B.1 (4 times)

Riff E.1
|-------------------------|
|-------------------------|
|-------------------------|Gtrs I
|-4----4-4----4----4-4----|  & II
|-4----4-4----4----4-4----|
|-2----2-2----2----2-2----|

Repeat Riff E.1 (1 time)
Repeat Riff B.1 (4 times)
Repeat Riff C.1 (1 time)
Repeat Riff D.1 (1 time)
Repeat Riff D.2 (1 time)
Repeat Riff D.1 (1 time)
Repeat Riff D.2 (1 time)

Riff F.1
|----------------------------------------------------|
|----------------------------------------------------|
|-----------------------------------------p----------|Gtrs I
|----------------------------------------2-0---------|  & II
|-2-----1-----0-----4-----5----6---------------1/2---|
|-3-----2-----1-----5-----6----7----0--------0-----0-|

Riff F.2
|-----------------|
|-----------------|
|-----------------|Gtrs I
|--p-------p------|  & II
|-5-0-1/2-5-0-1/2-|
|-----------------|

Repeat Riff F.1 (1 time)

Riff F.3
|-----------------|
|-----------------|
|----------p------|Gtrs I
|--p------5-0-1/2-|  & II
|-5-0-1/2---------|
|-----------------|

Repeat Riff F.1 (1 time)

Riff F.4
|-----------------|
|-----------------|
|--p-------p------|Gtrs I
|-5-0-1/2-5-0-1/2-|  & II
|-----------------|
|-----------------|

Riff F.5
|---------------------------------------------------------------------|
|---------------------------------------------------------------------|
|---------------------------------------------------------------------|Gtrs I
|---------------------------------------------------------------------|  & II
|-2-----1-----0-----4-----5----6--------------------------------------|
|-3-----2-----1-----5-----6----7----3-----2-----1----(1)/7-----6----5-|

Repeat Riff C.1 (1 time)

Riff G.1
|-------------------------------------|
|-------------------------------------|
|-------------------------------------|Gtrs I
|-2----2----2----(2)----(2)----(2)----|  & II
|-2----2----2----(2)----(2)----(2)----|
|-0----0----0----(0)----(0)----(0)----|
            ^
Riff G.2 *fade in with volume knob
|-------|
|-------|
|--*----|Gtr I
|-7-----|
|-------|
|-------|

Riff G.3   **bend (1/4 step)
|------------------------------------|
|---------------------/6fb-----------|
|-5-----(5)b**--2---------------2----|Gtrs I
|------------------------------------|
|------------------------------------|
|------------------------------------|
|                                    |
|------------------------------------|
|------------------------------------|
|---------------------/7fb-----------|Gtrs II
|-7-----(7)b**--4---------------4----|
|------------------------------------|
|------------------------------------|

Repeat Riff G.3 (4 times)

Riff G.4
|-----------------------------------------------------------|
|-----------------------------------------------------------|
|-----------------------------------------------------------|Gtrs I
|-444-444-444-444-444-444-4----555-555-555-555-555-555-5----|  & II
|-333-333-333-333-333-333-3----444-444-444-444-444-444-4----|
|-222-222-222-222-222-222-2----333-333-333-333-333-333-3----|

Riff G.5                                               *dive w/bar 1�step
|--------------------------------------------------------------------|
|--------------------------------------------------------------------|
|--------------------------------------------------------------------|Gtrs I
|-666-666-666-666-666-666-6----777-777-777-777-888-888-8--9--9-------|  & II
|-555-555-555-555-555-555-5----666-666-666-666-777-777-7--8--8-------|
|-444-444-444-444-444-444-4----555-555-555-555-666-666-6--7--7--7d*--|

Riff A.4
|-----------------------------------|
|-----------------------------------|
|-----------------------------------|Gtrs I
|-4-----4---4-----4---4-------------|  & II
|-4-----4---4-----4---4-------------|
|-2-2-2-2-2-2-2-2-2-2-2-2-2222-2222-|
pm  . .   .   . .   .   . .... ....

Repeat Riff B.1 (4 times)
Repeat Riff E.1 (1 time)
Repeat Riff B.1 (2 times)
Repeat Riff C.1 (1 time)
Repeat Riff D.1 (1 time)
Repeat Riff D.2 (1 time)
Repeat Riff D.1 (1 time)
Repeat Riff D.2 (1 time)
Repeat Riff F.1 (1 time)
Repeat Riff F.2 (1 time)
Repeat Riff F.1 (1 time)
Repeat Riff F.3 (1 time)
Repeat Riff F.1 (1 time)
Repeat Riff F.4 (1 time)
Repeat Riff F.5 (1 time)
Repeat Riff C.1 (1 time)

Last Riff   *let ring for awhile
|----------|
|----------|
|----------|
|----------|
|-2*-------|
|-0--------|

9.FLOODS

|---|------------------------------------------|----------------------------
|---|------------------------------------------|----------------------------
|---|-------8-----8/9--8vvvvvv-6h8p6p4-6^vvvvv-|----------------------------
|---|----6-----6-------------------------------|-------9^----9/13-14^vvvvvv-
|---|-4----------------------------------------|----7-----7-----------------
|16\|-----------------------------------------0|/5--------------------------
Gtr.1 Doubled          P.H             P.H        P.H-----|


|--------------|------------------------------------------|--------------------
|--------------|------------------------------------------|--------------------
|--------------|------------------------------------------|-------6^----6^b8---
|-13^vvvvv-11^\|------6-----6^/7-6^vvvvvv--4h6-4p2-4^vvvv-|----4-----4---------
|--------------|---4-----4--------------------------------|-2------------------
|--------------|2-----------------------------------------|--------------------
  P.H----------|P.M-|   P.M P.H----------|         P.H----|       P.H   P.H    

|--------------------------|---------------------------------------|-----------
|--------------------------|-----------------------------9^b10-r(9)|-----------
|-6^-4h6p4p2-4--4^b5vvvvv--|---------8-----8/9-/11vvvvvv-----------|-----------
|--------------------------|------6-----6--------------------------|-----------
|-------------------------2|-2/4-----------------------------------|-----------
|--------------------------|---------------------------------------|-----------
  P.H           P.H                                      P.H-------|           

|------------------------------------------------|---------------------------
|------------------------------------------------|---------------------------
|------------------------------------------------|---------------------------
|-------9-----9/13-14----13^b14r-13^b14r-11^vvvv-|-------6-----6b7-6^vvvvvv--
|----7-----7-------------------------------------|----4-----4----------------
|-5----------------------------------------------|-2-------------------------
       P.M   P.M         P.H---------------------|P.M--|    P.M    P.H       

|----------------|------------------------------------------------
|----------------|------------------------------------------------
|----------------|-------6^----6^b8--6^---4-6-4p2-4^vv--4^b5vvvvv-
|-4-6p4p2-4^vvvv-|----4-----4-------------------------------------
|----------------|-2----------------------------------------------
|----------------|------------------------------------------------
          P.H            P.H   P.H   P.H          P.H-------------|            


|--------------------------------------------------------------------------
|----12------------------12------12------12------12------12------12--------
|----11b13r(11)b13---------11b13---11b13---11b13---11b13---11b13---11------
|---x----------------------------------------------------------------------
|--x-----------------------------------------------------------------------
|-x------------------------------------------------------------------------
                                                                  


|-------------9----|----------------9-11-12-11b12vvvvvvvvvvvr(11)--------------
|-12p9-12b14---12p9|12b14vvvvvv---12-------------------------------------------
|------------------|-----------------------------------------------------------
|------------------|-----------------------------------------------------------
|------------------|-----------------------------------------------------------
|------------------|-----------------------------------------------------------
                                                                              

|-9-11p9----12----9--------------------|---------------------------------------
|--------12----12---12p9-------12------|---------------------------------------
|------------------------11b13----11b13|11-12p11p9-11-11p9----11----9b11-------
|--------------------------------------|-------------------11----11------11-9--
|--------------------------------------|---------------------------------------
|--------------------------------------|---------------------------------------

|----------------------------------------------------|-------------------------
|----------------------------------------------------|-------------------------
|----11----9---------11----9b---------11----9b-------|--9---9\8------8--8\6----
|-11----11---11-9-11----11----11-9-11----11---11-9-11|-11--11\9---9--9--9\7----
|----------------------------------------------------|-11--11\9--11--9--9\7----
|----------------------------------------------------|-----------11------------
                                                     Gtrs.3 and 4            

|----------------------------------------------------------------------------
|----------------------------------------------------------19b21-r(19)p17----
|----6--6\4-----5b6-r(5)-----------------------------------------------------
|-7--7--7\6--6--6b7-r(6)-----------------------------------------------------
|-9--7--7\6--7--6b7-r(6)-----------------7-----------------------------------
|-9----------7---------------------------------------------------------------
                                         Gtr.3

|----------------------------------------------------------------------------
|-19b21vvvvvvvvvvv----19b21r(19)p17--t21b24-21r19p17--t21b24-21r19p17--------
|----------------------------------------------------------------------------
|----------------------------------------------------------------------------
|----------------------------------------------------------------------------
|----------------------------------------------------------------------------
                          *Bend tapped (t) notes w/left hand at 19th fret.


				 (A)
|---------------------------------|-19b21vvvvvvvvvvvv----21b24----(21)pb24-----
|-t21b24-21r19p17--t21b24-21r19p17|---------------------x----------------------
|---------------------------------|--------------------x-----------------------
|---------------------------------|--------------------------------------------
|---------------------------------|--------------------------------------------
|---------------------------------|--------------------------------------------
                                                                          
|-(21)pb23--(21)pb24--(21)pb23--(21)pb24--(21)pb23----r(21)--(21)vvvvvvvv----
|----------------------------------------------------------------------------
|----------------------------------------------------------------------------
|----------------------------------------------------------------------------
|----------------------------------------------------------------------------
|----------------------------------------------------------------------------


|------------17------17------17------17--------------------------------------
|-16b17--------16b17---16b17---16b17---16b17---16b17r(16)-14----16----14-----
|------------------------------------------------------------16----16--------
|----------------------------------------------------------------------------
|----------------------------------------------------------------------------
|----------------------------------------------------------------------------
 Gtr.3 Doubled

|-------------|----17-18-19----17-18-19----17-18-19-18-17-18-17---vvvvvv-------
|-------------|/19----19----19----------19-------------------20b22vvvvvv-------
|-16\14b-(14)/|----------------------------------------------------------------
|-------------|----------------------------------------------------------------
|-------------|----------------------------------------------------------------
|-------------|----------------------------------------------------------------

                         		        dive w/bar    +1_____
						     \       	     
|-19---vvvvv--|-20------------------------|------------\slack/---------\-----|
|-22b24vvvvv--|-22b25---------------------|-------------\___/-----------\----|
|-------------|---------------------------|---------0----(x)-------------\---|
|-------------|---------------------------|-------------------------------\--|
|-------------|---------------------------|--------------------------------\-|
|-------------|---------------------------|---------------------------------\|

10.THE UNDERGROUND IN AMERICA

Don't Know

11.(REPLISE)SANDBLASTED SKIN

tune to 
6-G 
5-G 
4-C 
*tune 6 one octave lower than 5 
these are the main riffs of the song. 
 
------|---------------------------------------------|------------------------- 
------|---------------------------------------------|------------------------- 
------|---------------------------------------------|------------------------- 
------|---------------------------------------------|------------------------- 
------|-3------3--------3--------3------------------|------------------------- 
-15\--|----5b------5b-------5b-------5b--3---0------|------------------------- 
                                                                               
 
-----------------------------------------------------|------------------------ 
-----------------------------------------------------|------------------------ 
-----------------------------------------------------|------------------------ 
-----------------------------------------------------|------------------------ 
-3---------3----------3----------3-------------------|------------------------ 
------5b--------5b---------5b---------5b-----3---0---|------------------------ 
                                                                               
 
-------------------|-----------------|---------------|------------------------ 
-------------------|-----------------|---------------|------------------------ 
-------------------|-----------------|---------------|------------------------ 
-------------------|-----------------|---------------|------------------------ 
-------------------|-----------------|---------------|------------------------ 
--0----0---0---5h3-|--0---0--0---5h3-|-0---0--0--5h3-|--5b--(5b)-(5b)-(5b)-(5b) 
                                                        Bend up and down on this..                       
 
-------------------------|---------------------------------------------------- 
-------------------------|---------------------------------------------------- 
-------------------------|---------------------------------------------------- 
-2----2-----5\4-----2----|--/8-----7\----------------------------------------- 
-0----0-----3\2-----0----|--/6-----5\----------------------------------------- 
-0----0-----3\2-----0----|--/6-----5\----------------------------------------- 
  *play twice         then    play this

12.WALK

Drop D Tuning (D,A,D,G,B,E)

                                                                         2x
||------------------------|---------------------|-----|--------------------||
||------------------------|---------------------|-----|--------------------||
||o-----------------------|---------------------|-----|-------------------o||
||o-----------------------|---------------------|--%--|----------------x\-o||
||------------------------|---------------------|-----|-------------x\-----||
||--0---0-2-1-0---0-2-1-0-|---0-2-1-0---0-2-1-0-|-----|---0-2-1-0----------||
    e E e e e e E e e e e   E e e e e E e e e e         E e e e e E q  q
    { 3 } { 3 }     { 3 }       { 3 }     { 3 }             { 3 } {3}

||--------------------|-------------------|-------------------|
||--------------------|-------------------|-------------------|
||o-------------------|-------------------|-------------------|
||o-------------------|-------------------|-------------------|
||------------------8-|-----------------6-|-----------------4-|
||--0---0-2-1-0---0-8-|-0---0-2-1-0---0-6-|-0---0-2-1-0---0-6-|
    e E e e e e E e q   e E e e e e E e q   e E e e e e E e q
    { 3 } { 3 }         { 3 } { 3 }         { 3 } { 3 }

                          2x
|--------------------------||-------------------------||
|--------------------------||-------------------------||
|-------------------------o||-------------------------||
|-------------------------o||-------------------------||
|--------------------------||-------------------------||
|-0-0-0-1-0-3-0-4-0-3-0-1--||-0-0-0-1-0-3-0-4-0-3-0-1-||
  e e e e e e e e e e e e     e e e e e e e e e e e e
  { 3 } { 3 } { 3 } { 3 }     { 3 } { 3 } { 3 } { 3 }

   verse 1                                                              2x
||------------------------|---------------------|-----|------------------||
||------------------------|---------------------|-----|------------------||
||o-----------------------|---------------------|-----|-----------------o||
||o-----------------------|---------------------|--%--|-----------------o||
||------------------------|---------------------|-----|-------------4-4--||
||--0---0-2-1-0---0-2-1-0-|---0-2-1-0---0-2-1-0-|-----|---0-2-1-0---6-6--||
    e E e e e e E e e e e   E e e e e E e e e e         E e e e e E e q
    { 3 } { 3 }     { 3 }       { 3 }     { 3 }             { 3 }

   pre-chorus                                                2x
||-----|--------|-----------------------|----------------------||
||-----|--------|-----------------------|----------------------||
||o----|--------|-----------------------|---------------------o||
||o----|--------|-----------------------|---------------------o||
||--3--|--6--7--|-----------------------|----------------------||
||--5--|--6--7--|-0---0-2-1-0---0-2-1-0-|---0-2-1-0---0-2-1-0--||
    w     h  h    e E e e e e E e e e e   E e e e e E e e e e
                  { 3 } { 3 }     { 3 }       { 3 }     { 3 }

|---------|---------|---------|----------------||
|---------|---------|---------|----------------||
|---------|---------|---------|----------------||
|---------|---------|---------|----------------||
|--3------|--6------|--3------|--2------1------||
|--5------|--6------|--3------|--2------1------||
   w         w         w         h      h

  chorus
||--------------------|-------------------|-------------------|
||--------------------|-------------------|-------------------|
||o-------------------|-------------------|-------------------|
||o-------------------|-------------------|-------------------|
||------------------8-|-----------------6-|-----------------4-|
||--0---0-2-1-0---0-8-|-0---0-2-1-0---0-6-|-0---0-2-1-0---0-6-|
    e E e e e e E e q   e E e e e e E e q   e E e e e e E e q
    { 3 } { 3 }         { 3 } { 3 }         { 3 } { 3 }

                          2x
|--------------------------||-------------------------||
|--------------------------||-------------------------||
|-------------------------o||-------------------------||
|-------------------------o||-------------------------||
|--------------------------||-------------------------||
|-0-0-0-1-0-3-0-4-0-3-0-1--||-0-0-0-1-0-3-0-4-0-3-0-1-||
  e e e e e e e e e e e e     e e e e e e e e e e e e
  { 3 } { 3 } { 3 } { 3 }     { 3 } { 3 } { 3 } { 3 }

|-----------------------|---------------------|-----|-------------------||
|-----------------------|---------------------|-----|-------------------||
|-----------------------|---------------------|-----|-------------------||
|-----------------------|---------------------|--%--|----------------x\-||
|-----------------------|---------------------|-----|-------------x\----||
|-0---0-2-1-0---0-2-1-0-|---0-2-1-0---0-2-1-0-|-----|---0-2-1-0---------||
  e E e e e e E e e e e   E e e e e E e e e e         E e e e e E q  q
  { 3 } { 3 }     { 3 }       { 3 }     { 3 }             { 3 } {3}

   verse 2                                                              2x
||------------------------|---------------------|-----|------------------||
||------------------------|---------------------|-----|------------------||
||o-----------------------|---------------------|-----|-----------------o||
||o-----------------------|---------------------|--%--|-----------------o||
||------------------------|---------------------|-----|-------------4-4--||
||--0---0-2-1-0---0-2-1-0-|---0-2-1-0---0-2-1-0-|-----|---0-2-1-0---6-6--||
    e E e e e e E e e e e   E e e e e E e e e e         E e e e e E e q
    { 3 } { 3 }     { 3 }       { 3 }     { 3 }             { 3 }

   pre-chorus                                                2x
||-----|--------|-----------------------|----------------------||
||-----|--------|-----------------------|----------------------||
||o----|--------|-----------------------|---------------------o||
||o----|--------|-----------------------|---------------------o||
||--3--|--6--7--|-----------------------|----------------------||
||--5--|--6--7--|-0---0-2-1-0---0-2-1-0-|---0-2-1-0---0-2-1-0--||
    w     h  h    e E e e e e E e e e e   E e e e e E e e e e
                  { 3 } { 3 }     { 3 }       { 3 }     { 3 }

|---------|---------|---------|----------------||
|---------|---------|---------|----------------||
|---------|---------|---------|----------------||
|---------|---------|---------|----------------||
|--3------|--6------|--3------|--2------1------||
|--5------|--6------|--3------|--2------1------||
   w         w         w         h      h

  chorus
||--------------------|-------------------|-------------------|
||--------------------|-------------------|-------------------|
||o-------------------|-------------------|-------------------|
||o-------------------|-------------------|-------------------|
||------------------8-|-----------------6-|-----------------4-|
||--0---0-2-1-0---0-8-|-0---0-2-1-0---0-6-|-0---0-2-1-0---0-6-|
    e E e e e e E e q   e E e e e e E e q   e E e e e e E e q
    { 3 } { 3 }         { 3 } { 3 }         { 3 } { 3 }

                          4x
|--------------------------||-------------------------|-----|-----||
|--------------------------||-------------------------|-----|-----||
|-------------------------o||-------------------------|-----|-----||
|-------------------------o||-------------------------|--%--|--%--||
|--------------------------||-------------------------|-----|-----||
|-0-0-0-1-0-3-0-4-0-3-0-1--||-0-0-0-1-0-3-0-4-0-3-0-1-|-----|-----||
  e e e e e e e e e e e e     e e e e e e e e e e e e
  { 3 } { 3 } { 3 } { 3 }     { 3 } { 3 } { 3 } { 3 }

  guitar solo
  full      full
|----------|----------------------------10----------------------10-------|
|-12b---13b|-~--10----10-------------------13-10-------------------13-10-|
|-12b------|-------13----13-12-10-12-13----------13-12-10-12-13----------|
|----------|-------------------------------------------------------------|
|----------|-------------------------------------------------------------|
|----------|-------------------------------------------------------------|
  h..   e  + q  s  s  s  s  s  s  s  s  s  s  s  s  s  s  s  s  s  s  s
                {      6       }  {      6       }  {        7        }

          full vib.     full  2  full
|----------12b~---10-12-----10b-----10-|
|-----------------------13b-----13b----|
|-13-12-10-----------------------------|
|--------------------------------------|
|--------------------------------------|
|--------------------------------------|
  s  s  s  e.+ q  e  e  e   q   s   s
  {    6    }     {  3  }   {   3   }

   full
|--------10-14-10---10-14-10-14-10----10-------------|
|-13b------------------------------13----13-10-13-10-|
|----------------------------------------------------|
|----------------------------------------------------|
|----------------------------------------------------|
|----------------------------------------------------|
  q + e. s  s  s  S s  s  s  s  s  s  s  s  s  s  s
         {  3  }  {      6      }  {       6      }

|-----------------------------------------------------|
|----10-----------------------------------------------|
|-13----13-12-10----12----10h11----10-11-10----10h11b-|
|----------------12----12-------------------12--------|
|-----------------------------------------------------|
|-----------------------------------------------------|
  s  s  s  s  s  s  s  s  s  e + q s  s  s  s  s  s  +
  {       6      }  {  3  }        {       6      }

    2 vib.     2 hold-|     2.5 vib.                          1.5
|--------------------------------|-------|-13----15----16----18b----|
|--------------------------------|-------|--------------------------|
|-(11b)~--10-11b--11----10-11b~~-|-~~~---|--------------------------|
|--------------------------------|-------|--------------------------|
|--------------------------------|-------|--------------------------|
|--------------------------------|-------|--------------------------|
+  q      e  q    q     s  s + q +  w      e  E  e  E  e  E  h
          { 3}    {   3    }               {       3      }

                                  2  full full  vib. w/bar---
|----------6-7-6---|-------------------------|--------------|
|-3--------------8-|-5-6-5-------------------|--------------|
|-3----------------|-------7-4-5-4br---5b-5b-|-3~~~-5-/--5/-|
|-3--5-3-5---------|-------------------------|--------------|
|------------------|-------------------------|--------------|
|------------------|-------------------------|--------------|
  q  e e q e s s s   e s s s s s e + q q  q    q.   e+q  q
             { 3 }     { 3 }

-------------vib.
|-----------------|--------------------------------------|
|-----------------|--------------------------------------|
|---------12~~~~~-|-----12-------12-------12-------12----|
|-/x-5-/----------|-/12----12-11----11h12----12-11----11-|
|-----------------|--------------------------------------|
|-----------------|--------------------------------------|
   e q.   h          e  e  e  e  e  e  e  e  e  e  e  e  +
                     {  3  }  {  3  }  {  3  }  {  3  }

                   full vib.
|----------------------------|----8------10-------14-------17-----|
|-------------------------3/-|-/7---7/10----10/13----13/16----16/-|
|-----12----12----12b~~~-----|------------------------------------|
|-h12----12----12------------|------------------------------------|
|----------------------------|------------------------------------|
|----------------------------|------------------------------------|
+  e  e  e  e  e  e + q.  e  +  e e e+e  e  e +e  e  e +e  e  e   +
   {  3  }  {  3  }             { 3 } {  3  }  {  3  }  {  3  }

                   1.5     A.H. dive w/bar
|-----20----20----20b-----|------------||
|-/19----19----19---------|-x----\-----||
|-------------------------|------------||
|-------------------------|------------||
|-------------------------|------------||
|-------------------------|------------||
   e  e  e  e  e  e + h     w
   {  3  }  {  3  }

|-----------------------|---------------------|-----|-------------------||
|-----------------------|---------------------|-----|-------------------||
|-----------------------|---------------------|-----|-------------------||
|-----------------------|---------------------|--%--|----------------x\-||
|-----------------------|---------------------|-----|-------------x\----||
|-0---0-2-1-0---0-2-1-0-|---0-2-1-0---0-2-1-0-|-----|---0-2-1-0---------||
  e E e e e e E e e e e   E e e e e E e e e e         E e e e e E q  q
  { 3 } { 3 }     { 3 }       { 3 }     { 3 }             { 3 } {3}

  chorus
||--------------------|-------------------|-------------------|
||--------------------|-------------------|-------------------|
||o-------------------|-------------------|-------------------|
||o-------------------|-------------------|-------------------|
||------------------8-|-----------------6-|-----------------4-|
||--0---0-2-1-0---0-8-|-0---0-2-1-0---0-6-|-0---0-2-1-0---0-6-|
    e E e e e e E e q   e E e e e e E e q   e E e e e e E e q
    { 3 } { 3 }         { 3 } { 3 }         { 3 } { 3 }

                          4x
|--------------------------||-------------------------||
|--------------------------||-------------------------||
|-------------------------o||-------------------------||
|-------------------------o||-------------------------||
|--------------------------||-------------------------||
|-0-0-0-1-0-3-0-4-0-3-0-1--||-0-0-0-1-0-3-0-4-0-3-0-1-||
  e e e e e e e e e e e e     e e e e e e e e e e e e
  { 3 } { 3 } { 3 } { 3 }     { 3 } { 3 } { 3 } { 3 }

  outro                 repeat & fade
||-----------------------||
||-----------------------||
||o---------------------o||
||o---------------------o||
||--------1-0-------1-0--||
||--0-0-0-1-0-0-0-0-1-0--||
    e e e e e e e e e e
    { 3 }     { 3 }




Dimebag Darrell was my biggest influence in playing the guitar.And for somebody to take
that away from me deserves a punishment.I KNOW DIMEBAG DARRELL IS A GOD UP THERE!
4 comments total. Showing first comments.
0 reply
AngusYoung II wrote on May 24 2006, 03:44 am

Legends Never Die (1966 - 2004 R.I.P Darrell "Dimebag" Abbott)

0 reply
tulsa29 wrote on October 5 2007, 08:30 pm

andrew zara your a prick, stop stealin tabs

0 reply
Cheapm0nkey wrote on August 30 2008, 12:11 pm

Walk isn't on The Great Southern Trendkill

I want to post or [tab]
guest
You may want to rate the tab now too:
select rating
Please do not post tabs as comments. Select "correction" instead!