Oops, an error
Loading. Please wait.

Vulgar Display Of Power Tab

ver1
ver1

Album

More versions @911Tabs.com
33,768 views 33 this week
4 commentsread comments
1 2 3 4 5
accurate
x 9
Autoscroll
+/-
esc
set tempo
stop
Contributor
Hey! There's an official Ultimate Guitar app which is ideal
for learning songs when you're away from computer. Get the app
WARNING: You are trying to view
                                    content from Ultimate-Guitar.com
                                    in an unauthorized application,
                                    which is prohibited.

                                    Please use an official Ultimate
                                    Guitar Tabs application for iPhone,
                                    iPad or Android to access legitimate
                                    chords, guitar, bass, and drum tabs
                                    from Ultimate-Guitar.com database.

                                    Type "ultimate guitar tabs" in Apple
                                    App Store's or Android Market's
                                    search to find the application.
R.I.P.:DIMEBAG DARRELL

1.MOUTH FOR WAR

-Standard Tuning-actual tuning is drop full step-

-Intro-   pm
E----------------------------------------------
B----------------------------------------------
G-------------4-------------------4----4---4---
D-------------4-------------------4----4---4---
A-0-1-2-2-2-2-2-2-2-0-1-2-2-2-2-2-2-2----------
E----------------------------------------------

-Verse/Chorus-
E-----------------------------------------
B-----------------------------------------
G-----------------------------------------
D-----------------------------------------
A-2---5/9------5------5/9----5/9----5-----
E-0---3/7---0--3---0--3/7-0--3/7--0-3-----

E---------------------------------
B---------------------------------
G---------------------------------
D---------------------------------
A----8---9/10-----7/8-----5-------
E0-0-6-0-7/8---0--5/6--0--3-------

E-------------------------------
B-------------------------------
G-------------------------------
D-------------------------------
A---5/7----4/5------------------
E-0-3/5--0--2/3-----------------

E---------------------------------
B---------------------------------
G---------------------------------
D---------------------------------
A----8---9/10----7/8-------5------
E0-0-6-0-7/8-0---5/6--0----3------



-Bridge-
E-------------------------------------
B-------------------------------------
G-------------------------------------
D-----------4--------8-7--6--4--4-----
A-4/6-6--6--2--6--6--6-5--4--2--2--4--
E-2/4-4--4-----4--4----------------2--

E---------------------------------
B---------------------------------
G---------------------------------
D-2---9--8--7---------------------
A-2---7--6--5---------------------
E-0-------------------------------

E-----------------------------------------
B-----------------------------------------
G-----------------------------------------
D-----------4-------------8-7--6--4--4----
A-4/6-6--6--2---6--6------6-5--4--2--2--4-
E-2/4-4--4------4--4--------------------2-

E---------------------------------
B---------------------------------
G---------------------------------
D-2---9--8--7---------------------
A-2---7--6--5---------------------
E-0-------------------------------

E---------------------------------
B---------------------------------
G---------------------------------
D---------------------------------
A-6--6---6/4----------------------
E-4--4---4-2---------------------

E-----------------------------------
B----------------------------------
G----------------------------------
D------------------------9--------
A-6----------------------9---------
E-4-4-4-4-4-4-4-4-4----------------

E---------------------------------
B---------------------------------
G---------------------------------
D------------------------7-------
A-6----------------------7--------
E-4-4-4-4-4-4-4-4-4---------------

2.NEW LEVEL 

Don't Know

3.WALK

Drop D Tuning (D,A,D,G,B,E)

                                                                         2x
||------------------------|---------------------|-----|--------------------||
||------------------------|---------------------|-----|--------------------||
||o-----------------------|---------------------|-----|-------------------o||
||o-----------------------|---------------------|--%--|----------------x\-o||
||------------------------|---------------------|-----|-------------x\-----||
||--0---0-2-1-0---0-2-1-0-|---0-2-1-0---0-2-1-0-|-----|---0-2-1-0----------||
    e E e e e e E e e e e   E e e e e E e e e e         E e e e e E q  q
    { 3 } { 3 }     { 3 }       { 3 }     { 3 }             { 3 } {3}

||--------------------|-------------------|-------------------|
||--------------------|-------------------|-------------------|
||o-------------------|-------------------|-------------------|
||o-------------------|-------------------|-------------------|
||------------------8-|-----------------6-|-----------------4-|
||--0---0-2-1-0---0-8-|-0---0-2-1-0---0-6-|-0---0-2-1-0---0-6-|
    e E e e e e E e q   e E e e e e E e q   e E e e e e E e q
    { 3 } { 3 }         { 3 } { 3 }         { 3 } { 3 }

                          2x
|--------------------------||-------------------------||
|--------------------------||-------------------------||
|-------------------------o||-------------------------||
|-------------------------o||-------------------------||
|--------------------------||-------------------------||
|-0-0-0-1-0-3-0-4-0-3-0-1--||-0-0-0-1-0-3-0-4-0-3-0-1-||
  e e e e e e e e e e e e     e e e e e e e e e e e e
  { 3 } { 3 } { 3 } { 3 }     { 3 } { 3 } { 3 } { 3 }

   verse 1                                                              2x
||------------------------|---------------------|-----|------------------||
||------------------------|---------------------|-----|------------------||
||o-----------------------|---------------------|-----|-----------------o||
||o-----------------------|---------------------|--%--|-----------------o||
||------------------------|---------------------|-----|-------------4-4--||
||--0---0-2-1-0---0-2-1-0-|---0-2-1-0---0-2-1-0-|-----|---0-2-1-0---6-6--||
    e E e e e e E e e e e   E e e e e E e e e e         E e e e e E e q
    { 3 } { 3 }     { 3 }       { 3 }     { 3 }             { 3 }

   pre-chorus                                                2x
||-----|--------|-----------------------|----------------------||
||-----|--------|-----------------------|----------------------||
||o----|--------|-----------------------|---------------------o||
||o----|--------|-----------------------|---------------------o||
||--3--|--6--7--|-----------------------|----------------------||
||--5--|--6--7--|-0---0-2-1-0---0-2-1-0-|---0-2-1-0---0-2-1-0--||
    w     h  h    e E e e e e E e e e e   E e e e e E e e e e
                  { 3 } { 3 }     { 3 }       { 3 }     { 3 }

|---------|---------|---------|----------------||
|---------|---------|---------|----------------||
|---------|---------|---------|----------------||
|---------|---------|---------|----------------||
|--3------|--6------|--3------|--2------1------||
|--5------|--6------|--3------|--2------1------||
   w         w         w         h      h

  chorus
||--------------------|-------------------|-------------------|
||--------------------|-------------------|-------------------|
||o-------------------|-------------------|-------------------|
||o-------------------|-------------------|-------------------|
||------------------8-|-----------------6-|-----------------4-|
||--0---0-2-1-0---0-8-|-0---0-2-1-0---0-6-|-0---0-2-1-0---0-6-|
    e E e e e e E e q   e E e e e e E e q   e E e e e e E e q
    { 3 } { 3 }         { 3 } { 3 }         { 3 } { 3 }

                          2x
|--------------------------||-------------------------||
|--------------------------||-------------------------||
|-------------------------o||-------------------------||
|-------------------------o||-------------------------||
|--------------------------||-------------------------||
|-0-0-0-1-0-3-0-4-0-3-0-1--||-0-0-0-1-0-3-0-4-0-3-0-1-||
  e e e e e e e e e e e e     e e e e e e e e e e e e
  { 3 } { 3 } { 3 } { 3 }     { 3 } { 3 } { 3 } { 3 }

|-----------------------|---------------------|-----|-------------------||
|-----------------------|---------------------|-----|-------------------||
|-----------------------|---------------------|-----|-------------------||
|-----------------------|---------------------|--%--|----------------x\-||
|-----------------------|---------------------|-----|-------------x\----||
|-0---0-2-1-0---0-2-1-0-|---0-2-1-0---0-2-1-0-|-----|---0-2-1-0---------||
  e E e e e e E e e e e   E e e e e E e e e e         E e e e e E q  q
  { 3 } { 3 }     { 3 }       { 3 }     { 3 }             { 3 } {3}

   verse 2                                                              2x
||------------------------|---------------------|-----|------------------||
||------------------------|---------------------|-----|------------------||
||o-----------------------|---------------------|-----|-----------------o||
||o-----------------------|---------------------|--%--|-----------------o||
||------------------------|---------------------|-----|-------------4-4--||
||--0---0-2-1-0---0-2-1-0-|---0-2-1-0---0-2-1-0-|-----|---0-2-1-0---6-6--||
    e E e e e e E e e e e   E e e e e E e e e e         E e e e e E e q
    { 3 } { 3 }     { 3 }       { 3 }     { 3 }             { 3 }

   pre-chorus                                                2x
||-----|--------|-----------------------|----------------------||
||-----|--------|-----------------------|----------------------||
||o----|--------|-----------------------|---------------------o||
||o----|--------|-----------------------|---------------------o||
||--3--|--6--7--|-----------------------|----------------------||
||--5--|--6--7--|-0---0-2-1-0---0-2-1-0-|---0-2-1-0---0-2-1-0--||
    w     h  h    e E e e e e E e e e e   E e e e e E e e e e
                  { 3 } { 3 }     { 3 }       { 3 }     { 3 }

|---------|---------|---------|----------------||
|---------|---------|---------|----------------||
|---------|---------|---------|----------------||
|---------|---------|---------|----------------||
|--3------|--6------|--3------|--2------1------||
|--5------|--6------|--3------|--2------1------||
   w         w         w         h      h

  chorus
||--------------------|-------------------|-------------------|
||--------------------|-------------------|-------------------|
||o-------------------|-------------------|-------------------|
||o-------------------|-------------------|-------------------|
||------------------8-|-----------------6-|-----------------4-|
||--0---0-2-1-0---0-8-|-0---0-2-1-0---0-6-|-0---0-2-1-0---0-6-|
    e E e e e e E e q   e E e e e e E e q   e E e e e e E e q
    { 3 } { 3 }         { 3 } { 3 }         { 3 } { 3 }

                          4x
|--------------------------||-------------------------|-----|-----||
|--------------------------||-------------------------|-----|-----||
|-------------------------o||-------------------------|-----|-----||
|-------------------------o||-------------------------|--%--|--%--||
|--------------------------||-------------------------|-----|-----||
|-0-0-0-1-0-3-0-4-0-3-0-1--||-0-0-0-1-0-3-0-4-0-3-0-1-|-----|-----||
  e e e e e e e e e e e e     e e e e e e e e e e e e
  { 3 } { 3 } { 3 } { 3 }     { 3 } { 3 } { 3 } { 3 }

  guitar solo
  full      full
|----------|----------------------------10----------------------10-------|
|-12b---13b|-~--10----10-------------------13-10-------------------13-10-|
|-12b------|-------13----13-12-10-12-13----------13-12-10-12-13----------|
|----------|-------------------------------------------------------------|
|----------|-------------------------------------------------------------|
|----------|-------------------------------------------------------------|
  h..   e  + q  s  s  s  s  s  s  s  s  s  s  s  s  s  s  s  s  s  s  s
                {      6       }  {      6       }  {        7        }

          full vib.     full  2  full
|----------12b~---10-12-----10b-----10-|
|-----------------------13b-----13b----|
|-13-12-10-----------------------------|
|--------------------------------------|
|--------------------------------------|
|--------------------------------------|
  s  s  s  e.+ q  e  e  e   q   s   s
  {    6    }     {  3  }   {   3   }

   full
|--------10-14-10---10-14-10-14-10----10-------------|
|-13b------------------------------13----13-10-13-10-|
|----------------------------------------------------|
|----------------------------------------------------|
|----------------------------------------------------|
|----------------------------------------------------|
  q + e. s  s  s  S s  s  s  s  s  s  s  s  s  s  s
         {  3  }  {      6      }  {       6      }

|-----------------------------------------------------|
|----10-----------------------------------------------|
|-13----13-12-10----12----10h11----10-11-10----10h11b-|
|----------------12----12-------------------12--------|
|-----------------------------------------------------|
|-----------------------------------------------------|
  s  s  s  s  s  s  s  s  s  e + q s  s  s  s  s  s  +
  {       6      }  {  3  }        {       6      }

    2 vib.     2 hold-|     2.5 vib.                          1.5
|--------------------------------|-------|-13----15----16----18b----|
|--------------------------------|-------|--------------------------|
|-(11b)~--10-11b--11----10-11b~~-|-~~~---|--------------------------|
|--------------------------------|-------|--------------------------|
|--------------------------------|-------|--------------------------|
|--------------------------------|-------|--------------------------|
+  q      e  q    q     s  s + q +  w      e  E  e  E  e  E  h
          { 3}    {   3    }               {       3      }

                                  2  full full  vib. w/bar---
|----------6-7-6---|-------------------------|--------------|
|-3--------------8-|-5-6-5-------------------|--------------|
|-3----------------|-------7-4-5-4br---5b-5b-|-3~~~-5-/--5/-|
|-3--5-3-5---------|-------------------------|--------------|
|------------------|-------------------------|--------------|
|------------------|-------------------------|--------------|
  q  e e q e s s s   e s s s s s e + q q  q    q.   e+q  q
             { 3 }     { 3 }

-------------vib.
|-----------------|--------------------------------------|
|-----------------|--------------------------------------|
|---------12~~~~~-|-----12-------12-------12-------12----|
|-/x-5-/----------|-/12----12-11----11h12----12-11----11-|
|-----------------|--------------------------------------|
|-----------------|--------------------------------------|
   e q.   h          e  e  e  e  e  e  e  e  e  e  e  e  +
                     {  3  }  {  3  }  {  3  }  {  3  }

                   full vib.
|----------------------------|----8------10-------14-------17-----|
|-------------------------3/-|-/7---7/10----10/13----13/16----16/-|
|-----12----12----12b~~~-----|------------------------------------|
|-h12----12----12------------|------------------------------------|
|----------------------------|------------------------------------|
|----------------------------|------------------------------------|
+  e  e  e  e  e  e + q.  e  +  e e e+e  e  e +e  e  e +e  e  e   +
   {  3  }  {  3  }             { 3 } {  3  }  {  3  }  {  3  }

                   1.5     A.H. dive w/bar
|-----20----20----20b-----|------------||
|-/19----19----19---------|-x----\-----||
|-------------------------|------------||
|-------------------------|------------||
|-------------------------|------------||
|-------------------------|------------||
   e  e  e  e  e  e + h     w
   {  3  }  {  3  }

|-----------------------|---------------------|-----|-------------------||
|-----------------------|---------------------|-----|-------------------||
|-----------------------|---------------------|-----|-------------------||
|-----------------------|---------------------|--%--|----------------x\-||
|-----------------------|---------------------|-----|-------------x\----||
|-0---0-2-1-0---0-2-1-0-|---0-2-1-0---0-2-1-0-|-----|---0-2-1-0---------||
  e E e e e e E e e e e   E e e e e E e e e e         E e e e e E q  q
  { 3 } { 3 }     { 3 }       { 3 }     { 3 }             { 3 } {3}

  chorus
||--------------------|-------------------|-------------------|
||--------------------|-------------------|-------------------|
||o-------------------|-------------------|-------------------|
||o-------------------|-------------------|-------------------|
||------------------8-|-----------------6-|-----------------4-|
||--0---0-2-1-0---0-8-|-0---0-2-1-0---0-6-|-0---0-2-1-0---0-6-|
    e E e e e e E e q   e E e e e e E e q   e E e e e e E e q
    { 3 } { 3 }         { 3 } { 3 }         { 3 } { 3 }

                          4x
|--------------------------||-------------------------||
|--------------------------||-------------------------||
|-------------------------o||-------------------------||
|-------------------------o||-------------------------||
|--------------------------||-------------------------||
|-0-0-0-1-0-3-0-4-0-3-0-1--||-0-0-0-1-0-3-0-4-0-3-0-1-||
  e e e e e e e e e e e e     e e e e e e e e e e e e
  { 3 } { 3 } { 3 } { 3 }     { 3 } { 3 } { 3 } { 3 }

  outro                 repeat & fade
||-----------------------||
||-----------------------||
||o---------------------o||
||o---------------------o||
||--------1-0-------1-0--||
||--0-0-0-1-0-0-0-0-1-0--||
    e e e e e e e e e e
    { 3 }     { 3 }

4.FUCKING HOSTILE

* : Only first time play G5, the rest of the song play A5
   G||----------------------|--------------------|--------------------|
   D||o---*-----------------|--------------------|--------------------|
   A||o--5----------------5/|/7----------------5/|/7----------------5/|
   E||---3-5-55-5-5-55-55-3/|/5-5-55-5-5-55-55-3/|/5-5-55-5-5-55-55-3/|
           pm-----------|  sl   pm-----------|  sl   pm-----------|  sl
counts:  1 & 2+ & 3 &+ 4+ &   1 & 2+ & 3 &+ 4+ &   1 & 2+ & 3 &+ 4+ &


                                           play 4x
   G||---------------------|------------------||
   D||---------------------|-------------5---o||
   A||-/7------------------|-5---4---3---3---o||
   E||-/5-5-55-5-5-55-55-5-|-3---2---1--------||
          pm-------------|        
counts: 1 & 2+ & 3 &+ 4+ &   1   2   3   4


   G|-------------------|
   D|-----------7-----7-|
   A|-----------------5-|
   E|-5-55-5555---------|
      pm------|
cnts: 1 &+ 2+&+ 3 (4) &       


riff A                         |-1----------------------------------------|
                                                                          |
   G||-------------------|-----|-----------------|-----------------------||
   D||o--5-------------7-|--%--|-5---------------|-------------------7--o||
   A||o--3-----x-5-----5-|-----|-3---x-5---5-7---|-------------------5--o||
   E||---------x-3-------|-----|-----x-3-r-3-5---|-5555-5555-5555-55-----||
                                                  pm----------------|
counts: 1 (2) & 3 (4) &         1    2 &(3)& 4     1+&+ 2+&+ 3+&+ 4+ &


  |-2---------------------|
  |      end riff A-|                          play 6x
 G|-----------------|-----||---------------------||-------------------|------|
 D|-5---------------|-----||o-------------------o||-------------------|------|
 A|-3---x-5---5-7---|-----||o--2------5------5--o||-2------5------5\2-|-2----|
 E|-----x-3-r-3-5-r-|--r--||---0-00-0-3---00-3---||-0-00-0-3---00-3\2-|-0-r--|
                                   pm-|     pm        pm-|     pm  sl
cts:1   2 &(3)& 4(&)           1 &+ 2 &(3)&+ 4      1 &+ 2 &(3)&+ 4 &   1(&)

repeat from beginning

soloriff:

G||-----------------------|---------------------|-----|-----|--------------||
D||o----------------------|---------------------|--%--|--%--|----------5--o||
A||o--5-------------------|---------------------|-----|-----|-5--4--3--3--o||
E||---3-55-5555-5-55-5555-|-5-55-5555-5-55-5555-|-----|-----|-3--2--1------||

cnts: 1 &+ 2+&+ 3 &+ 4+&+   1 &+ 2+&+ 3 &+ 4+&+               1  2  3  4


   G|-------------------|                 |---------------|
   D|-----------------7-|   play riff A   |---------------|
   A|-----------7-----5-|                 |-----------11\-|
   E|-5-55-5555-5-------|                 |-r-------------|
                                                        sl
cnts: 1 &+ 2+&+ 3  (4)&                    (1) (2) (3) 4


repeat from beginning to end of riff A


G|--------------|-------------|--------------|--------------|-------------|
D|--------------|-------------|--------------|--------------|-------------|
A|----------5---|-6--7--------|----5--6--7---|----------4---|-5--6--7-----|
E|-r--------3---|-4--5--r-----|-r--3--4--5---|-r--------2---|-3--4--5--r--|

c:(1)(2)(3) 4     1  2 (3)     (1) 2  3  4    (1)(2)(3) 4     1  2  3 (4)

5.THIS LOVE

Tune down one half step (Eb,Ab,Db,Gb,Bb,Eb)


102 bpm, intro
clean elec., let ring
                    4x                    2x
||-------------------|||-------------------||-----------------|-----|
||-------------------|||-------------------||-----------------|-----|
||o-----------------o|||o-----2-----2-----o||-----------------|-----|
||o-----2-----2-----o|||o---4-----4---4---o||-----2-----2-----|--%--|
||----4-----4---4----|||--2-----3-------3--||---4-----4---4---|-----|
||--2-----3-------3--|||-------------------||-2-----3-------3-|-----|
    e e e e e e e e       e e e e e e e e     e e e e e e e e

|-----------------|-----------------|------|---------------|------||
|-----------------|-----------------|------|---------------|------||
|-----0-----0-----|-----2-----0-----|------|-------2-------|-(2)--||
|---2-----2---2---|---2-----2---2---|---%--|-----2-2-------|-(2)--||
|-4-----3-------3-|-4-----3-------3-|------|---2---3-------|-(3)--||
|-----------------|-----------------|------|-4-----5-------|-(5)--||
  e e e e e e e e   e e e e e e e e          e e e e + h   +  w

  verse 1
|-----------------|-----|-----|-----|-----------------|-----|
|-----------------|-----|-----|-----|-----------------|-----|
|-----------------|-----|-----|-----|-----2-----2-----|-----|
|-----2-----2-----|--%--|--%--|--%--|---4-----4---4---|--%--|
|---4-----4---4---|-----|-----|-----|-2-----3-------3-|-----|
|-2-----3-------3-|-----|-----|-----|-----------------|-----|
  e e e e e e e e                     e e e e e e e e

|-----------------|-----|-----------------|-----------------|-----|
|-----------------|-----|-----------------|-----------------|-----|
|-----------------|-----|-----0-----0-----|-----2-----0-----|-----|
|-----2-----2-----|--%--|---2-----2---2---|---2-----2---2---|--%--|
|---4-----4---4---|-----|-4-----3-------3-|-4-----3-------3-|-----|
|-2-----3-------3-|-----|-----------------|-----------------|-----|
  e e e e e e e e         e e e e e e e e   e e e e e e e e

|-----------------|-----------------|-----------------|-----|
|-----------------|-----------------|-----------------|-----|
|-----------------|-----0-----0-----|-----2-----0-----|-----|
|-----2-----2-----|---2-----2---2---|---2-----2---2---|--%--|
|---2-----3---3---|-4-----3-------3-|-4-----3-------3-|-----|
|-4-----5-------5-|-----------------|-----------------|-----|
  e e e e e e e e   e e e e e e e e   e e e e e e e e

                        pre-chorus  w/fill 1
               2/4     4/4                4x
|--------------|-------||-------------------||
|--------------|-------||-------------------||
|-------2------|-(2)---||o-----------------o||
|-----2-2------|-(2)---||o-----2-----2-----o||
|---2---3------|-(3)---||----4-----4---4----||
|-4-----5------|-(5)---||--2-----3-------3--||
  e e e e + h  +  h


 chorus
 w/dist
|------------------------|---------------------|------------------------|
|------------------------|---------------------|------------------------|
|------------------------|---------------------|------------------------|
|------------------------|---------------------|------------------------|
|---4------4---4-----4-4-|---4------4-6--5---1-|---4------4---4-----4-4-|
|-0-2------2-0-2-----2-2-|-0-2------2-8--7---3-|-0-2------2-0-2-----2-2-|
  s s E E. s s s E E s s   s s E E. s e. s+e e   s s E E. s s s E E s s

|---------------------|-----------------|------------------|
|---------------------|-----------------|------------------|
|---------------------|-----------------|------------------|
|---------------------|-----------------|------------------|
|---4------4-6--5---1-|---4-------4-----|---4-----6--5---1-|
|-0-2------2-8--7---3-|-0-2-----0-2-----|-0-2-----8--7---3-|
  s s E E. s e. s+e e   s s E Q s s E Q   s s E Q e. s+e e

                                                                 fdbk.
|-----------------|------------------||-----------------|-----|-----|-----||
|-----------------|------------------||-----------------|-----|-----|-----||
|-----------------|------------------||-----------------|-----|-----|-----||
|-----------------|------------------||-----------------|-----|-----|-----||
|---4-------4-----|---4-----6--5---1-||-4---------------|-(4)-|-(4)-|-(4)-||
|-0-2-----0-2-----|-0-2-----8--7---3-||-2---------------|-(2)-|-(2)-|-(2)-||
  s s E Q s s E Q   s s E Q e. s+e e || w               +  w  +  w  +  w  ||
                                     ||                 |     |     |     ||
                                     ||clean elec.      |     |     |     ||
                                     ||-----------------|-----|-----|-----||
                                     ||-----------------|-----|-----|-----||
                                     ||-----------------|-----|-----|-----||
                                     ||-----2-----2-----|--%--|--%--|--%--||
                                     ||---4-----4---4---|-----|-----|-----||
                                     ||-2-----3-------3-|-----|-----|-----||
                                        e e e e e e e e

  verse 2
|-----------------|-----|-----|-----|-----------------|-----|
|-----------------|-----|-----|-----|-----------------|-----|
|-----------------|-----|-----|-----|-----2-----2-----|-----|
|-----2-----2-----|--%--|--%--|--%--|---4-----4---4---|--%--|
|---4-----4---4---|-----|-----|-----|-2-----3-------3-|-----|
|-2-----3-------3-|-----|-----|-----|-----------------|-----|
  e e e e e e e e                     e e e e e e e e

|-----------------|-----|-----------------|-----------------|-----|
|-----------------|-----|-----------------|-----------------|-----|
|-----------------|-----|-----0-----0-----|-----2-----0-----|-----|
|-----2-----2-----|--%--|---2-----2---2---|---2-----2---2---|--%--|
|---4-----4---4---|-----|-4-----3-------3-|-4-----3-------3-|-----|
|-2-----3-------3-|-----|-----------------|-----------------|-----|
  e e e e e e e e         e e e e e e e e   e e e e e e e e

|-----------------|-----------------|-----------------|-----|
|-----------------|-----------------|-----------------|-----|
|-----------------|-----0-----0-----|-----2-----0-----|-----|
|-----2-----2-----|---2-----2---2---|---2-----2---2---|--%--|
|---2-----3---3---|-4-----3-------3-|-4-----3-------3-|-----|
|-4-----5-------5-|-----------------|-----------------|-----|
  e e e e e e e e   e e e e e e e e   e e e e e e e e

                        pre-chorus   w/fill 2
               2/4     4/4                4x
|--------------|-------||-------------------||
|--------------|-------||-------------------||
|-------2------|-(2)---||o-----------------o||
|-----2-2------|-(2)---||o-----2-----2-----o||
|---2---3------|-(3)---||----4-----4---4----||
|-4-----5------|-(5)---||--2-----3-------3--||
  e e e e + h  +  h


 chorus
 w/dist
|------------------------|---------------------|------------------------|
|------------------------|---------------------|------------------------|
|------------------------|---------------------|------------------------|
|------------------------|---------------------|------------------------|
|---4------4---4-----4-4-|---4------4-6--5---1-|---4------4---4-----4-4-|
|-0-2------2-0-2-----2-2-|-0-2------2-8--7---3-|-0-2------2-0-2-----2-2-|
  s s E E. s s s E E s s   s s E E. s e. s+e e   s s E E. s s s E E s s

|---------------------|-----------------|------------------|
|---------------------|-----------------|------------------|
|---------------------|-----------------|------------------|
|---------------------|-----------------|------------------|
|---4------4-6--5---1-|---4-------4-----|---4-----6--5---1-|
|-0-2------2-8--7---3-|-0-2-----0-2-----|-0-2-----8--7---3-|
  s s E E. s e. s+e e   s s E Q s s E Q   s s E Q e. s+e e

|-----------------|------------------||
|-----------------|------------------||
|-----------------|------------------||
|-----------------|------------------||
|---4-------4-----|---4-----6--5---1-||
|-0-2-----0-2-----|-0-2-----8--7---3-||
  s s E Q s s E Q   s s E Q e. s+e e

||----------------------------------|---------------------------|
||----------------------------------|---------------------------|
||o---------------------------------|---------------------------|
||o-------------4-------------------|-------------4-------------|
||--------4-------4-----------------|-------4-------4---------5-|
||--0-2-2---2-2-----5-2-3-4-5-2-4-5-|-0-2-2---2-2-----5-2-3-4-3-|
    s s s s s s s s s s s s s s s s   s s s s s s s s s s s s q

                                                                2x
|---------------------------------|------------------------------||
|---------------------------------|------------------------------||
|---------------------------------|-----------------------------o||
|-------------4-------------------|-------------4---------------o||
|-------4-------4-----------------|-------4-------4-3-4-5-6-7-8--||
|-0-2-2---2-2-----5-2-3-4-5-2-4-5-|-0-2-2---2-2-----1-2-3-4-5-6--||
  s s s s s s s s s s s s s s s s   s s s s s s s s e e e e e e
                                                    { 3 } { 3 }

 6/4        3/4       4/4
|----------|---------||
|----------|---------||
|----------|---------||
|----------|---------||
|-9--------|-(9)-\---||
|-7--------|-(7)-\---||
  w.       +  h.

 slower 64 bpm                      |1.,2.,3.                    |
||----------------------------------|----------------------------||
||----------------------------------|----------------------------||
||o---------------------------------|---------------------------o||
||o---------------------------------|---------------------------o||
||--3-5---3-5---3-5---3-5---3-6---3-|-5---3-5---3-5---3-6---3-3--||
||--1-3---1-3---1-3---1-3---1-4---1-|-3---1-3---1-3---1-4---1-1--||
    s s S s s S s s S s s S s s S s   s S s s S s s S s s S s q

|4.                         3/4  dive w/bar
|---------------------------|---------||
|---------------------------|---------||
|---------------------------|---------||
|---------------------------|---------||
|-5---3-5---3-5---3-6---3-3-|-(3)--\--||
|-3---1-3---1-3---1-4---1-1-|-(1)--\--||
  s S s s S s s S s s S s q +  q + h

 tempo I 102 bpm
 clean elec.                       w/Guitar solo
|-----------------|-----|-----|-----||-----|-----|-----|-----|
|-----------------|-----|-----|-----||-----|-----|-----|-----|
|-----------------|-----|-----|-----||-----|-----|-----|-----|
|-----2-----2-----|--%--|--%--|--%--||--%--|--%--|--%--|--%--|
|---4-----4---4---|-----|-----|-----||-----|-----|-----|-----|
|-2-----3-------3-|-----|-----|-----||-----|-----|-----|-----|
 e e e e e e e e

|-----------------|-----|-----------------|-----|
|-----------------|-----|-----------------|-----|
|-----2-----2-----|-----|-----------------|-----|
|---4-----4---4---|--%--|-----2-----2-----|--%--|
|-2-----3-------3-|-----|---4-----4---4---|-----|
|-----------------|-----|-2-----3-------3-|-----|
  e e e e e e e e         e e e e e e e e

|-----------------|-----------------|-----------------|-----------------|
|-----------------|-----------------|-----------------|-----------------|
|-----2-----2-----|-----2-----0-----|-----2-----2-----|-----2-----0-----|
|---3-----3---3---|---3-----3---3---|---3-----3---3---|---3-----3---3---|
|-5-----4-------4-|-3-----2-------2-|-5-----4-------4-|-3-----2-------2-|
|-----------------|-----------------|-----------------|-----------------|
  e e e e e e e e   e e e e e e e e   e e e e e e e e   e e e e e e e e

|-----------------|-----|-----|-----||
|-----------------|-----|-----|-----||
|-----------------|-----|-----|-----||
|-----2-----2-----|--%--|--%--|--%--||
|---4-----4---4---|-----|-----|-----||
|-2-----3-------3-|-----|-----|-----||
  e e e e e e e e

 chorus
 w/dist
|------------------------|---------------------|------------------------|
|------------------------|---------------------|------------------------|
|------------------------|---------------------|------------------------|
|------------------------|---------------------|------------------------|
|---4------4---4-----4-4-|---4------4-6--5---1-|---4------4---4-----4-4-|
|-0-2------2-0-2-----2-2-|-0-2------2-8--7---3-|-0-2------2-0-2-----2-2-|
  s s E E. s s s E E s s   s s E E. s e. s+e e   s s E E. s s s E E s s

|---------------------|-----------------|------------------|
|---------------------|-----------------|------------------|
|---------------------|-----------------|------------------|
|---------------------|-----------------|------------------|
|---4------4-6--5---1-|---4-------4-----|---4-----6--5---1-|
|-0-2------2-8--7---3-|-0-2-----0-2-----|-0-2-----8--7---3-|
  s s E E. s e. s+e e   s s E Q s s E Q   s s E Q e. s+e e

|-----------------|------------------||
|-----------------|------------------||
|-----------------|------------------||
|-----------------|------------------||
|---4-------4-----|---4-----6--5---1-||
|-0-2-----0-2-----|-0-2-----8--7---3-||
  s s E Q s s E Q   s s E Q e. s+e e

                                                                4x
||----------------------------------|----------------------------||
||----------------------------------|----------------------------||
||o---------------------------------|---------------------------o||
||o---------------------------------|---------------------------o||
||--3-5---3-5---3-5---3-5---3-6---3-|-5---3-5---3-5---3-6---3-3--||
||--1-3---1-3---1-3---1-3---1-4---1-|-3---1-3---1-3---1-4---1-1--||
    s s S s s S s s S s s S s s S s   s S s s S s s S s s S s q

|-----------|-------------||
|-----------|-------------||
|-----------|-------------||
|-----------|-------------||
|-2--2----3-|-(3)--3---\--||
|-2--0----1-|-(1)--3---\--||
  q. e+q. e +  q.  e+h

  slower 52 bpm                                                 2x
||----------------------------------|----------------------------||
||----------------------------------|----------------------------||
||o---------------------------------|---------------------------o||
||o---------------------------------|---------------------------o||
||--3-5---3-5---3-5---3-5---3-6---3-|-5---3-5---3-5---3-6---3-3--||
||--1-3---1-3---1-3---1-3---1-4---1-|-3---1-3---1-3---1-4---1-1--||
    s s S s s S s s S s s S s s S s   s S s s S s s S s s S s q

   cross fade                                          repeat and fade
||----------------------------------|----------------------------||
||----------------------------------|----------------------------||
||o---------------------------------|---------------------------o||
||o---------------------------------|---------------------------o||
||--3-5---3-5---3-5---3-5---3-6---3-|-5---3-5---3-5---3-6---3-3--||
||--1-3---1-3---1-3---1-3---1-4---1-|-3---1-3---1-3---1-4---1-1--||
    s s S s s S s s S s s S s s S s   s S s s S s s S s s S s q

                          full
                        |-----|------|------|------|
                        |-----|------|------|------|
                        |-9b~-|-(9)~-|-(9)~-|-(9)~-|
                        |-----|------|------|------|
                        |-----|------|------|------|
                        |-----|------|------|------|
 fade in 102 bpm        |  w  +  w   +  w   +  w   +
                        |     |      |
|-----------------|-----|-----|------|
|-----------------|-----|-----|------|
|-----------------|-----|-----|------|
|-----2-----2-----|--%--|--%--|--%---|  repeat till end
|---4-----4---4---|-----|-----|------|
|-2-----3-------3-|-----|-----|------|
  e e e e e e e e

       full,hold--|                                 1/4         1/2
|-------------------|-----------------|-------|--------------------|
|-------------------|-----------------|-------|--------------------|
|-(9)~-11b---11-11r-|--p9----11p9-11~-|-(11)~-|-14-b-----r--b-14br-|
|-------------------|-----11----------|-------|--------------------|
|-------------------|-----------------|-------|--------------------|
|-------------------|-----------------|-------|--------------------|
+ q   h  + e s  s   + s+s e  s +s e+h + w       q + q + e + e s +s +

  1/2  1/2                           w/wah     1/2       full 1/2 full
|-----------|-------------|----------------------------|-------------------|
|-----------|-------------|----------------------14-15-|-17b-r-17b-~-----r-|
|-b-r-b-r-~-|------14---~-|-~-\-/13-13-14-15-15b-------|-------------------|
|-----------|---x---------|----------------------------|-------------------|
|-----------|-x-----------|----------------------------|-------------------|
|-----------|-------------|----------------------------|-------------------|
+ q. + e+h         q + h. + q+e  e  e  e  e  e  e  e     q + e e + q.. + s
                                    {  3  }  {  3  }

  full 1/2 full 1/2 full    full  full        full full full full full
|-----------------------|--------------------|-------------|-14--14-~-|
|-17b-17b-17b-17b-17b~--|-17b---17b~---------|-14--16--17--|-17b-17b~-|
|-----------------------|--------------------|-16b-18b-19b-|----------|
|-----------------------|--------------------|-------------|----------|
|-----------------------|--------------------|-------------|----------|
|-----------------------|-----------------x\-|-------------|----------|
  e.  s   e   e   e + h   q + e e + q + e e    q.  e+q q     q.  e+h
          {   3   }

     1/4    1/4      1/4    1/4         full          full                full
|---17b---17-17b-17-17b-17-17b-17p14-|---------|----------17-21-20-19-17-19brp17-|
|------------------------------------|-17br-~--|-~---19b-------------------------|
|------------------------------------|---------|---------------------------------|
|------------------------------------|---------|---------------------------------|
|------------------------------------|---------|---------------------------------|
|------------------------------------|---------|---------------------------------|
  S s+e+e+e+ e   e  e   e  s  e + s    w         s S s+e. e  e  e  s  s  s s  s
        { 3  }   {  3   }

                                          hold bend       hold bend
   full            1.5       1.5    full   1.5         1.5
|--------|--------21b-|----21br----21b---|-b---21-r---21b-21-|
|-19b--~-|-~----------|------------------|-------------------|
|--------|------------|------------------|-------------------|
|--------|------------|------------------|-------------------|
|--------|------------|------------------|-------------------|
|--------|---x\-0-----|------------------|-------------------|
  h. + q + h q  e e   + q. e+e+s S q     + e. s+e+s S e+q e  +

                             N.H.               vib.
          hold bends          depress bar -5    w/bar
         1.5 1.75  1.5       and release slowly
|---r---21b-21b-21--r----r-|--------------|-------|-----|-----|-----||
|--------------------------|-3------------|-------|-----|-----|-----||
|--------------------------|--------------|-------|-----|-----|-----||
|--------------------------|--------------|-------|-----|-----|-----||
|--------------------------|--------------|-------|-----|-----|-----||
|--------------------------|--------------|-------|-----|-----|-----||
+ e+s S q   e   e + e. + s   w            + h + h +  w  +  w  +  w

6.RISE

Don't Know

7.NO GOOD(ATTACK THE RADICAL)

Drop D Tuning

|-----------------------------------------------------------------|   
|-----------------------------------------------------------------|
|-----------------------------------------------------------------|
|---------------------------3--------------------------3----------|
|----------------0--3--5------------------0--3--5-----------------|
|-----0--3--5-----------------0--3--5----------------------12-----|
                           
    2nd Half of Intro (Play Twice)

|----------------------------------------------------------------------------------|
|----------------------------------------------------------------------------------|
|----------------------------------------------------------------------------------|
|----------------------------------------------------------------------------------|
|----------------------------------3h5--3h5----------------------------------------|
|--3-4-5-3b-0----0-3h5-3b-0------------------------3-4-5-3b-0-----0-3h5-3b-0-5/7-3-|


|----------------------------------------------------------------------------------|
|----------------------------------------------------------------------------------|
|----------------------------------------------------------------------------------|
|---------------------------------------3------------------------------------------|
|---------------------------------3--5---------------------------------------------|
|--3-4-5-3b-0------0-3-0-3-5------------------3-4-5-3b-0-----0-3h5-3b-0-5/7-3----0-|
 

|-------------------------------|
|-------------------------------|
|-------------------------------|
|-------------------------------|
|-------------------------------|
|-------------------------------|
  Rest for two Bars

In the states there's a problem with race because of ignorant past burned fires
>From evolution we've killing each other I'd figure man should have it down to a science


|----------------------------------------------------------------------------------|
|----------------------------------------------------------------------------------|
|----------------------------------------------------------------------------------|
|----------------------------------------------------------------------------------|
|------5/7---3----1-1--1-1--1-1--1-1----44--44----1-1--1-1--1-1--1-1---5--6--------|
|------5/7---3----1-1--1-1--1-1--1-1----44--44----1-1--1-1--1-1--1-1---5--6--------|

                                                                            3
Times...No chance, not for a minute not for a second I won't be defensive,
 I'm straight out, in my opinion, You'd better listen to a man who knows what he's saying.
 I've seen your side, you run and hide, for mere fact that you feel

|-------------------------------------------------------------------------|
|-------------------------------------------------------------------------|
|-------------------------------------------------------------------------|
|-------------------------------------------------------------------------|
|-----1-1--1-1--1-1--1-1----44--44----1-1--1-1--1-1--1-1-----5/8--3-------|
|-----1-1--1-1--1-1--1-1----44--44----1-1--1-1--1-1--1-1-----5/8--3-------|

           inferior, be superior, and know your interior.
Pre-Chorus

|-----------------------------------------------------------------------------------|
|-----------------------------------------------------------------------------------|
|-----------------------------------------------------------------------------------|
|-----------------------------------------------------------------------------------|
|---5/7--77---5/7--77---5/7--77--10--5-----------5/7--77---5/7--77---5/7--77---3--5-|
|---5/7--77---5/7--77---5/7--77--10--5-----------5/7--77---5/7--77---5/7--77---3--5-|
  
   Race, pride, prejudice....     Blackman, whman, no stand

|----------------------------------------------------------------------------------|
|----------------------------------------------------------------------------------|
|----------------------------------------------------------------------------------|
|----------------------------------------------------------------------------------|
|---5/7--77---5/7--77---5/7--77--10--5----------5/7--77---5/7--77---5/7--77--10--11|
|---5/7--77---5/7--77---5/7--77--10--5----------5/7--77---5/7--77---5/7--77--10--11|

  Live in the past, we make it last, a hated mass. No solution, mind polution, for revolution.
(Play 2nd half of intro for chorus)
So low , behold my eyes,
This land of fools will rise.
No good, for no one,
No good, for no one.

You blame the oppression and play the role of criminals,
To rape and burn, progress is minimal.
White hoods and militants, you know it's such a pity,
Living, breathing, violence in your city.

If one man, had one home, in one world,
He'd live alone without variety, full of anxiety, 
No one to point at, question or even talk to in his private grave
No matter what color, he wouldn't be saved from hell, he dwells,
A closed mind playing the part of prison cells.

Pre-chorus
Chorus 

1st half of intro

|------------------------------------------------------------------------|
|------------------------------------------------------------------------|
|------------------------------------------------------------------------|
|------------------------------------------------------------------------|
|----011111111111-3/4---011111111111-3/4---011111111111-3/4---1/1-1/1----|
|----011111111111-3/4---011111111111-3/4---011111111111-3/4---1/1-1/1----|
      ( all the ones are 1st fret)
                                                    (twice)
8.LIVE IN A HOLE

|--------------------------------------------------------------------------|
|-6-5-4--------------------------------------------------------------------|
|-------3-2-1--------------------------------------------------------------|
|-------------3-2-1--------------------------------------------------------|
|--------------------------------------------------------------------------|
|------------------------8-7-6---------------------------------------------|

|--14--17-15----------------x-x-15-15-15-14-15^-14-21^--------|
|0-14--------18-16-15-12-15-x-x-------------------------------|
|0--------------------------x-x-------------------------------|
|-------------------------------------------------------------|
|-------------------------------------------------------------|
|-------------------------------------------------------------|


|--------------------------------------------------------------------------|
|-6-5-4--------------------------------------------------------------------|
|-------3-2-1--------------------------------------------------------------|
|-------------3-2-1--------------------------------------------------------|
|---------------------------------8-7-6--8-7-6---------------8-7-6---------|
|------------------------8-7-6-----------8-7-6--3-2-1--8-7-6-------8-7-6~--|


|------------------|-----------------|------------------|
|------------------|-2---------------|-2---2~~----------|
|------------------|-3---------------|-3----------------|
|---5-6-7----------|----3------------|------------------|
|---3-4-5---0------|------4-5--0-----|------------------|
|-----------0------|-----------0-----|------------------|

|---------------------------------------------------------------------|
|---------------------------------------------------------------------|
|---------------------------------------------------------------------|
|-----------------------6-5-4------------------------6-5-4------------|
|----1-2--4-3-2----1-2--4-3-2----1-2--5-4-3-----1-2--4-3-2------------|
|-4~------------4~------------4~-------------4~-----------------------|

9.REGULAR PEOPLE(CONCEIT)

Fig. 1
|------------------------------------------------
|------------------------------------------------
|------------------------------------------------
|------------------------------------------------
|--2-2-2-2-2-2-2-2-2-2-2-2-2-2-2-2-2-2-2-2-2-2-2-
|--0-0-0-0-0-0-0-0-0-0-0-0-0-0-0-0-0-0-0-0-0-0-0-


Fig. 2
|----------------------------------------------------
|----------------------------------------------------
|----------------------------------------------------
|----------------------------------------------------
|----------8p7-------------7---------------7p5-------
|--0---0-0-------0---0-7-8---8-5-6-0---0-0-------0---

|----------------------------------------------------
|----------------------------------------------------
|----------------------------------------------------
|----------------------------------------------------
|--------5---------------7h8-------------7-----------
|--0-5-6---6-1-3-0---0-0-------0---0-7-8---8-4---0-0-

|----------------------------
|----------------------------
|----------------------------
|--7-------8-------5-------3-
|--7-------8-------5-------3-
|--5---0-0-6---0-0-3---0-0-1-
                           End Fig. 2

Fig. 3
|--------------------------------------------------------
|--------------------------------------------------------
|--------------------------------------------------------
|--2-------------------------------2---------------------
|--2-----------------------2-------2---------------------
|--0---0-0---0-0---0-0-0---3-------0---0-0---0-0---0-0-0-

|------------------------------------------------------
|------------------------------------------------------
|------------------------------------------------------
|------------2-------------------------------7-------8-
|----3-------2-----------------------5-------7-------8-
|----5-------0---0-0---0-0---0-0-0---6-------5---5-5-6-

|----------------------
|----------------------
|----------------------
|------5-------3-------
|------5-------3-------
|--6-6-3---3-3-1---1-1-
                   End Fig. 3

Fig. 4
|---------------------------------
|---------------------------------
|---------------------------------
|--------------------------2------
|--4-4-4-5-5-5-4-4-5-5-----2------
|--5-5-5-5-5-5-5-5-5-5-3h4-0------
                           End Fig. 4

Fig. 5
[chords]
|-------||-----||
|-------||-----||
|-------||-----||
|--4----||--6--||
|--3----||--5--||
|--2----||--4--||


Fig. 6
|-----------------------------------
|-----------------------------------
|-----------------------------------
|--2--------------------------------
|--1--------------------------------
|----0-0-0-0-0-0-0-0-0-0-0-0-000-0--


Fig. 7
|---------------------------------
|---------------------------------
|---------------------------------
|--2-----2-----2-----2-----2------
|--1-----1-----1-----1-----2------
|----000---000---000---00000------

10.BY DEMONS BE DRIVEN

  Start with backfeed

--------------------------------------------------------------------------------------
---------------------(0)--------------------------------------------------------------
--------------------------------------------------------------------------------------
---------------------(0)--------------------------------------------------------------
---------------------(0)--------------------------------------------------------------
---------------------(0)--------------------------------------------------------------

Intro and Chorus

---------------------------------------0----------0--------0--------------------------
---------------------------------------3b(5)------3b(5)----3b(5)----------------------
--------------------------------------------------------------------------------------
--------------------------------------------------------------------------------------
--------------------------------------------------------------------------------------
--0-0-0-0-0-0-0-----0-0-0-0-0-0-0-----------------------------------------------------

                                                                    (last time only)
-----------------------------------------------------------------|--------------------
-----------------------------------------------------------------|--------------------
-----------------------------------------------------------------|--------------------
-----------------------------------------3-/--5-\--3-/--5-\--3---|---5b(6)--2---------
-----------------------------------------3-/--5-\--3-/--5-\--3---|-------------5~~~---
--0-0-0-0-0-0-0-----0-0-0-0-0-0-0--------1-/--3-\--1-/--3-\--1---|--------------------

Verse

--------------------------------------------------------------------------------------
---------------------5~~~~------------------------------------------------------------
-----------------------------------------------------------------------------0--------
-----------2-----------------------------------------------------0--------------2--0--
------2h5-----------------------5--4--3--2--1--0-----------0-1-2----------------------
--0----------------------------------------------------3-4--------------3-0-----------


Solo

hit pings back and forth on g and d string any notes.  Improvize in e minor pentatonic

11.HOLLOW

standard tuning, slightly flat

Intro

Gtr 1. (w/dist)                                                      2x
|--------------|--------------10b|10-10b-10---|----------|-----------|
|--------------|------8---12-----|----------12|----------|-----------|
|-------------9|~~-9-------------|------------|---------9|-9----9----|
|-7~~--7--10---|-----------------|------------|7---7-10--|-----------|
|--------------|-----------------|------------|----------|---10b--9b-|
|--------------|-----------------|------------|----------|-----------|
|                                                                    |
|Gtr. 2 (w/dist)                                                     |
|--------------|------7---10--10b|10-10b-10---|----------|-----------|
|-------------8|~~-8-------------|----------12|---------8|-8----8----|
|-5~~--5---9---|-----------------|------------|5---5--9--|-----------|
|--------------|-----------------|------------|----------|----9---8--|
|--------------|-----------------|------------|----------|-----------|
|--------------|-----------------|------------|----------|-----------|

Rhythm behind leads/ Verse (12 str. acous)
|------------------------------------------------|
|-------0-----------0----------0-----------0-----|
|-----5---5-------5---5------5---5-------5---5---|
|---2-------2---2-------2--2-------2---2-------2-|
|-0-----------3----------------------0-----------|
|-------------------------3----------------------|

End of Verse 
|-----------------------------------------------------------------------------------|
|------0----------0-----------0-----------0----------0-----------0-----------0------|
|----5---5------5---5-------5---5-------5---5------5---5-------5---5-------5---5----|
|--2-------2--2-------2-----------0-----------0----------0-----------0---2-------2--|
|-------------------------3-----------3-----------2----------2----------------------|
|0----------0-----------2-----------2-----------3----------3-----------0-----------0|

Solo 
Gtr 3. (w/dist)
|---------------------------------------------5------------------------------|
|-8br-8p5---5h8----8b-8-5---5---------------5---5h8p5-6----------------------|
|---------8---------------8---7h8p7h5-5h7h8-------------8-8p7p5-8p5p7-5h7h8--|
|----------------------------------------------------------------------------|
|----------------------------------------------------------------------------|
|----------------------------------------------------------------------------|

|-------------------------------------------------------------------------|
|-5---------------------------20-20-------------20-17-----------20b-20-20b|
|---8p7p5-----------------19b--------19b-19-19b-------19b-19-19b----------|
|---------7p5h7v----------------------------------------------------------|
|----------------5v-3-5---------------------------------------------------|
|-------------------------------------------------------------------------|

Bridge (acous)                                                         3x
|------------|------------|------------|------------|------------------|
|------------|------------|------------|------------|------------------|
|------0-----|------0-----|-------0----|-------0----|-----0---0-----0--|
|----4---4---|----4---4---|-----4---4--|-----4---4--|---0-------4-----3|
|--2-------2-|--2-------2-|---2-------2|---2-------2|------------------|
|0-----------|0-----------|-0----------|-0----------|3------2-----1----|

|---------------------------------------|
|---------------------------------------|
|---------0---0-----0-----0----0--------|
|-------4---------2-----2----2-----0----|
|-5-/-7-----5---4-----3----2------------|
|--------------------------------3---2-1|

Breakdown (w/ dist)
|--------------|----------------|
|--------------|----------------|
|--------------|---------3-3-3-3|
|---------0-1-2|----------------|
|-2-2-2-2-0-1-2|-2-2-2-2-1-1-1-1|
|-0-0-0-3------|-0-0-0-0--------|

2nd breakdown (there are a couple of variations on this riff)
|-----------------------------|-----------------------------|
|-----------------------------|-----------------------------|
|-----------------------------|-----------------------------|
|-----------------------------|-----------------------------|
|-----------------------------|-----------------------------|
|-0-/8b-6b--0-/8b-6b--0-6-0-6-|-0-/8b-6b--0-/8b-6b--6-6-7-8-|

Bridge

Gtr. 1 (acous)
|---------------------------------------|
|---------------------------------------|
|---------0---0-----0-----0----0--------|
|-------4---------2-----2----2-----0----|
|-5-/-7-----5---4-----3----2------------|
|--------------------------------3---1-0|
|
|Gtr. 2 (w/ dist)
|---------------------------------------|
|---------------------------------------|
|---------------------------------------|
|-----9-----7---6-----5----4------------|
|-----7-----5---4-----3----2-----------2|
|--------------------------------3---1-0|

At the end...
Gtr. 2 w/dist
n.h..................
|------------------12-------------------|
|---------7-----------------------------|
|---5-----------------------------------|
|---------------------------------------|
|---------------------------------------|
|---------------------------------------|

Outro
w/dist
|-----------------------------|-----------------------------|
|-----------------------------|-----------------------------|
|-----------------------------|-----------------------------|
|-----------------------------|-----------------------------|
|-----------------------------|-----------------------------|
|-0-/8b-6b--0-/8b-6b--0-6-0-6-|-0-/8b-6b--0-/8b-6b--6-6-7-8-|

Dimebag is a god up there.
comments
print report bad tab
4 comments total. Showing first comments.
+1 reply
AngusYoung II wrote on May 24 2006, 03:45 am

Legends Never Die (1966 - 2004 R.I.P Darrell "Dimebag" Abbott)

-1 reply
Kreuger wrote on March 1 2007, 06:26 pm

Um the first song is A New Level..

-1 reply
Kreuger wrote on March 1 2007, 06:27 pm

nveermind it looked the same

I want to post or [tab]
guest
You may want to rate the tab now too:
select rating
Please do not post tabs as comments. Select "correction" instead!