Oops, an error
Loading. Please wait.

Vulgar Display Of Power Tab

ver2
ver2

Album

More versions @911Tabs.com
8,861 views 33 this week
1 commentread comment
1 2 3 4 5
excellent!
x 2
Autoscroll
+/-
esc
set tempo
stop
Contributor
Hey! There's an official Ultimate Guitar app which is ideal
for learning songs when you're away from computer. Get the app
WARNING: You are trying to view
                                    content from Ultimate-Guitar.com
                                    in an unauthorized application,
                                    which is prohibited.

                                    Please use an official Ultimate
                                    Guitar Tabs application for iPhone,
                                    iPad or Android to access legitimate
                                    chords, guitar, bass, and drum tabs
                                    from Ultimate-Guitar.com database.

                                    Type "ultimate guitar tabs" in Apple
                                    App Store's or Android Market's
                                    search to find the application.





							PANTERA
						VULGAR DISPLAY OF POWER
						 (c) 1991 ATCO RECORDS

						 Tab by Colin Andrews
					    http://www.myspace.com/dogbiscuit


---------------------------------------------------------------------------------------------------------------------

							TRACK LISTING

							1.  Mouth for War
							2.  A New Level
							3.  Walk
							4.  Fucking Hostile
							5.  This Love
							6.  Rise
							7.  No Good (Attack the Radical)
							8.  Live in a Hole
							9.  Regular People (Conceit)
							10. By Demons Be Driven
							11. Hollow



			^^^^^^^^^^^^^^^^^^^^^^^^^^^^^^^^^^^^^^^^^^^^^^^^^^^
			NOTATION LEGEND

			Duration Legend
			---------------
			W - whole
			H - half
			Q - quarter
			E - 8th
			S - 16th
			T - 32nd
			X - 64th
			. - note dotted
			|-n-|  - n-tuplets


			Tablature Legend
			----------------
			L - tied note
			x - dead note
			g - grace note
			(n) - ghost note
			> - accentuded note
			NH - natural harmonic
			AH - artificial harmonic
			TH - tapped harmonic
			SH - semi harmonic
			PH - pitch harmonic
			h - hammer on
			p - pull off
			b - bend
			br - bendRelease
			pb - preBend
			pbr - preBendRelease
			brb - bendReleaseBend
			\n/ - tremolo bar dip
			\n - tremolo bar dive
			-/n - tremolo bar Release up
			/n\ - tremolo bar inverted dip
			/n - tremolo bar return
			-\n - tremolo bar Release down
			S - shift slide
			s - legato slide
			/ -  slide into from below or out of upwards
			\ -  slide into from above or out of downwards
			~ - vibrato
			W - wide vibrato
			tr - trill
			TP - tremolo picking
			T - tapping
			S - slap
			P - pop
			< - fade in
			^ - brush up
			v - brush down

			vvvvvvvvvvvvvvvvvvvvvvvvvvvvvvvvvvvvvvvvvvvvvvvvvvvvvvvvvvv
---------------------------------------------------------------------------------------------------------------------



						=================================

							1. MOUTH FOR WAR

						=================================


     Tempo = 154 Bpm            PM -------------------------------------       -
     S               S E  E  E  E                                        E  E  E
E||-----------------------------------------------------------------------------
B||-----------------------------------------------------------------------------
G||-----------------------------4-----------------------------------------------
D||-----------------------------4-----------------------------------------------
A||--0---------------1-2--2--2--2----------------------------------------2--2--2
E||-----------------------------------------------------------------------------


  ----------------------------------------         ------------ ----------------
  S                                        S E  E  E            E               
--------------------------------------------------------------------------------
--------------------------------------------------------------------------------
---------------------------------------------------4----------------------------
---------------------------------------------------4----------------------------
--0----------------------------------------1-2--2--2------------2---------------
--------------------------------------------------------------------------------


  PM                           PM                         
  S  S E  E  E  E  E  E  E     S  S E  E  E  E  E  E  E   
----------------------------|----------------------------|
----------------------------|----------------------------|
----------------4-----------|-------------4-----4-----4--|
----------------4-----------|-------------4-----4-----4--|
--0--1-2--2--2--2--2--2--2--|--0--1-2--2--2--2--2--2--2--|
----------------------------|----------------------------|


  PM                           PM                         
  S  S E  E  E  E  E  E  E     S  S E  E  E  E  E  E  E   
----------------------------|----------------------------|
----------------------------|----------------------------|
----------------4-----------|-------------4-----4-----4--|
----------------4-----------|-------------4-----4-----4--|
--0--1-2--2--2--2--2--2--2--|--0--1-2--2--2--2--2--2--2--|
----------------------------|----------------------------|


      Lighter PM in this part                                                
  S S E                       E  E  E  E  E  E     S S E  E  E  E  E  E  E   
------------------------------------------------|---------------------------|
------------------------------------------------|---------------------------|
------------------------------------4-----------|------------4-----4-----4--|
------------------------------------4-----------|------------4-----4-----4--|
--0-1-2-----------------------2--2--2--2--2--2--|--0-1-2--2--2--2--2--2--2--|
------------------------------------------------|---------------------------|


    Q    E  E  E  Q    E     E  E  E  E  E  E  Q     3x  Q    E  E  E  Q    E   
|-------------------------|--------------------------||------------------------|
|-------------------------|--------------------------||------------------------|
|*------------------------|-------------------------*||------------------------|
|*------------------------|-------------------------*||------------------------|
|---2----5--9-----5-------|--5--9-----5--9-----5-----||--2----5--9-----5-------|
|---0----3--7--0--3----0--|--3--7--0--3--7--0--3-----||--0----3--7--0--3----0--|


  H        E  E  E  E     E  E  E  E  E   E  E  E     E  E  E  E  E  E  E  E   
-----------3--3--3-----|---------------------------|--------------------------|
-----------3--3--3-----|---------------------------|--------------------------|
-----------------------|---------------------------|--------------------------|
-----------------------|---------------------------|--------------------------|
--9-----------------2--|--L-----8-----9--10-----7--|--8-----5-----5--7-----4--|
--7-----------------0--|--L--0--6--0--7---8--0--5--|--6--0--3--0--3--5--0--2--|


  E  E  E  E  E   E  E  E     E  E  E  E  E  E  E  E   
---------------------------|--------------3--3--3-----|
---------------------------|--------------3--3--3-----|
---------------------------|--------------------------|
---------------------------|--------------------------|
--5-----8-----9--10-----7--|--9-----5--------------2--|
--3--0--6--0--7---8--0--5--|--7--0--3--0-----------0--|


  E  E  E  E  E   E  E  E     E  E  E  E  E  E  E  E   
---------------------------|--------------------------|
---------------------------|--------------------------|
---------------------------|--------------------------|
---------------------------|--------------------------|
--L-----8-----9--10-----7--|--8-----5-----5--7-----4--|
--L--0--6--0--7---8--0--5--|--6--0--3--0--3--5--0--2--|


  E  E  E  E  E   E  E  E     E  E  E  E  E  E  Q     
---------------------------|--------------3--3-------|
---------------------------|--------------3--3-------|
---------------------------|-------------------------|
---------------------------|-------------------------|
--5-----8-----9--10-----7--|--8-----5----------------|
--3--0--6--0--7---8--0--5--|--6--0--3--0-------------|


  Vocals enter "Revenge !!!"                                      
  E                          E  Q       E  E  E  E  E   E  E  E   
-------------------------------------|---------------------------|
-------------------------------------|---------------------------|
-------------------------------------|---------------------------|
-------------------------------------|---------------------------|
--2-----------------------------2----|--L-----8-----9--10-----7--|
--0-----------------------------0----|--L--0--6--0--7---8--0--5--|


  E  E  E  E  E  E  E  E     E  E  E  E  E   E  E  E   
--------------------------|---------------------------|
--------------------------|---------------------------|
--------------------------|---------------------------|
--------------------------|---------------------------|
--8-----5-----5--7-----4--|--5-----8-----9--10-----7--|
--6--0--3--0--3--5--0--2--|--3--0--6--0--7---8--0--5--|


  E  E  E  E  E  E  E  E     E  E  E  E  E   E  E  E   
--------------3--3--3-----|---------------------------|
--------------3--3--3-----|---------------------------|
--------------------------|---------------------------|
--------------------------|---------------------------|
--9-----5--------------2--|--L-----8-----9--10-----7--|
--7--0--3--0-----------0--|--L--0--6--0--7---8--0--5--|


  E  E  E  E  E  E  E  E     E  E  E  E  E   E  E  E   
--------------------------|---------------------------|
--------------------------|---------------------------|
--------------------------|---------------------------|
--------------------------|---------------------------|
--8-----5-----5--7-----4--|--5-----8-----9--10-----7--|
--6--0--3--0--3--5--0--2--|--3--0--6--0--7---8--0--5--|


  E  E  E  E  E  E  E  E     E  E  E  E  E   E  E  E   
--------------3--3--3-----|---------------------------|
--------------3--3--3-----|---------------------------|
--------------------------|---------------------------|
--------------------------|---------------------------|
--9-----5--------------2--|--L-----8-----9--10-----7--|
--7--0--3--0-----------0--|--L--0--6--0--7---8--0--5--|


  E  E  E  E  E  E  E  E     E  E  E  E  E   E  E  E   
--------------------------|---------------------------|
--------------------------|---------------------------|
--------------------------|---------------------------|
--------------------------|---------------------------|
--8-----5-----5--7-----4--|--5-----8-----9--10-----7--|
--6--0--3--0--3--5--0--2--|--3--0--6--0--7---8--0--5--|


  E  E  E  E  E  E  E  E     E  E  E  E  E   E  E  E   
--------------3--3--3-----|---------------------------|
--------------3--3--3-----|---------------------------|
--------------------------|---------------------------|
--------------------------|---------------------------|
--9-----5--------------2--|--L-----8-----9--10-----7--|
--7--0--3--0-----------0--|--L--0--6--0--7---8--0--5--|


  E  E  E  E  E  E  E  E     E  E  E  E  E   E  E  E   
--------------------------|---------------------------|
--------------------------|---------------------------|
--------------------------|---------------------------|
--------------------------|---------------------------|
--8-----5-----5--7-----4--|--5-----8-----9--10-----7--|
--6--0--3--0--3--5--0--2--|--3--0--6--0--7---8--0--5--|


  E  E  E  E  E  E  E  E       S S E  E  E  E  E  E  E   
--------------3--3--3--3--||----------------------------|
--------------3--3--3--3--||----------------------------|
--------------------------||*---------------4-----------|
--------------------------||*---------------4-----------|
--9-----5-----------------||---0-1-2--2--2--2--2--2--2--|
--7--0--3--0--------------||----------------------------|


  S S E  E  E  E  E  E  E   3x  S S E  E  E  E  E  E  E   
----------------------------||---------------------------|
----------------------------||---------------------------|
------------4-----4-----4--*||---------------4-----------|
------------4-----4-----4--*||---------------4-----------|
--0-1-2--2--2--2--2--2--2---||--0-1-2--2--2--2--2--2--2--|
----------------------------||---------------------------|


  S S E  E  E  E  E  E  E       Q    E  E  E  Q    E   
---------------------------||-------------------------|
---------------------------||-------------------------|
------------4-----4-----4--||*------------------------|
------------4-----4-----4--||*------------------------|
--0-1-2--2--2--2--2--2--2--||---2----5--9-----5-------|
---------------------------||---0----3--7--0--3----0--|


  E  E  E  E  E  E  Q     3x  Q    E  E  E  Q    E     H        E  E  E  E   
--------------------------||------------------------|-----------3--3--3-----|
--------------------------||------------------------|-----------3--3--3-----|
-------------------------*||------------------------|-----------------------|
-------------------------*||------------------------|-----------------------|
--5--9-----5--9-----5-----||--2----5--9-----5-------|--9-----------------2--|
--3--7--0--3--7--0--3-----||--0----3--7--0--3----0--|--7-----------------0--|


  E  E  E  E  E   E  E  E     E  E  E  E  E  E  E  E   
---------------------------|--------------------------|
---------------------------|--------------------------|
---------------------------|--------------------------|
---------------------------|--------------------------|
--L-----8-----9--10-----7--|--8-----5-----5--7-----4--|
--L--0--6--0--7---8--0--5--|--6--0--3--0--3--5--0--2--|


  E  E  E  E  E   E  E  E     E  E  E  E  E  E  E  E   
---------------------------|--------------3--3--3-----|
---------------------------|--------------3--3--3-----|
---------------------------|--------------------------|
---------------------------|--------------------------|
--5-----8-----9--10-----7--|--9-----5--------------2--|
--3--0--6--0--7---8--0--5--|--7--0--3--0-----------0--|


  E  E  E  E  E   E  E  E     E  E  E  E  E  E  E  E   
---------------------------|--------------------------|
---------------------------|--------------------------|
---------------------------|--------------------------|
---------------------------|--------------------------|
--L-----8-----9--10-----7--|--8-----5-----5--7-----4--|
--L--0--6--0--7---8--0--5--|--6--0--3--0--3--5--0--2--|


  E  E  E  E  E   E  E  E     E  E  E  E  E  E  Q     
---------------------------|--------------3--3-------|
---------------------------|--------------3--3-------|
---------------------------|-------------------------|
---------------------------|-------------------------|
--5-----8-----9--10-----7--|--8-----5----------------|
--3--0--6--0--7---8--0--5--|--6--0--3--0-------------|


  "Possessed !!!"                                      
  E               E  Q       E  E  E  E  E   E  E  E   
--------------------------|---------------------------|
--------------------------|---------------------------|
--------------------------|---------------------------|
--------------------------|---------------------------|
--2------------------2----|--L-----8-----9--10-----7--|
--0------------------0----|--L--0--6--0--7---8--0--5--|


  E  E  E  E  E  E  E  E     E  E  E  E  E   E  E  E   
--------------------------|---------------------------|
--------------------------|---------------------------|
--------------------------|---------------------------|
--------------------------|---------------------------|
--8-----5-----5--7-----4--|--5-----8-----9--10-----7--|
--6--0--3--0--3--5--0--2--|--3--0--6--0--7---8--0--5--|


  E  E  E  E  E  E  E  E     E  E  E  E  E   E  E  E   
--------------3--3--3-----|---------------------------|
--------------3--3--3-----|---------------------------|
--------------------------|---------------------------|
--------------------------|---------------------------|
--9-----5--------------2--|--L-----8-----9--10-----7--|
--7--0--3--0-----------0--|--L--0--6--0--7---8--0--5--|


  E  E  E  E  E  E  E  E     E  E  E  E  E   E  E  E   
--------------------------|---------------------------|
--------------------------|---------------------------|
--------------------------|---------------------------|
--------------------------|---------------------------|
--8-----5-----5--7-----4--|--5-----8-----9--10-----7--|
--6--0--3--0--3--5--0--2--|--3--0--6--0--7---8--0--5--|


  E  E  E  E  E  E  E  E     E  E  E  E  E   E  E  E   
--------------3--3--3-----|---------------------------|
--------------3--3--3-----|---------------------------|
--------------------------|---------------------------|
--------------------------|---------------------------|
--9-----5--------------2--|--L-----8-----9--10-----7--|
--7--0--3--0-----------0--|--L--0--6--0--7---8--0--5--|


  E  E  E  E  E  E  E  E     E  E  E  E  E   E  E  E   
--------------------------|---------------------------|
--------------------------|---------------------------|
--------------------------|---------------------------|
--------------------------|---------------------------|
--8-----5-----5--7-----4--|--5-----8-----9--10-----7--|
--6--0--3--0--3--5--0--2--|--3--0--6--0--7---8--0--5--|


  E  E  E  E  E  E  E  E     E  E  E  E  E   E  E  E   
--------------3--3--3-----|---------------------------|
--------------3--3--3-----|---------------------------|
--------------------------|---------------------------|
--------------------------|---------------------------|
--9-----5--------------2--|--L-----8-----9--10-----7--|
--7--0--3--0-----------0--|--L--0--6--0--7---8--0--5--|


  E  E  E  E  E  E  E  E     E  E  E  E  E   E  E  E   
--------------------------|---------------------------|
--------------------------|---------------------------|
--------------------------|---------------------------|
--------------------------|---------------------------|
--8-----5-----5--7-----4--|--5-----8-----9--10-----7--|
--6--0--3--0--3--5--0--2--|--3--0--6--0--7---8--0--5--|


  E  E  E  E  E  E  E  E       S S E  E  E  E  E  E  E   
--------------3--3--3--3--||----------------------------|
--------------3--3--3--3--||----------------------------|
--------------------------||*---------------4-----------|
--------------------------||*---------------4-----------|
--9-----5-----------------||---0-1-2--2--2--2--2--2--2--|
--7--0--3--0--------------||----------------------------|


  S S E  E  E  E  E  E  E   3x  S S E  E  E  E  E  E  E   
----------------------------||---------------------------|
----------------------------||---------------------------|
------------4-----4-----4--*||---------------4-----------|
------------4-----4-----4--*||---------------4-----------|
--0-1-2--2--2--2--2--2--2---||--0-1-2--2--2--2--2--2--2--|
----------------------------||---------------------------|


  S S E  E  E  E  E  E  E       Q    E  E  E  Q    E   
---------------------------||-------------------------|
---------------------------||-------------------------|
------------4-----4-----4--||*------------------------|
------------4-----4-----4--||*------------------------|
--0-1-2--2--2--2--2--2--2--||---2----5--9-----5-------|
---------------------------||---0----3--7--0--3----0--|


  E  E  E  E  E  E  Q     3x  Q    E  E  E  Q    E     E  E  E  E  E  E  Q     
--------------------------||------------------------|-------------------------|
--------------------------||------------------------|-------------------------|
-------------------------*||------------------------|-------------------------|
-------------------------*||------------------------|-------------------------|
--5--9-----5--9-----5-----||--2----5--9-----5-------|--5--9-----5--9-----5----|
--3--7--0--3--7--0--3-----||--0----3--7--0--3----0--|--3--7--0--3--7--0--3----|


  Bridge                                                 
  E      E  E  E  E  Q    E     E  E  E  E  E  E  E  E   
-----------------------------|--------------------------|
-----------------------------|--------------------------|
-----------------------------|--------------------------|
------------------4----------|--8--7--6--4-----4--------|
--4------6--6--6--2--6----L--|--6--5--4--2-----2-----4--|
--2------4--4--4-----4----L--|-----------------------2--|


  H        E  E  E  E     W                   E  E  E  E  E  Q    E   
-----------------------|-------------------|-------------------------|
-----------------------|-------------------|-------------------------|
-----------------------|-------------------|-------------------------|
--------------9--8--7--|--L----------------|--------------4----------|
--2--------L--7--6--5--|--L----------------|--4--6--6--6--2--6----L--|
--0--------L-----------|-------------------|--2--4--4--4-----4----L--|


  E  E  E  E  E  E  E  E     H        E  E  E  E     W                 
--------------------------|-----------------------|-------------------|
--------------------------|-----------------------|-------------------|
--------------------------|-----------------------|-------------------|
--8--7--6--4-----4--------|--------------9--8--7--|--L----------------|
--6--5--4--2-----2-----4--|--2--------L--7--6--5--|--L----------------|
-----------------------2--|--0--------L-----------|-------------------|


  E  E  E  E  E  Q    E     E  E  E  E  E  E  E  E     H        E  E  E  E   
-------------------------|--------------------------|-----------------------|
-------------------------|--------------------------|-----------------------|
-------------------------|--------------------------|-----------------------|
--------------4----------|--8--7--6--4-----4--------|--------------9--8--7--|
--4--6--6--6--2--6----L--|--6--5--4--2-----2-----4--|--2--------L--7--6--5--|
--2--4--4--4-----4----L--|-----------------------2--|--0--------L-----------|


  W                   E  E  E  E  E  Q    E     E  E  E  E  E  E  E  E   
-------------------|-------------------------|--------------------------|
-------------------|-------------------------|--------------------------|
-------------------|-------------------------|--------------------------|
--L----------------|--------------4----------|--8--7--6--4-----4--------|
--L----------------|--4--6--6--6--2--6----L--|--6--5--4--2-----2-----4--|
-------------------|--2--4--4--4-----4----L--|-----------------------2--|


  H        E  E  E  E     W                   E  E  E  E  E  Q    E   
-----------------------|-------------------|-------------------------|
-----------------------|-------------------|-------------------------|
-----------------------|-------------------|-------------------------|
--------------9--8--7--|--L----------------|--------------4----------|
--2--------L--7--6--5--|--L----------------|--4--6--6--6--2--6----L--|
--0--------L-----------|-------------------|--2--4--4--4-----4----L--|


  E  E  E  E  E  E  E  E     H        E  E  E  E     W                 
--------------------------|-----------------------|-------------------|
--------------------------|-----------------------|-------------------|
--------------------------|-----------------------|-------------------|
--8--7--6--4-----4--------|--------------9--8--7--|--L----------------|
--6--5--4--2-----2-----4--|--2--------L--7--6--5--|--L----------------|
-----------------------2--|--0--------L-----------|-------------------|


  E  E  E  E  E  Q    E     E  E  E  E  E  E  E  E     H        E  E  E  E   
-------------------------|--------------------------|-----------------------|
-------------------------|--------------------------|-----------------------|
-------------------------|--------------------------|-----------------------|
--------------4----------|--8--7--6--4-----4--------|--------------9--8--7--|
--4--6--6--6--2--6----L--|--6--5--4--2-----2-----4--|--2--------L--7--6--5--|
--2--4--4--4-----4----L--|-----------------------2--|--0--------L-----------|


                        Tempo 292 bpm                     
  W                     Q             E  Q    E  E  E   9x
-------------------||-----------------------------------||
-------------------||-----------------------------------||
-------------------||*---------------------------------*||
--L----------------||*---------------------------------*||
--L----------------||---6----------------6-------6--4---||
-------------------||---4----------------4-------4--2---||


   E  E  E  E  E  E  E  E     E  E  E  E  E  E  E  E     W                 
---------------------------|--------------------------|-------------------|
---------------------------|--------------------------|-------------------|
*--------------------------|--------------------------|-------------------|
*--------------------------|--------------------------|--9----------------|
---6-----------------------|--------------------------|--9----------------|
---4--4--4--4--4--4--4--4--|--4--4--4--4--4--4--4--4--|-------------------|


  W                   E  E  E  E  E  E  E  E     E  E  E  E  E  E  E  E   
-------------------|--------------------------|--------------------------|
-------------------|--------------------------|--------------------------|
-------------------|--------------------------|--------------------------|
--L----------------|--------------------------|--------------------------|
--L----------------|--6-----------------------|--------------------------|
-------------------|--4--4--4--4--4--4--4--4--|--4--4--4--4--4--4--4--4--|


  W                   W                      Q    E  Q    E  E  E     
-------------------|--------------------||--------------------------||
-------------------|--------------------||--------------------------||
-------------------|-------------------*||*------------------------*||
--7----------------|--L----------------*||*------------------------*||
--7----------------|--L-----------------||---6-------6-------6--4---||
-------------------|--------------------||---4-------4-------4--2---||


  E  E  E  E  E  E  E  E     E  E  E  E  E  E  E  E     W                 
--------------------------|--------------------------|-------------------|
--------------------------|--------------------------|-------------------|
--------------------------|--------------------------|-------------------|
--------------------------|--------------------------|--9----------------|
--6-----------------------|--------------------------|--9----------------|
--4--4--4--4--4--4--4--4--|--4--4--4--4--4--4--4--4--|-------------------|


  W                   E  E  E  E  E  E  E  E     E  E  E  E  E  E  E  E   
-------------------|--------------------------|--------------------------|
-------------------|--------------------------|--------------------------|
-------------------|--------------------------|--------------------------|
--L----------------|--------------------------|--------------------------|
--L----------------|--6-----------------------|--------------------------|
-------------------|--4--4--4--4--4--4--4--4--|--4--4--4--4--4--4--4--4--|


  W                   W                   E  E  E  E  E  E  E  E   
-------------------|-------------------|--------------------------|
-------------------|-------------------|--------------------------|
-------------------|-------------------|--------------------------|
--7----------------|--L----------------|--------------------------|
--7----------------|--L----------------|--6-----------------------|
-------------------|-------------------|--4--4--4--4--4--4--4--4--|


  E  E  E  E  E  E  E  E     W                   W                 
--------------------------|-------------------|-------------------|
--------------------------|-------------------|-------------------|
--------------------------|-------------------|-------------------|
--------------------------|--9----------------|--L----------------|
--------------------------|--9----------------|--L----------------|
--4--4--4--4--4--4--4--4--|-------------------|-------------------|


  E  E  E  E  E  E  E  E     E  E  E  E  E  E  E  E     W                 
--------------------------|--------------------------|-------------------|
--------------------------|--------------------------|-------------------|
--------------------------|--------------------------|-------------------|
--------------------------|--------------------------|--7----------------|
--6-----------------------|--------------------------|--7----------------|
--4--4--4--4--4--4--4--4--|--4--4--4--4--4--4--4--4--|-------------------|


  W                     Q    E  Q    E  E  E  16x  H        H          
-------------------||--------------------------||--------------------||
-------------------||--------------------------||--------------------||
-------------------||*------------------------*||--------------------||
--L----------------||*------------------------*||--------------------||
--L----------------||---6-------6-------6--4---||--6-----------------||
-------------------||---4-------4-------4--2---||--4-----------------||

		
								####
							!!!!!!!!!!!!!!!!!!!!!!!
						&&&&&&&&&&&&&&&&&&&&&&&&&&&&&&&&&&&&&&
								SOLO
						&&&&&&&&&&&&&&&&&&&&&&&&&&&&&&&&&&&&&&
							!!!!!!!!!!!!!!!!!!!!!!!
								####

  W                   W                   E   Q    E  E  E  Q      
-------------------|-------------------|--------------------------|
-------------------|-------------------|--------------------9b----|
-------------------|-------------------|--------------8-----------|
-------------------|-------------------|--4h--6----L-----6--------|
-------------------|-------------------|--------------------------|
-------------------|-------------------|--------------------------|


  Q.     E.  E  E  S  E      H          H             E  H.            E   
-------------------------|------------------------|-----------------------|
--L------x---------9-12--|--12b--------12b--------|--12--9~------------L--|
-------------x--9--------|------------------------|-----------------------|
-------------------------|------------------------|-----------------------|
-------------------------|------------------------|-----------------------|
-------------------------|------------------------|-----------------------|


  E  E  E  E  E  E  E  E     E  E  E  E  E  S S S  S  E   
--7--7--7--7--x--x--7--7--|--7--7--7--9-----------16-19--|
--------------x--x--------|--------------x--x-x-7--------|
--4--4--4--4--------4--4--|--4--4--4--6--x--x-x----------|
--------------------------|------------------------------|
--------------------------|------------------------------|
--------------------------|------------------------------|


                                                           \0/ \0/ \0/         
   H          H             W                     Q.       E   E   E  E   E    
--19b--------19b--------|--19~----------------|--21b------21--21--21--L--21b--|
------------------------|---------------------|-------------------------------|
------------------------|---------------------|-------------------------------|
------------------------|---------------------|-------------------------------|
------------------------|---------------------|-------------------------------|
------------------------|---------------------|-------------------------------|


        \0/ \0/ \0/                 \0/ \0/ \0/                               
  Q     E   E   E  E   Q        E   E   E   E  E  Q.        W                 
--L----21--21--21--L--21b----|--L--21--21--21--7--L------|--L----------------|
-----------------------------|---------------------------|-------------------|
-----------------------------|-----------------4--L------|--L----------------|
-----------------------------|---------------------------|-------------------|
-----------------------------|---------------------------|-------------------|
-----------------------------|---------------------------|-------------------|


   S  S  S  S  S  S  S  S  S  S  S  S  S  S  S  S  
--------------------------------------------------|
--------------------------------------------------|
--------------------------------------------------|
--------------------------------------------------|
--------------------------14-------------16----16-|
--12-14-14-14-16-13-14-16----14-16-18-19----19----|


   S  S  S  S  S  S  S  S  S  S  S  S  S  S  E     
--------------------------------------------------|
--------------------------------------------------|
--------------------------------------15-16-18br--|
--------------16-------16-18----16-18-------------|
--18-19-16-19----16-19-------19-------------------|
--------------------------------------------------|


   S   S  S    S  S   S  S  S  S   S  E     S   S  S  S  
--------------16----------------------------------------|
--19p-16-19br----19p-16----16-19p-16-19br--19p-16----16-|
------------------------16------------------------16----|
--------------------------------------------------------|
--------------------------------------------------------|
--------------------------------------------------------|


   S   S  S    S  S   S  H         E      S   H.           E.   
--------------16--------19b--------L--|--19p-16------------L---|
--19p-16-19br----19p-16---------------|------------------------|
--------------------------------------|------------------------|
--------------------------------------|------------------------|
--------------------------------------|------------------------|
--------------------------------------|------------------------|



						=================================

							2. A NEW LEVEL

						=================================

     ad. lib guitar noise                             
     W.                      E  E  E  E  E  E  E  E   
E||-----------------------|--------------------------|
B||-----------------------|--------------------------|
G||-----------------------|--------------------------|
D||-----------------------|--------------------------|
A||-----------------------|--0--1--2--0--1--2--3--0--|
D||-----------------------|--0--1--2--0--1--2--3--0--|


  E  E  E  E  E  E  E  E     E  E  E  E  E  E  E  E   
--------------------------|--------------------------|
--------------------------|--------------------------|
--------------------------|--------------------------|
--------------------------|--------------------------|
--1--2--3--4--6--6--6--6--|--0--1--2--0--1--2--3--0--|
--1--2--3--4--6--6--6--6--|--0--1--2--0--1--2--3--0--|


  E  E  E  E  E  E  E  E     E  E  E  E  E  E  E  E   
--------------------------|--------------------------|
--------------------------|--------------------------|
--------------------------|--------------------------|
--------------------------|--------------------------|
--1--2--3--4--6--6--6--6--|--0--1--2--0--1--2--3--0--|
--1--2--3--4--6--6--6--6--|--0--1--2--0--1--2--3--0--|


  E  E  E  E  E  E  E  E     E  E  E  E  E  E  E  E   
--------------------------|--------------------------|
--------------------------|--------------------------|
--------------------------|--------------------------|
--------------------------|--------------------------|
--1--2--3--4--6--6--6--6--|--0--1--2--0--1--2--3--0--|
--1--2--3--4--6--6--6--6--|--0--1--2--0--1--2--3--0--|


                             PM PM PM PM PM PM PM PM  
  E  E  E  E  E  E  E  E     E  E  E  E  E  E  E  E   
--------------------------|--------------------------|
--------------------------|--------------------------|
--------------------------|--------------------------|
--------------------------|--------------------------|
--1--2--3--4--6--6--6--6--|--0--1--2--0--1--2--3--0--|
--1--2--3--4--6--6--6--6--|--0--1--2--0--1--2--3--0--|


  PM PM PM PM                PM PM PM PM PM PM PM PM  
  E  E  E  E  E  E  E  E     E  E  E  E  E  E  E  E   
--------------------------|--------------------------|
--------------------------|--------------------------|
--------------------------|--------------------------|
--------------------------|--------------------------|
--1--2--3--4--6--6--6--6--|--0--1--2--0--1--2--3--0--|
--1--2--3--4--6--6--6--6--|--0--1--2--0--1--2--3--0--|


  PM PM PM PM                                         
  E  E  E  E  E  E  E  E     E  E  E  E  E  E  E  E   
--------------------------|--------------------------|
--------------------------|--------------------------|
--------------------------|--------------------------|
--------------------------|--------------------------|
--1--2--3--4--6--6--6--6--|--0--1--2--0--1--2--3--0--|
--1--2--3--4--6--6--6--6--|--0--1--2--0--1--2--3--0--|


  E  E  E  E  E  E  E  E     E  E  E  E  E  E  E  E   
--------------------------|--------------------------|
--------------------------|--------------------------|
--------------------------|--------------------------|
--------------------------|--------------------------|
--1--2--3--4--6--6--6--6--|--0--1--2--0--1--2--3--0--|
--1--2--3--4--6--6--6--6--|--0--1--2--0--1--2--3--0--|


  E  E  E  E  E  E  E  E     E  E  S E  E  E  S E  E   
--------------------------|---------------------------|
--------------------------|---------------------------|
--------------------------|---------------------------|
--------------------------|---------------------------|
--1--2--3--4--6--6--6--6--|------------------------6--|
--1--2--3--4--6--6--6--6--|--0--0--0-0--0--0--0-0--6--|


  E  E  S E  E  E  S E  E     E  E  S E  E  E  S E  E     E  E  H.            
---------------------------|---------------------------|---------------------|
---------------------------|---------------------------|---------------------|
---------------------------|---------------------------|---------------------|
---------------------------|---------------------------|---------------------|
------------------------6--|------------------------6--|---------------------|
--0--0--0-0--0--0--0-0--6--|--0--0--0-0--0--0--0-0--6--|--0------------------|


  E  E  S E  E  E  S E  S S    E  E  S E  E  E  S E  S S  
----------------------------|----------------------------|
----------------------------|----------------------------|
----------------------------|----------------------------|
----------------------------|----------------------------|
----------------------------|----------------------------|
--0--0--0-0--0--0--0-0--0-0-|--0--0--0-0--0--0--0-0--0-0-|


  E  E  S E  E  E  S E  S S    E  E  S E  S   S  S  S  S  S  S  S  S  
----------------------------|----------------------------------------|
----------------------------|----------------------------------------|
----------------------------|----------------------------------------|
----------------------------|----------------------------------------|
----------------------------|----------------------------------------|
--0--0--0-0--0--0--0-0--0-0-|--0--0--0-0--0S-12-12-12-12-12-12-12-12-|


  E  E  S E  E  E  S E  S S    E  E  S E  E  E  S E  S S  
----------------------------|----------------------------|
----------------------------|----------------------------|
----------------------------|----------------------------|
----------------------------|----------------------------|
----------------------------|----------------------------|
--0--0--0-0--0--0--0-0--0-0-|--0--0--0-0--0--0--0-0--0-0-|


  E  E  S E  E  E  S E  S S    E  E  S E  E  E  S E  S S  
----------------------------|----------------------------|
----------------------------|----------------------------|
----------------------------|----------------------------|
----------------------------|----------------------------|
----------------------------|----------------------------|
--0--0--0-0--0--0--0-0--0-0-|--0--0--0-0--0--0--0-0--0-0-|


  E  E  E  E  E  E  Q       E  E  S E  E  E  S E  S S  
-------------------------|----------------------------|
-------------------------|----------------------------|
-------------------------|----------------------------|
-------------------------|----------------------------|
--0--------4--3----------|----------------------------|
--0--------4--3----------|--1--1--1-1--1--1--1-1--1-1-|


  E  E  S E  E  E  S E  S S    E  E  S E  E  E  S E  S S  
----------------------------|----------------------------|
----------------------------|----------------------------|
----------------------------|----------------------------|
----------------------------|----------------------------|
----------------------------|----------------------------|
--1--1--1-1--1--1--1-1--1-1-|--1--1--1-1--1--1--1-1--1-1-|


  E  E  S E  S   S  S  S  S  S  S  S  S     S  S E  S E  E  E  S E  S S  
----------------------------------------|-------------------------------|
----------------------------------------|-------------------------------|
----------------------------------------|-------------------------------|
----------------------------------------|-------------------------------|
----------------------------------------|-------------------------------|
--1--1--1-1--1S-13-13-13-13-13-13-13-13-|--13-13-1--1-1--1--1--1-1--1-1-|


  E  E  S E  E  E  S E  S S    E  E  S E  E  E  S E  S S  
----------------------------|----------------------------|
----------------------------|----------------------------|
----------------------------|----------------------------|
----------------------------|----------------------------|
----------------------------|----------------------------|
--1--1--1-1--1--1--1-1--1-1-|--1--1--1-1--1--1--1-1--1-1-|


  E  E  S E  E  E  S E  S S    E  E  E  E  E  E  Q     
----------------------------|-------------------------|
----------------------------|-------------------------|
----------------------------|-------------------------|
----------------------------|-------------------------|
----------------------------|--1--------4--3----------|
--1--1--1-1--1--1--1-1--1-1-|--1--------4--3----------|


  E  E  S E  E  E  S E  S S    E  E  S E    S  S  S  S  S  S  S  S  S  
----------------------------|-----------------------------------------|
----------------------------|-----------------------------------------|
----------------------------|-----------------------------------------|
----------------------------|-----------------------------------------|
----------------------------|-----------------------------------------|
--1--1--1-1--1--1--1-1--1-1-|--1--1--1-1S--13-13-13-13-13-13-13-13-13-|


   S  S E  S E  E  E  S E  S S    E  E  S E  E  E  S E  S S  
-------------------------------|----------------------------|
-------------------------------|----------------------------|
-------------------------------|----------------------------|
-------------------------------|----------------------------|
-------------------------------|----------------------------|
--13-13-1--1-1--1--1--1-1--1-1-|--1--1--1-1--1--1--1-1--1-1-|


  E  E  E  E  E  E  E  E     E  E  E  E  E  E  E  E   
--------------------------|--------------------------|
--------------------------|--------------------------|
--------------------------|--------------------------|
--------------------------|--------------------------|
--0--1--2--0--1--2--3--0--|--1--2--3--4--6--6--6--6--|
--0--1--2--0--1--2--3--0--|--1--2--3--4--6--6--6--6--|


  E  E  E  E  E  E  E  E     E  E  E  E  E  E  E  E   
--------------------------|--------------------------|
--------------------------|--------------------------|
--------------------------|--------------------------|
--------------------------|--------------------------|
--0--1--2--0--1--2--3--0--|--1--2--3--4--6--6--6--6--|
--0--1--2--0--1--2--3--0--|--1--2--3--4--6--6--6--6--|


  E  E  E  E  E  E  E  E     E  E  E  E  E  E  E  E   
--------------------------|--------------------------|
--------------------------|--------------------------|
--------------------------|--------------------------|
--------------------------|--------------------------|
--0--1--2--0--1--2--3--0--|--1--2--3--4--6--6--6--6--|
--0--1--2--0--1--2--3--0--|--1--2--3--4--6--6--6--6--|


  E  E  E  E  E  E  E  E     E  E  E  E  E  E  E  E   
--------------------------|--------------------------|
--------------------------|--------------------------|
--------------------------|--------------------------|
--------------------------|--------------------------|
--0--1--2--0--1--2--3--0--|--1--2--3--4--6--6--6--6--|
--0--1--2--0--1--2--3--0--|--1--2--3--4--6--6--6--6--|


  E  E  S E  E  E  S E  E     E  E  S E  E  E  S E  S S  
---------------------------|----------------------------|
---------------------------|----------------------------|
---------------------------|----------------------------|
---------------------------|----------------------------|
------------------------6--|----------------------------|
--0--0--0-0--0--0--0-0--6--|--0--0--0-0--0--0--0-0--0-0-|


  E  E  S E  S   S  S  S  S  S  S  S  S    E  E  S E  E  E  S E  S S  
----------------------------------------|----------------------------|
----------------------------------------|----------------------------|
----------------------------------------|----------------------------|
----------------------------------------|----------------------------|
----------------------------------------|----------------------------|
--0--0--0-0--0S-12-12-12-12-12-12-12-12-|--1--1--1-1--1--1--1-1--1-1-|


  E  E  S E  E  E  S E  S S    E  E  S E  E  E  S E  S S  
----------------------------|----------------------------|
----------------------------|----------------------------|
----------------------------|----------------------------|
----------------------------|----------------------------|
----------------------------|----------------------------|
--1--1--1-1--1--1--1-1--1-1-|--1--1--1-1--1--1--1-1--1-1-|


  E  E  S E  S   S  S  S  S  S  S  S  S     S  S E  S E  E  E  S E  S S  
----------------------------------------|-------------------------------|
----------------------------------------|-------------------------------|
----------------------------------------|-------------------------------|
----------------------------------------|-------------------------------|
----------------------------------------|-------------------------------|
--1--1--1-1--1S-13-13-13-13-13-13-13-13-|--13-13-1--1-1--1--1--1-1--1-1-|


  E  E  S E  E  E  S E  S S    E  E  S E  E  E  S E  S S  
----------------------------|----------------------------|
----------------------------|----------------------------|
----------------------------|----------------------------|
----------------------------|----------------------------|
----------------------------|----------------------------|
--1--1--1-1--1--1--1-1--1-1-|--1--1--1-1--1--1--1-1--1-1-|


  E  E  S E  E  E  S E  S S    E  E  E  E  E  E  Q     
----------------------------|-------------------------|
----------------------------|-------------------------|
----------------------------|-------------------------|
----------------------------|-------------------------|
----------------------------|--1--------4--3----------|
--1--1--1-1--1--1--1-1--1-1-|--1--------4--3----------|


  E  E  S E  E  E  S E  S S    E  E  S E    S  S  S  S  S  S  S  S  S  
----------------------------|-----------------------------------------|
----------------------------|-----------------------------------------|
----------------------------|-----------------------------------------|
----------------------------|-----------------------------------------|
----------------------------|-----------------------------------------|
--1--1--1-1--1--1--1-1--1-1-|--1--1--1-1S--13-13-13-13-13-13-13-13-13-|


   S  S E  S E  E  E  S E  S S    E  E  S E  E  E  S E  S S  
-------------------------------|----------------------------|
-------------------------------|----------------------------|
-------------------------------|----------------------------|
-------------------------------|----------------------------|
-------------------------------|----------------------------|
--13-13-1--1-1--1--1--1-1--1-1-|--1--1--1-1--1--1--1-1--1-1-|


  E  E  E  E  E  E  E  E     E  E  E  E  E  E  E  E   
--------------------------|--------------------------|
--------------------------|--------------------------|
--------------------------|--------------------------|
--------------------------|--------------------------|
--0--1--2--0--1--2--3--0--|--1--2--3--4--6--6--6--6--|
--0--1--2--0--1--2--3--0--|--1--2--3--4--6--6--6--6--|


  E  E  E  E  E  E  E  E     E  E  E  E  E  E  E  E   
--------------------------|--------------------------|
--------------------------|--------------------------|
--------------------------|--------------------------|
--------------------------|--------------------------|
--0--1--2--0--1--2--3--0--|--1--2--3--4--6--6--6--6--|
--0--1--2--0--1--2--3--0--|--1--2--3--4--6--6--6--6--|


  E  E  E  E  E  E  E  E     E  E  E  E  E  E  E  E   
--------------------------|--------------------------|
--------------------------|--------------------------|
--------------------------|--------------------------|
--------------------------|--------------------------|
--0--1--2--0--1--2--3--0--|--1--2--3--4--6--6--6--6--|
--0--1--2--0--1--2--3--0--|--1--2--3--4--6--6--6--6--|


  E  E  E  E  E  E  E  E     E  E  E  E  E  E  E  E     W                 
--------------------------|--------------------------|-------------------|
--------------------------|--------------------------|-------------------|
--------------------------|--------------------------|-------------------|
--------------------------|--------------------------|-------------------|
--0--1--2--0--1--2--3--0--|--1--2--3--4--6--6--6--6--|--0----------------|
--0--1--2--0--1--2--3--0--|--1--2--3--4--6--6--6--6--|--0----------------|


               PM                                        PM     
  H.           E  E     W                   H.           E  E   
---------------------|-------------------|---------------------|
---------------------|-------------------|---------------------|
---------------------|-------------------|---------------------|
---------------------|-------------------|---------------------|
--L------------1--0--|--L----------------|--L------------1--0--|
--L------------1--0--|--L----------------|--L------------1--0--|


  W                   W                   W                   W                 
-------------------|-------------------|-------------------|-------------------|
-------------------|-------------------|-------------------|-------------------|
-------------------|-------------------|-------------------|-------------------|
-------------------|-------------------|-------------------|-------------------|
--L----------------|--L----------------|--L----------------|--L----------------|
--L----------------|--L----------------|--L----------------|--L----------------|


  W                   W                   W                 
-------------------|-------------------|-------------------|
-------------------|-------------------|-------------------|
-------------------|-------------------|-------------------|
-------------------|-------------------|-------------------|
--L----------------|--L----------------|--L----------------|
--L----------------|--L----------------|--L----------------|


  H.           E  E     E  E  E  E  E  E  E  E     E  E  E  E  Q.      E   
---------------------|--------------------------|-------------------------|
---------------------|--------------------------|-------------------------|
---------------------|--------------------------|-------------------------|
---------------------|--------------------------|-------------------------|
--L------------------|--------------------------|-------------------------|
--L---------------0--|--L--2--3--6--3--5--8--5--|--6--9--6--5--8~------0--|


  E  E  E  E  E  E  E  E     E  E  E  E  Q.      E     E  E  E  E  E  E  E  E   
--------------------------|-------------------------|--------------------------|
--------------------------|-------------------------|--------------------------|
--------------------------|-------------------------|--------------------------|
--------------------------|-------------------------|--------------------------|
--------------------------|-------------------------|--------------------------|
--L--2--3--6--3--5--8--5--|--6--9--6--5--8~------0--|--L--2--3--6--3--5--8--5--|


  E  E  E  E  Q.      E     E  E  E  E  E  E  E  E     E  E  E  E  H          
-------------------------|--------------------------|------------------------|
-------------------------|--------------------------|------------------------|
-------------------------|--------------------------|------------------------|
-------------------------|--------------------------|------------------------|
-------------------------|--------------------------|------------------------|
--6--9--6--5--8~------0--|--L--2--3--6--3--5--8--5--|--6--9--6--5--8~--------|


  E  E  S E  E  E  S E  S S    H        S S E  E  S S  
----------------------------|-------------------------|
----------------------------|-------------------------|
----------------------------|-------------------------|
----------------------------|---------------3--5--3-5-|
----------------------------|--5--------5-5-----------|
--0--0--0-0--0--0--0-0--0-0-|-------------------------|


  E  S S S S S S E  E  E  S S    E    S S E  S S   S S E  E  S S    
------------------------------|------------------------------------|
--------------------6--8--6-8-|--8br--L-6-8--6-8br-L-L-6--8--6-8br-|
-----5---7---5-6-7------------|------------------------------------|
--7----7---7------------------|------------------------------------|
------------------------------|------------------------------------|
------------------------------|------------------------------------|


  S S E  S   E  S  H          
---------8br-L--5-16~--------|
--L-L-6----------------------|
-----------------------------|
-----------------------------|
-----------------------------|
-----------------------------|


   |--3--|        |--6--|  |--6--|  |--6--|  |--6--|  |--6--|  |--6--|  
   S  S  S  S  S  S  S  S  S  S  S  S  S  S  S  S  S  S  S  S  S  S  S  
--15-15-15-13----16-16-16-13----15-15-15-13----16-16-13----15-15-13----|
--------------15-------------15-------------15----------15----------15-|
-----------------------------------------------------------------------|
-----------------------------------------------------------------------|
-----------------------------------------------------------------------|
-----------------------------------------------------------------------|


                   |--3--|  |--6--|  |--6--|  |-----7-----|  7  7  
   S  S  S  S  E   S  S  S  S  S  S  S  S  S  S  S  S  S  S  S  S  
--15-13----13--------------13-12----12----------------------------|
--------15----15--15-13----------15----15-13-15-13-12----12-------|
------------------------14----------------------------14----14-13-|
------------------------------------------------------------------|
------------------------------------------------------------------|
------------------------------------------------------------------|


   |--6--|  |--6--|  |--6--|  |--6--|                |--3--|  
   S  S  S  S  S  S  S  S  S  S  S  S  E   S  S  E   S  S  S  
-------------------------------------------------------------|
-----12----12------------------------------------------------|
--14----14----14-13-14-13-12----12---------------------------|
-----------------------------15----15-14--15-14-12--14-12----|
----------------------------------------------------------15-|
-------------------------------------------------------------|


   S  S  E   S  S  E  H            S  S  S  S  H        S  S   E   
--------------------------------|---------------------------------|
--------------------------------|----13-15-15b-L----------15br-L--|
--------------------------------|---------------------------------|
--12--------12------------------|---------------------------------|
-----15b-L-----15b-L--L~--------|---------------------------------|
--------------------------------|---------------------------------|


  E  E   S  S   E  E  E   S   S E   
-----------------------------------|
--L--L--13-15br-L--L--L--15br-L-L--|
-----------------------------------|
-----------------------------------|
-----------------------------------|
-----------------------------------|


   S  S  S  S  S  S  S  S  S  S  S  S S  T  T  S  S  
-----------12-13-12----------------12-L-13-12-------|
--13-15-15----------16-15-13-15-15------------16-15-|
----------------------------------------------------|
----------------------------------------------------|
----------------------------------------------------|
----------------------------------------------------|


   S  S  S  S E   E   H          
--------17b-L-L--18--17~--------|
--13-13-------------------------|
--------------------------------|
--------------------------------|
--------------------------------|
--------------------------------|


   S   S  E   S  S  E    S S  S  S  S  S  S  S  
--15br-L--L--13--------------------------------|
----------------15-13br--L-L-10----------------|
--------------------------------13-12b-L-12b-L-|
-----------------------------------------------|
-----------------------------------------------|
-----------------------------------------------|


   S  S  S   S  S  S  E   H         
-----------------------------------|
--13-------------------------------|
-----------------------------------|
-----12-12br-L-10------------------|
------------------12-10~--L--------|
-----------------------------------|


       |--3--|  |--6--|  |--6--|                                                
   E   S  S  S  S  S  S  S  S  S  S  S  S  S  S  S  S  S     W                  
---------------------------------------------------------|---------------------|
---------------------------------------------------------|---------------------|
---------------------------------------------------14-14-|--14b----------------|
--10--12-12-12-12-12-12-12-14-14-15-15-15-15-15-15-------|--12b----------------|
---------------------------------------------------------|---------------------|
---------------------------------------------------------|---------------------|


   W                   W                   W                 
--------------------|-------------------|-------------------|
--------------------|-------------------|-------------------|
--14----------------|--L----------------|--L----------------|
--12----------------|--L----------------|--L----------------|
--------------------|-------------------|-------------------|
--------------------|-------------------|-------------------|


                      PM PM PM PM PM PM PM PM PM PM  
  W                   E  E  S  E  E  E  S  E  S  S   
-------------------|--------------------------------|
-------------------|--------------------------------|
--L----------------|--------------------------------|
--L----------------|--------------------------------|
-------------------|--5--5--5--5--5--5--5--5--5--5--|
-------------------|--------------------------------|


  PM PM PM PM PM PM PM PM PM PM    PM PM PM PM PM PM PM PM PM PM  
  E  E  S  E  E  E  S  E  S  S     E  E  S  E  E  E  S  E  S  S   
--------------------------------|--------------------------------|
--------------------------------|--------------------------------|
--------------------------------|--------------------------------|
--------------------------------|--------------------------------|
--5--5--5--5--5--5--5--5--5--5--|--5--5--5--5--5--5--5--5--5--5--|
--------------------------------|--------------------------------|


  E  E  Q     S  S  S  S  Q        E  E  E  E  E  E  E  E   
--------------------------------|--------------------------|
--------------------------------|--------------------------|
--------------------------------|--------------------------|
--------------------------------|--------------------------|
--0-----------------------------|--0--1--2--0--1--2--3--0--|
--0----------12-12-12-12-12\----|--0--1--2--0--1--2--3--0--|


  E  E  E  E  E  E  E  E     E  E  E  E  E  E  E  E   
--------------------------|--------------------------|
--------------------------|--------------------------|
--------------------------|--------------------------|
--------------------------|--------------------------|
--1--2--3--4--6--6--6--6--|--0--1--2--0--1--2--3--0--|
--1--2--3--4--6--6--6--6--|--0--1--2--0--1--2--3--0--|


  E  E  E  E  E  E  E  E     E  E  E  E  E  E  E  E   
--------------------------|--------------------------|
--------------------------|--------------------------|
--------------------------|--------------------------|
--------------------------|--------------------------|
--1--2--3--4--6--6--6--6--|--0--1--2--0--1--2--3--0--|
--1--2--3--4--6--6--6--6--|--0--1--2--0--1--2--3--0--|


  E  E  E  E  E  E  E  E     E  E  E  E  E  E  E  E   
--------------------------|--------------------------|
--------------------------|--------------------------|
--------------------------|--------------------------|
--------------------------|--------------------------|
--1--2--3--4--6--6--6--6--|--0--1--2--0--1--2--3--0--|
--1--2--3--4--6--6--6--6--|--0--1--2--0--1--2--3--0--|


                             PM PM PM PM PM PM PM PM  
  E  E  E  E  E  E  E  E     E  E  E  E  E  E  E  E   
--------------------------|--------------------------|
--------------------------|--------------------------|
--------------------------|--------------------------|
--------------------------|--------------------------|
--1--2--3--4--6--6--6--6--|--0--1--2--0--1--2--3--0--|
--1--2--3--4--6--6--6--6--|--0--1--2--0--1--2--3--0--|


  PM PM PM PM                PM PM PM PM PM PM PM PM  
  E  E  E  E  E  E  E  E     E  E  E  E  E  E  E  E   
--------------------------|--------------------------|
--------------------------|--------------------------|
--------------------------|--------------------------|
--------------------------|--------------------------|
--1--2--3--4--6--6--6--6--|--0--1--2--0--1--2--3--0--|
--1--2--3--4--6--6--6--6--|--0--1--2--0--1--2--3--0--|


  PM PM PM PM                                         
  E  E  E  E  E  E  E  E     E  E  E  E  E  E  E  E   
--------------------------|--------------------------|
--------------------------|--------------------------|
--------------------------|--------------------------|
--------------------------|--------------------------|
--1--2--3--4--6--6--6--6--|--0--1--2--0--1--2--3--0--|
--1--2--3--4--6--6--6--6--|--0--1--2--0--1--2--3--0--|


  E  E  E  E  E  E  E  E     E  E  E  E  E  E  E  E   
--------------------------|--------------------------|
--------------------------|--------------------------|
--------------------------|--------------------------|
--------------------------|--------------------------|
--1--2--3--4--6--6--6--6--|--0--1--2--0--1--2--3--0--|
--1--2--3--4--6--6--6--6--|--0--1--2--0--1--2--3--0--|


  E  E  E  E  E  E  E  E     E  E  E  S    E  E  E  S    E  E  E  S  
--------------------------|-------------|-------------|-------------|
--------------------------|-------------|-------------|-------------|
--------------------------|-------------|-------------|-------------|
--------------------------|-------------|-------------|-------------|
--1--2--3--4--6--6--6--6--|--x--x--x--x-|--x--x--x--x-|--x--x--x--x-|
--1--2--3--4--6--6--6--6--|--x--x--x--x-|--x--x--x--x-|--x--x--x--x-|


                                                 NH   NH   NH 
  E  E  E  S    E  E  E  S    E  E  E  S    E    E    E    S  
-------------|-------------|-------------|-------------------|
-------------|-------------|-------------|-------------------|
-------------|-------------|-------------|-------------------|
-------------|-------------|-------------|-------------------|
--x--x--x--x-|--x--x--x--x-|--x--x--x--x-|--x----x----x----x-|
--x--x--x--x-|--x--x--x--x-|--x--x--x--x-|--x--<>5--<>5--<>5-|


  E  E  Q    H          
----------------------||
----------------------||
----------------------||
----------------------||
--0-------------------||
--0-------------------||



						=================================

							3. WALK

						=================================


     |--3--|  |--3--|        |--3--|           |--3--|        |--3--|   
     E  E  E  E  E  E  E  E  E  E  E     E  E  E  E  E  E  E  E  E  E   
E||-----------------------------------|--------------------------------|
B||-----------------------------------|--------------------------------|
G||-----------------------------------|--------------------------------|
D||-----------------------------------|--------------------------------|
A||-----------------------------------|--------------------------------|
D||--0-----0--2--1--0-----0--2--1--0--|-----0--2--1--0-----0--2--1--0--|


        |--3--|        |--3--|           |--3--|  |----3----|     
  E  E  E  E  E  E  E  E  E  E     E  E  E  E  E  Q    Q    Q     
--------------------------------|--------------------------------|
--------------------------------|--------------------------------|
--------------------------------|--------------------------------|
--------------------------------|---------------------------x----|
--------------------------------|----------------------x---------|
-----0--2--1--0-----0--2--1--0--|-----0--2--1--0-----------------|


  |--3--|  |--3--|        |--3--|           |--3--|        |--3--|   
  E  E  E  E  E  E  E  E  E  E  E     E  E  E  E  E  E  E  E  E  E   
-----------------------------------|--------------------------------|
-----------------------------------|--------------------------------|
-----------------------------------|--------------------------------|
-----------------------------------|--------------------------------|
-----------------------------------|--------------------------------|
--0-----0--2--1--0-----0--2--1--0--|-----0--2--1--0-----0--2--1--0--|


        |--3--|        |--3--|           |--3--|  |----3----|     
  E  E  E  E  E  E  E  E  E  E     E  E  E  E  E  Q    Q    Q     
--------------------------------|--------------------------------|
--------------------------------|--------------------------------|
--------------------------------|--------------------------------|
--------------------------------|---------------------------x----|
--------------------------------|----------------------x---------|
-----0--2--1--0-----0--2--1--0--|-----0--2--1--0-----------------|


  |--3--|  |--3--|                |--3--|  |--3--|              
  E  E  E  E  E  E  E  E  Q       E  E  E  E  E  E  E  E  Q     
-------------------------------|-------------------------------|
-------------------------------|-------------------------------|
-------------------------------|-------------------------------|
-------------------------------|-------------------------------|
--------------------------8----|--------------------------6----|
--0-----0--2--1--0-----0--8----|--0-----0--2--1--0-----0--6----|


  |--3--|  |--3--|                |--3--|  |--3--|  |--3--|  |--3--|   
  E  E  E  E  E  E  E  E  Q       E  E  E  E  E  E  E  E  E  E  E  E   
-------------------------------|--------------------------------------|
-------------------------------|--------------------------------------|
-------------------------------|--------------------------------------|
-------------------------------|--------------------------------------|
--------------------------4----|--------------------------------------|
--0-----0--2--1--0-----0--6----|--0--0--0--1--0--3--0--4--0--3--0--1--|


  |--3--|  |--3--|                |--3--|  |--3--|              
  E  E  E  E  E  E  E  E  Q       E  E  E  E  E  E  E  E  Q     
-------------------------------|-------------------------------|
-------------------------------|-------------------------------|
-------------------------------|-------------------------------|
-------------------------------|-------------------------------|
--------------------------8----|--------------------------6----|
--0-----0--2--1--0-----0--8----|--0-----0--2--1--0-----0--6----|


  |--3--|  |--3--|                |--3--|  |--3--|  |--3--|  |--3--|   
  E  E  E  E  E  E  E  E  Q       E  E  E  E  E  E  E  E  E  E  E  E   
-------------------------------|--------------------------------------|
-------------------------------|--------------------------------------|
-------------------------------|--------------------------------------|
-------------------------------|--------------------------------------|
--------------------------4----|--------------------------------------|
--0-----0--2--1--0-----0--6----|--0--0--0--1--0--3--0--4--0--3--0--1--|


  |--3--|  |--3--|  |--3--|  |--3--|     |--3--|  |--3--|        |--3--|   
  E  E  E  E  E  E  E  E  E  E  E  E     E  E  E  E  E  E  E  E  E  E  E   
--------------------------------------|-----------------------------------|
--------------------------------------|-----------------------------------|
--------------------------------------|-----------------------------------|
--------------------------------------|-----------------------------------|
--------------------------------------|-----------------------------------|
--0--0--0--1--0--3--0--4--0--3--0--1--|--0-----0--2--1--0-----0--2--1--0--|


        |--3--|        |--3--|           |--3--|        |--3--|   
  E  E  E  E  E  E  E  E  E  E     E  E  E  E  E  E  E  E  E  E   
--------------------------------|--------------------------------|
--------------------------------|--------------------------------|
--------------------------------|--------------------------------|
--------------------------------|--------------------------------|
--------------------------------|--------------------------------|
-----0--2--1--0-----0--2--1--0--|-----0--2--1--0-----0--2--1--0--|


        |--3--|                |--3--|  |--3--|        |--3--|   
  E  E  E  E  E  E  E  Q       E  E  E  E  E  E  E  E  E  E  E   
----------------------------|-----------------------------------|
----------------------------|-----------------------------------|
----------------------------|-----------------------------------|
----------------------------|-----------------------------------|
--------------------4--4----|-----------------------------------|
-----0--2--1--0-----6--6----|--0-----0--2--1--0-----0--2--1--0--|


        |--3--|        |--3--|           |--3--|        |--3--|   
  E  E  E  E  E  E  E  E  E  E     E  E  E  E  E  E  E  E  E  E   
--------------------------------|--------------------------------|
--------------------------------|--------------------------------|
--------------------------------|--------------------------------|
--------------------------------|--------------------------------|
--------------------------------|--------------------------------|
-----0--2--1--0-----0--2--1--0--|-----0--2--1--0-----0--2--1--0--|


        |--3--|                                                       
  E  E  E  E  E  E  E  Q       W                   H        H         
----------------------------|-------------------|--------------------|
----------------------------|-------------------|--------------------|
----------------------------|-------------------|--------------------|
----------------------------|-------------------|--------------------|
--------------------4--4----|--3----------------|--6--------7--------|
-----0--2--1--0-----6--6----|--5----------------|--6--------7--------|


  |--3--|  |--3--|        |--3--|           |--3--|        |--3--|   
  E  E  E  E  E  E  E  E  E  E  E     E  E  E  E  E  E  E  E  E  E   
-----------------------------------|--------------------------------|
-----------------------------------|--------------------------------|
-----------------------------------|--------------------------------|
-----------------------------------|--------------------------------|
-----------------------------------|--------------------------------|
--0-----0--2--1--0-----0--2--1--0--|-----0--2--1--0-----0--2--1--0--|


                                           |--3--|  |--3--|        |--3--|   
  W                   H        H           E  E  E  E  E  E  E  E  E  E  E   
-------------------|--------------------|-----------------------------------|
-------------------|--------------------|-----------------------------------|
-------------------|--------------------|-----------------------------------|
-------------------|--------------------|-----------------------------------|
--3----------------|--6--------7--------|-----------------------------------|
--5----------------|--6--------7--------|--0-----0--2--1--0-----0--2--1--0--|


        |--3--|        |--3--|                                           
  E  E  E  E  E  E  E  E  E  E     W                   W                 
--------------------------------|-------------------|-------------------|
--------------------------------|-------------------|-------------------|
--------------------------------|-------------------|-------------------|
--------------------------------|-------------------|-------------------|
--------------------------------|--3----------------|--6----------------|
-----0--2--1--0-----0--2--1--0--|--5----------------|--6----------------|


                                           |--3--|  |--3--|              
  W                   H        H           E  E  E  E  E  E  E  E  Q     
-------------------|--------------------|-------------------------------|
-------------------|--------------------|-------------------------------|
-------------------|--------------------|-------------------------------|
-------------------|--------------------|-------------------------------|
--3----------------|--2--------1--------|--------------------------8----|
--3----------------|--2--------1--------|--0-----0--2--1--0-----0--8----|


  |--3--|  |--3--|                |--3--|  |--3--|              
  E  E  E  E  E  E  E  E  Q       E  E  E  E  E  E  E  E  Q     
-------------------------------|-------------------------------|
-------------------------------|-------------------------------|
-------------------------------|-------------------------------|
-------------------------------|-------------------------------|
--------------------------6----|--------------------------4----|
--0-----0--2--1--0-----0--6----|--0-----0--2--1--0-----0--6----|


  |--3--|  |--3--|  |--3--|  |--3--|     |--3--|  |--3--|              
  E  E  E  E  E  E  E  E  E  E  E  E     E  E  E  E  E  E  E  E  Q     
--------------------------------------|-------------------------------|
--------------------------------------|-------------------------------|
--------------------------------------|-------------------------------|
--------------------------------------|-------------------------------|
--------------------------------------|--------------------------8----|
--0--0--0--1--0--3--0--4--0--3--0--1--|--0-----0--2--1--0-----0--8----|


  |--3--|  |--3--|                |--3--|  |--3--|              
  E  E  E  E  E  E  E  E  Q       E  E  E  E  E  E  E  E  Q     
-------------------------------|-------------------------------|
-------------------------------|-------------------------------|
-------------------------------|-------------------------------|
-------------------------------|-------------------------------|
--------------------------6----|--------------------------4----|
--0-----0--2--1--0-----0--6----|--0-----0--2--1--0-----0--6----|


  |--3--|  |--3--|  |--3--|  |--3--|     |--3--|  |--3--|  |--3--|  |--3--|   
  E  E  E  E  E  E  E  E  E  E  E  E     E  E  E  E  E  E  E  E  E  E  E  E   
--------------------------------------|--------------------------------------|
--------------------------------------|--------------------------------------|
--------------------------------------|--------------------------------------|
--------------------------------------|--------------------------------------|
--------------------------------------|--------------------------------------|
--0--0--0--1--0--3--0--4--0--3--0--1--|--0--0--0--1--0--3--0--4--0--3--0--1--|


  |--3--|  |--3--|        |--3--|           |--3--|        |--3--|   
  E  E  E  E  E  E  E  E  E  E  E     E  E  E  E  E  E  E  E  E  E   
-----------------------------------|--------------------------------|
-----------------------------------|--------------------------------|
-----------------------------------|--------------------------------|
-----------------------------------|--------------------------------|
-----------------------------------|--------------------------------|
--0-----0--2--1--0-----0--2--1--0--|-----0--2--1--0-----0--2--1--0--|


        |--3--|        |--3--|           |--3--|              
  E  E  E  E  E  E  E  E  E  E     E  E  E  E  E  E  E  Q     
--------------------------------|----------------------------|
--------------------------------|----------------------------|
--------------------------------|----------------------------|
--------------------------------|----------------------------|
--------------------------------|--------------------4--4----|
-----0--2--1--0-----0--2--1--0--|-----0--2--1--0-----6--6----|


  |--3--|  |--3--|        |--3--|           |--3--|        |--3--|   
  E  E  E  E  E  E  E  E  E  E  E     E  E  E  E  E  E  E  E  E  E   
-----------------------------------|--------------------------------|
-----------------------------------|--------------------------------|
-----------------------------------|--------------------------------|
-----------------------------------|--------------------------------|
-----------------------------------|--------------------------------|
--0-----0--2--1--0-----0--2--1--0--|-----0--2--1--0-----0--2--1--0--|


        |--3--|        |--3--|           |--3--|              
  E  E  E  E  E  E  E  E  E  E     E  E  E  E  E  E  E  Q     
--------------------------------|----------------------------|
--------------------------------|----------------------------|
--------------------------------|----------------------------|
--------------------------------|----------------------------|
--------------------------------|--------------------4--4----|
-----0--2--1--0-----0--2--1--0--|-----0--2--1--0-----6--6----|


  |--3--|  |--3--|        |--3--|           |--3--|        |--3--|   
  E  E  E  E  E  E  E  E  E  E  E     E  E  E  E  E  E  E  E  E  E   
-----------------------------------|--------------------------------|
-----------------------------------|--------------------------------|
-----------------------------------|--------------------------------|
-----------------------------------|--------------------------------|
-----------------------------------|--------------------------------|
--0-----0--2--1--0-----0--2--1--0--|-----0--2--1--0-----0--2--1--0--|


        |--3--|        |--3--|           |--3--|              
  E  E  E  E  E  E  E  E  E  E     E  E  E  E  E  E  E  Q     
--------------------------------|----------------------------|
--------------------------------|----------------------------|
--------------------------------|----------------------------|
--------------------------------|----------------------------|
--------------------------------|--------------------4--4----|
-----0--2--1--0-----0--2--1--0--|-----0--2--1--0-----6--6----|


                                           |--3--|  |--3--|        |--3--|   
  W                   H        H           E  E  E  E  E  E  E  E  E  E  E   
-------------------|--------------------|-----------------------------------|
-------------------|--------------------|-----------------------------------|
-------------------|--------------------|-----------------------------------|
-------------------|--------------------|-----------------------------------|
--3----------------|--6--------7--------|-----------------------------------|
--5----------------|--6--------7--------|--0-----0--2--1--0-----0--2--1--0--|


        |--3--|        |--3--|                                            
  E  E  E  E  E  E  E  E  E  E     W                   H        H         
--------------------------------|-------------------|--------------------|
--------------------------------|-------------------|--------------------|
--------------------------------|-------------------|--------------------|
--------------------------------|-------------------|--------------------|
--------------------------------|--3----------------|--6--------7--------|
-----0--2--1--0-----0--2--1--0--|--5----------------|--6--------7--------|


  |--3--|  |--3--|        |--3--|           |--3--|        |--3--|   
  E  E  E  E  E  E  E  E  E  E  E     E  E  E  E  E  E  E  E  E  E   
-----------------------------------|--------------------------------|
-----------------------------------|--------------------------------|
-----------------------------------|--------------------------------|
-----------------------------------|--------------------------------|
-----------------------------------|--------------------------------|
--0-----0--2--1--0-----0--2--1--0--|-----0--2--1--0-----0--2--1--0--|


                                           |--3--|  |--3--|        |--3--|   
  W                   H        H           E  E  E  E  E  E  E  E  E  E  E   
-------------------|--------------------|-----------------------------------|
-------------------|--------------------|-----------------------------------|
-------------------|--------------------|-----------------------------------|
-------------------|--------------------|-----------------------------------|
--3----------------|--6--------7--------|-----------------------------------|
--5----------------|--6--------7--------|--0-----0--2--1--0-----0--2--1--0--|


        |--3--|        |--3--|                                           
  E  E  E  E  E  E  E  E  E  E     W                   W                 
--------------------------------|-------------------|-------------------|
--------------------------------|-------------------|-------------------|
--------------------------------|-------------------|-------------------|
--------------------------------|-------------------|-------------------|
--------------------------------|--3----------------|--6----------------|
-----0--2--1--0-----0--2--1--0--|--5----------------|--6----------------|


                                           |--3--|  |--3--|              
  W                   H        H           E  E  E  E  E  E  E  E  Q     
-------------------|--------------------|-------------------------------|
-------------------|--------------------|-------------------------------|
-------------------|--------------------|-------------------------------|
-------------------|--------------------|-------------------------------|
--3----------------|--2--------1--------|--------------------------8----|
--3----------------|--2--------1--------|--0-----0--2--1--0-----0--8----|


  |--3--|  |--3--|                |--3--|  |--3--|              
  E  E  E  E  E  E  E  E  Q       E  E  E  E  E  E  E  E  Q     
-------------------------------|-------------------------------|
-------------------------------|-------------------------------|
-------------------------------|-------------------------------|
-------------------------------|-------------------------------|
--------------------------6----|--------------------------4----|
--0-----0--2--1--0-----0--6----|--0-----0--2--1--0-----0--6----|


  |--3--|  |--3--|  |--3--|  |--3--|     |--3--|  |--3--|              
  E  E  E  E  E  E  E  E  E  E  E  E     E  E  E  E  E  E  E  E  Q     
--------------------------------------|-------------------------------|
--------------------------------------|-------------------------------|
--------------------------------------|-------------------------------|
--------------------------------------|-------------------------------|
--------------------------------------|--------------------------8----|
--0--0--0--1--0--3--0--4--0--3--0--1--|--0-----0--2--1--0-----0--8----|


  |--3--|  |--3--|                |--3--|  |--3--|              
  E  E  E  E  E  E  E  E  Q       E  E  E  E  E  E  E  E  Q     
-------------------------------|-------------------------------|
-------------------------------|-------------------------------|
-------------------------------|-------------------------------|
-------------------------------|-------------------------------|
--------------------------6----|--------------------------4----|
--0-----0--2--1--0-----0--6----|--0-----0--2--1--0-----0--6----|


  |--3--|  |--3--|  |--3--|  |--3--|     |--3--|  |--3--|              
  E  E  E  E  E  E  E  E  E  E  E  E     E  E  E  E  E  E  E  E  Q     
--------------------------------------|-------------------------------|
--------------------------------------|-------------------------------|
--------------------------------------|-------------------------------|
--------------------------------------|-------------------------------|
--------------------------------------|--------------------------8----|
--0--0--0--1--0--3--0--4--0--3--0--1--|--0-----0--2--1--0-----0--8----|


  |--3--|  |--3--|                |--3--|  |--3--|              
  E  E  E  E  E  E  E  E  Q       E  E  E  E  E  E  E  E  Q     
-------------------------------|-------------------------------|
-------------------------------|-------------------------------|
-------------------------------|-------------------------------|
-------------------------------|-------------------------------|
--------------------------6----|--------------------------4----|
--0-----0--2--1--0-----0--6----|--0-----0--2--1--0-----0--6----|


  |--3--|  |--3--|  |--3--|  |--3--|     |--3--|  |--3--|  |--3--|  |--3--|   
  E  E  E  E  E  E  E  E  E  E  E  E     E  E  E  E  E  E  E  E  E  E  E  E   
--------------------------------------|--------------------------------------|
--------------------------------------|--------------------------------------|
--------------------------------------|--------------------------------------|
--------------------------------------|--------------------------------------|
--------------------------------------|--------------------------------------|
--0--0--0--1--0--3--0--4--0--3--0--1--|--0--0--0--1--0--3--0--4--0--3--0--1--|


  |--3--|  |--3--|  |--3--|  |--3--|     |--3--|  |--3--|  |--3--|  |--3--|   
  E  E  E  E  E  E  E  E  E  E  E  E     E  E  E  E  E  E  E  E  E  E  E  E   
--------------------------------------|--------------------------------------|
--------------------------------------|--------------------------------------|
--------------------------------------|--------------------------------------|
--------------------------------------|--------------------------------------|
--------------------------------------|--------------------------------------|
--0--0--0--1--0--3--0--4--0--3--0--1--|--0--0--0--1--0--3--0--4--0--3--0--1--|



			$$$$$$$$$$%%%%%%%%%----SOLO ENTERS----%%%%%%%%%$$$$$$$$$$



  W                   E  E  E  E  E  E  E  E  E  E  E   
-------------------|-----------------------------------|
-------------------|-----------------------------------|
-------------------|-----------------------------------|
-------------------|-----------------------------------|
-------------------|-----------------------------------|
-------------------|--0-----0--2--1--0-----0--2--1--0--|


        |--3--|        |--3--|           |--3--|        |--3--|   
  E  E  E  E  E  E  E  E  E  E     E  E  E  E  E  E  E  E  E  E   
--------------------------------|--------------------------------|
--------------------------------|--------------------------------|
--------------------------------|--------------------------------|
--------------------------------|--------------------------------|
--------------------------------|--------------------------------|
-----0--2--1--0-----0--2--1--0--|-----0--2--1--0-----0--2--1--0--|


        |--3--|  |----3----|       |--3--|  |--3--|              
  E  E  E  E  E  Q    Q    Q       E  E  E  E  E  E  E  E  Q     
--------------------------------|-------------------------------|
--------------------------------|-------------------------------|
--------------------------------|-------------------------------|
---------------------------x----|-------------------------------|
----------------------x---------|--------------------------8----|
-----0--2--1--0-----------------|--0-----0--2--1--0-----0--8----|


  |--3--|  |--3--|                |--3--|  |--3--|              
  E  E  E  E  E  E  E  E  Q       E  E  E  E  E  E  E  E  Q     
-------------------------------|-------------------------------|
-------------------------------|-------------------------------|
-------------------------------|-------------------------------|
-------------------------------|-------------------------------|
--------------------------6----|--------------------------4----|
--0-----0--2--1--0-----0--6----|--0-----0--2--1--0-----0--6----|


  |--3--|  |--3--|  |--3--|  |--3--|     |--3--|  |--3--|              
  E  E  E  E  E  E  E  E  E  E  E  E     E  E  E  E  E  E  E  E  Q     
--------------------------------------|-------------------------------|
--------------------------------------|-------------------------------|
--------------------------------------|-------------------------------|
--------------------------------------|-------------------------------|
--------------------------------------|--------------------------8----|
--0--0--0--1--0--3--0--4--0--3--0--1--|--0-----0--2--1--0-----0--8----|


  |--3--|  |--3--|                |--3--|  |--3--|              
  E  E  E  E  E  E  E  E  Q       E  E  E  E  E  E  E  E  Q     
-------------------------------|-------------------------------|
-------------------------------|-------------------------------|
-------------------------------|-------------------------------|
-------------------------------|-------------------------------|
--------------------------6----|--------------------------4----|
--0-----0--2--1--0-----0--6----|--0-----0--2--1--0-----0--6----|


  |--3--|  |--3--|  |--3--|  |--3--|     |--3--|  |--3--|              
  E  E  E  E  E  E  E  E  E  E  E  E     E  E  E  E  E  E  E  E  Q     
--------------------------------------|-------------------------------|
--------------------------------------|-------------------------------|
--------------------------------------|-------------------------------|
--------------------------------------|-------------------------------|
--------------------------------------|--------------------------8----|
--0--0--0--1--0--3--0--4--0--3--0--1--|--0-----0--2--1--0-----0--8----|


  |--3--|  |--3--|                |--3--|  |--3--|              
  E  E  E  E  E  E  E  E  Q       E  E  E  E  E  E  E  E  Q     
-------------------------------|-------------------------------|
-------------------------------|-------------------------------|
-------------------------------|-------------------------------|
-------------------------------|-------------------------------|
--------------------------6----|--------------------------4----|
--0-----0--2--1--0-----0--6----|--0-----0--2--1--0-----0--6----|


  |--3--|  |--3--|  |--3--|  |--3--|     |--3--|  |--3--|              
  E  E  E  E  E  E  E  E  E  E  E  E     E  E  E  E  E  E  E  E  Q     
--------------------------------------|-------------------------------|
--------------------------------------|-------------------------------|
--------------------------------------|-------------------------------|
--------------------------------------|-------------------------------|
--------------------------------------|--------------------------8----|
--0--0--0--1--0--3--0--4--0--3--0--1--|--0-----0--2--1--0-----0--8----|


  |--3--|  |--3--|                |--3--|  |--3--|              
  E  E  E  E  E  E  E  E  Q       E  E  E  E  E  E  E  E  Q     
-------------------------------|-------------------------------|
-------------------------------|-------------------------------|
-------------------------------|-------------------------------|
-------------------------------|-------------------------------|
--------------------------6----|--------------------------4----|
--0-----0--2--1--0-----0--6----|--0-----0--2--1--0-----0--6----|


  |--3--|  |--3--|  |--3--|  |--3--|     |--3--|  |--3--|  |--3--|  |--3--|   
  E  E  E  E  E  E  E  E  E  E  E  E     E  E  E  E  E  E  E  E  E  E  E  E   
--------------------------------------|--------------------------------------|
--------------------------------------|--------------------------------------|
--------------------------------------|--------------------------------------|
--------------------------------------|--------------------------------------|
--------------------------------------|--------------------------------------|
--0--0--0--1--0--3--0--4--0--3--0--1--|--0--0--0--1--0--3--0--4--0--3--0--1--|


  |--3--|        |--3--|           |--3--|        |--3--|         
  E  E  E  E  E  E  E  E  E  E     E  E  E  E  E  E  E  E  E  E   
--------------------------------|--------------------------------|
--------------------------------|--------------------------------|
--------------------------------|--------------------------------|
--------------------------------|--------------------------------|
-----------1--0-----------1--0--|-----------1--0-----------1--0--|
--0--0--0--1--0--0--0--0--1--0--|--0--0--0--1--0--0--0--0--1--0--|


  |--3--|        |--3--|           |--3--|        |--3--|         
  E  E  E  E  E  E  E  E  E  E     E  E  E  E  E  E  E  E  E  E   
--------------------------------|--------------------------------|
--------------------------------|--------------------------------|
--------------------------------|--------------------------------|
--------------------------------|--------------------------------|
-----------1--0-----------1--0--|-----------1--0-----------1--0--|
--0--0--0--1--0--0--0--0--1--0--|--0--0--0--1--0--0--0--0--1--0--|


  |--3--|        |--3--|           |--3--|        |--3--|         
  E  E  E  E  E  E  E  E  E  E     E  E  E  E  E  E  E  E  E  E   
--------------------------------|--------------------------------|
--------------------------------|--------------------------------|
--------------------------------|--------------------------------|
--------------------------------|--------------------------------|
-----------1--0-----------1--0--|-----------1--0-----------1--0--|
--0--0--0--1--0--0--0--0--1--0--|--0--0--0--1--0--0--0--0--1--0--|


  |--3--|        |--3--|           |--3--|        |--3--|         
  E  E  E  E  E  E  E  E  E  E     E  E  E  E  E  E  E  E  E  E   
--------------------------------|--------------------------------|
--------------------------------|--------------------------------|
--------------------------------|--------------------------------|
--------------------------------|--------------------------------|
-----------1--0-----------1--0--|-----------1--0-----------1--0--|
--0--0--0--1--0--0--0--0--1--0--|--0--0--0--1--0--0--0--0--1--0--|


  |--3--|        |--3--|           |--3--|        |--3--|         
  E  E  E  E  E  E  E  E  E  E     E  E  E  E  E  E  E  E  E  E   
--------------------------------|--------------------------------|
--------------------------------|--------------------------------|
--------------------------------|--------------------------------|
--------------------------------|--------------------------------|
-----------1--0-----------1--0--|-----------1--0-----------1--0--|
--0--0--0--1--0--0--0--0--1--0--|--0--0--0--1--0--0--0--0--1--0--|


  |--3--|        |--3--|           |--3--|        |--3--|         
  E  E  E  E  E  E  E  E  E  E     E  E  E  E  E  E  E  E  E  E   
--------------------------------|--------------------------------|
--------------------------------|--------------------------------|
--------------------------------|--------------------------------|
--------------------------------|--------------------------------|
-----------1--0-----------1--0--|-----------1--0-----------1--0--|
--0--0--0--1--0--0--0--0--1--0--|--0--0--0--1--0--0--0--0--1--0--|


  |--3--|        |--3--|           |--3--|        |--3--|         
  E  E  E  E  E  E  E  E  E  E     E  E  E  E  E  E  E  E  E  E   
--------------------------------|--------------------------------|
--------------------------------|--------------------------------|
--------------------------------|--------------------------------|
--------------------------------|--------------------------------|
-----------1--0-----------1--0--|-----------1--0-----------1--0--|
--0--0--0--1--0--0--0--0--1--0--|--0--0--0--1--0--0--0--0--1--0--|


  |--3--|        |--3--|           |--3--|        |--3--|         
  E  E  E  E  E  E  E  E  E  E     E  E  E  E  E  E  E  E  E  E   
--------------------------------|--------------------------------|
--------------------------------|--------------------------------|
--------------------------------|--------------------------------|
--------------------------------|--------------------------------|
-----------1--0-----------1--0--|-----------1--0-----------1--0--|
--0--0--0--1--0--0--0--0--1--0--|--0--0--0--1--0--0--0--0--1--0--|


  |--3--|        |--3--|           |--3--|        |--3--|         
  E  E  E  E  E  E  E  E  E  E     E  E  E  E  E  E  E  E  E  E   
--------------------------------|--------------------------------|
--------------------------------|--------------------------------|
--------------------------------|--------------------------------|
--------------------------------|--------------------------------|
-----------1--0-----------1--0--|-----------1--0-----------1--0--|
--0--0--0--1--0--0--0--0--1--0--|--0--0--0--1--0--0--0--0--1--0--|


  |--3--|        |--3--|           |--3--|        |--3--|         
  E  E  E  E  E  E  E  E  E  E     E  E  E  E  E  E  E  E  E  E   
--------------------------------|--------------------------------|
--------------------------------|--------------------------------|
--------------------------------|--------------------------------|
--------------------------------|--------------------------------|
-----------1--0-----------1--0--|-----------1--0-----------1--0--|
--0--0--0--1--0--0--0--0--1--0--|--0--0--0--1--0--0--0--0--1--0--|


  |--3--|        |--3--|           |--3--|        |--3--|         
  E  E  E  E  E  E  E  E  E  E     E  E  E  E  E  E  E  E  E  E   
--------------------------------|--------------------------------|
--------------------------------|--------------------------------|
--------------------------------|--------------------------------|
--------------------------------|--------------------------------|
-----------1--0-----------1--0--|-----------1--0-----------1--0--|
--0--0--0--1--0--0--0--0--1--0--|--0--0--0--1--0--0--0--0--1--0--|


  |--3--|        |--3--|           |--3--|        |--3--|         
  E  E  E  E  E  E  E  E  E  E     E  E  E  E  E  E  E  E  E  E   
--------------------------------|--------------------------------|
--------------------------------|--------------------------------|
--------------------------------|--------------------------------|
--------------------------------|--------------------------------|
-----------1--0-----------1--0--|-----------1--0-----------1--0--|
--0--0--0--1--0--0--0--0--1--0--|--0--0--0--1--0--0--0--0--1--0--|


  |--3--|        |--3--|           |--3--|        |--3--|          
  E  E  E  E  E  E  E  E  E  E     E  E  E  E  E  E  E  E  E  E    
--------------------------------|--------------------------------||
--------------------------------|--------------------------------||
--------------------------------|--------------------------------||
--------------------------------|--------------------------------||
-----------1--0-----------1--0--|-----------1--0-----------1--0--||
--0--0--0--1--0--0--0--0--1--0--|--0--0--0--1--0--0--0--0--1--0--||



								####
							!!!!!!!!!!!!!!!!!!!!!!!
						&&&&&&&&&&&&&&&&&&&&&&&&&&&&&&&&&&&&&&
								SOLO
						&&&&&&&&&&&&&&&&&&&&&&&&&&&&&&&&&&&&&&
							!!!!!!!!!!!!!!!!!!!!!!!
								####


  W                   W                    H.             E   E   
-------------------|-------------------|-------------------------|
-------------------|-------------------|--12b------------13b--L--|
-------------------|-------------------|--12b--------------------|
-------------------|-------------------|-------------------------|
-------------------|-------------------|-------------------------|
-------------------|-------------------|-------------------------|


        |--3--|  |--3--|  |--3--|  |--3--|  |--3--|  |--3--|  
  Q     S  S  S  S  S  S  S  S  S  S  S  S  S  S  S  S  S  S  
-------------------------------10----------------------10----|
--L----10----10-------------------13-10-------------------13-|
----------13----13-12-10-12-13----------13-12-10-12-13-------|
-------------------------------------------------------------|
-------------------------------------------------------------|
-------------------------------------------------------------|


   |--3--|           |---3---|           |---3--|  
   S  S  S  E.    S  E   E   E    Q      S   S  S  
-----------12b~---L-10--12-------10b--------10-10-|
----------------------------13b---------13b-------|
--13-12-10----------------------------------------|
--------------------------------------------------|
--------------------------------------------------|
--------------------------------------------------|


             |--3--|  |--3--|  |--3--|  |--3--|  |--3--|  
   Q     E   S  S  S  S  S  S  S  S  S  S  S  S  S  S  S  
------------10-14-10-14-10-14-10-14-10----10-------------|
--13b----L-----------------------------13----13-10-13-10-|
---------------------------------------------------------|
---------------------------------------------------------|
---------------------------------------------------------|
---------------------------------------------------------|


   |--3--|  |--3--|  |--3--|            |--3--|  |--3--|   
   S  S  S  S  S  S  S  S  S   E  Q     S  S  S  S  S  S   
----------------------------------------------------------|
-----10---------------------------------------------------|
--13----13-12-10----12----10h-11--L----10-11-10----10-11b-|
-----------------12----12-----------------------12--------|
----------------------------------------------------------|
----------------------------------------------------------|


   \2/                      \2/                             
         |---3---|    |--3--|                               
   Q     E   E   E    S  S  S  Q    E     W                 
---------------------------------------|-------------------|
---------------------------------------|-------------------|
--11----10--10--11b--11-10-11--L----L--|--L----------------|
---------------------------------------|-------------------|
---------------------------------------|-------------------|
---------------------------------------|-------------------|


   |---3--|  |---3--|                                   |-3-|  
   E  E   E  E   E  E   H            Q    E  E  Q    E  S S S  
--13-----15-----16-----18b--------|------------------6--7-6---|
----------------------------------|--3----------------------8-|
----------------------------------|--3------------------------|
----------------------------------|--3----5--3--5-------------|
----------------------------------|---------------------------|
----------------------------------|---------------------------|


                                            T       T     
     |-3-|                                                
  E  S S S S S E    Q    E   E      Q.      E  Q    Q     
---------------------------------|-----------------------|
--5--6-5-------------------------|-----------------------|
---------7-4-5-4br--L----5b--5b--|--3~--------------5----|
---------------------------------|----------5--L---------|
---------------------------------|-----------------------|
---------------------------------|-----------------------|


     T                                                                       
                           |---3---|   |---3---|    |---3---|   |---3---|    
  E  Q.      H             E   E   E   E   E   E    E   E   E   E   E   E    
-----------------------|----------------------------------------------------|
-----------------------|----------------------------------------------------|
--L---------12~--------|------12----------12-----------12----------12-------|
-----5-----------------|--12------12--11------11h--12------12--11------11h--|
-----------------------|----------------------------------------------------|
-----------------------|----------------------------------------------------|


   |---3---|   |---3---|              
   E   E   E   E   E   E   Q.     E   
-------------------------------------|
----------------------------------3--|
------12------12------12b--L---------|
--12------12------12-----------------|
-------------------------------------|
-------------------------------------|


  |--3--|   |---3---|   |---3---|   |---3---|   
  E  E  E   E   E   E   E   E   E   E   E   E   
-----8---------10----------14----------17------|
--7-----7--10------10--13------13--16------16--|
-----------------------------------------------|
-----------------------------------------------|
-----------------------------------------------|
-----------------------------------------------|


   |---3---|   |---3---|                                                        
   E   E   E   E   E   E   H              W                   W                 
------20------20------20b--L--------|----------------------|-------------------|
--19------19------19----------------|--<>10----------------|-------------------|
------------------------------------|----------------------|-------------------|
------------------------------------|----------------------|-------------------|
------------------------------------|----------------------|-------------------|
------------------------------------|----------------------|-------------------|




						=================================

							4. FUCKING HOSTILE

						=================================

Main riff:
e|--------------------------- |-------------------------------------------|
B|--------------------------- |-------------------------------------------|
G|--------------------------- |-------------------------------------------|
D|--------------------------- |-------------------------------------------|
A|-7--7--7-7-7--7--7--7-7-7-5 |-7--7--7-7-7--7--7--7--7-7-7-5-------------|
E|-5--5--5-5-5--5--5--5-5-5-3 |-5--5--5-5-5--5--5--5--5-5-5-3-------------|

e|----------------------------|-------------------------------|-----------|
B|----------------------------|-------------------------------|-----------|
G|----------------------------|-------------------------------|-----------|
D|----------------------------|-------------------------------|-----------|
A|-7--7--7-7-7--7--7--7-7-7-5-|-7--7--7-7-7--7--7--7--7-7-7-5-|-----------|
E|-5--5--5-5-5--5--5--5-5-5-3-|-5--5--5-5-5--5--5--5--5-5-5-3-|-----------|

e|---------|------------------|-------------------------------------------|
B|---------|------------------|-------------------------------------------|
G|---------|------------------|-------------------------------------------|
D|-------5-|------------/7--7-|-------------------------------------------|
A|-3-2-3-3-|-0-0-0-0-0-0----5-|-------------------------------------------|
E|-5-4-1---|------------------|-------------------------------------------|

Chorus:
e|----------------------------------------------|-------------------------|
B|----------------------------------------------|-------------------------|
G|----------------------------------------------|-------------------------|
D|-7/5------------7/5------------7/5------------|-------------------------|
A|-5/3-----5--x---5/3------5--x--5/3-----5--4-7-|-------------------------|
E|-------0-3--x---------0--3--x-------0--3--6-5-|-------------------------|

e|------------------------------|-----------------------------------------|
B|------------------------------|-----------------------------------------|
G|------------------------------|-----------------------------------------|
D|----------------------------7-|5-----------7--5---------7--5------------|
A|----------------------------5-|3-----5--x--5--3----5--x-5--3-----5--6-5-|
E|-5-5-5-5-5-5-5-5-5-5-5-5-5----|---0--3--x--------0-3--x-------0--3--4-7-|

Bridge:
e|-------------------------|----------------------------------------------|
B|-------------------------|----------------------------------------------|
G|-------------------------|----------------------------------------------|
D|-------------------------|----------------------------------------------|
A|-2--2--2--2--5--------5--|----------------------------------------------|
E|-0--0--0--0--3--0--0--3--|----------------------------------------------|

Solo with wah and floyd rose whammy bar for scooping:
e|------------------------------------------------------------------------|
B|-8(10)-8(10)-8(10)-8(10)-12--12--12--12--12--12--12--12--14--12-14------|
G|-------------------------12--12--12--12--12--12--12--12--14--12-14------|
D|------------------------------------------------------------------------|
A|------------------------------------------------------------------------|
E|------------------------------------------------------------------------|

for this section scoop up with bar every note at 15th fret:
e|-17-20-17-15-19-17-15-20-17-15-19-17-15-20-17-15-19-17-15-20-17-15-19----|
B|-------------------------------------------------------------------------|
G|-------------------------------------------------------------------------|
D|-------------------------------------------------------------------------|
A|-------------------------------------------------------------------------|
E|-------------------------------------------------------------------------|

e|-17-15-20-17-15-19-17-15-20-17-15-19-17-15-20-17--17-17-17-17-x-x-x-x---|
B|------------------------------------------------------------------------|
G|------------------------------------------------------------------------|
D|------------------------------------------------------------------------|
A|------------------------------------------------------------------------|
E|------------------------------------------------------------------------|

e|---17-17-17-17-17----17-17-17-17-17----17--17*--------------------------|
B|-20(22)------------20(22)------------20(22)-----------------------------|
G|------------------------------------------------------------------------|
D|------------------------------------------------------------------------|
A|------------------------------------------------------------------------|
E|------------------------------------------------------------------------|

e|-------------------|-8--------------8--------------|-8------------------|
B|-------------------|-11(13)---------11(13)---------|-11(13)--8----------|
G|-------------------|--------8---------------8------|---------10(12)-----|
D|-------------------|--------10(12)----------10(12)-|--------------------|
A|-0(dive bomb w/bar-|-------------------------------|--------------------|
E|-------------------|-------------------------------|--------------------|

e|-------------|-8---------------8-------------|-8------------------------|
B|-10----------|-11(13)--8-------11(13)--8-----|-11(13)--8------9---------|
G|-12(14)(hold)|---------10(12)----------10(12)|---------10(12)-11(13)----|
D|-------------|-------------------------------|--------------------------|
A|-------------|-------------------------------|--------------------------|
E|-------------|-------------------------------|--------------------------|

e|------------------------------------------------------------------------|
B|-10---------------------------------------------------------------------|
G|-12(14)(hold)-----------------------------------------------------------|
D|------------------------------------------------------------------------|
A|------------------------------------------------------------------------|
E|------------------------------------------------------------------------|

Outro chords:
e|---------|-------------|----------|-------------------------------------|
B|---------|-------------|----------|-------------------------------------|
G|---------|-------------|----------|-------------------------------------|
D|---------|-------------|----------|-------------------------------------|
A|-7--3--6-|--7--5--6--7-|--4--5--6-|--7----------------------------------|
E|-5--5--4-|--5--3--4--5-|--2--3--4-|--5----------------------------------|

Song structure:

Main riff/verse riffx4
chorusx1
bridgex7
main riffx4
chorusx
solo x1
main riffx4
chorusx1
outrox1





						=================================

							5. THIS LOVE

						=================================


      E  E  E  E  E  E  E  E     E  E  E  E  E  E  E  E   
D#||--------------------------|--------------------------|
A#||--------------------------|--------------------------|
F#||--------------------------|--------------------------|
C#||--------2--------2--------|--------2--------2--------|
G#||-----4--------4-----4-----|-----4--------4-----4-----|
D#||--2--------3-----------3--|--2--------3-----------3--|


  E  E  E  E  E  E  E  E     E  E  E  E  E  E  E  E   
--------------------------|--------------------------|
--------------------------|--------------------------|
--------------------------|--------------------------|
--------2--------2--------|--------2--------2--------|
-----4--------4-----4-----|-----4--------4-----4-----|
--2--------3-----------3--|--2--------3-----------3--|


  E  E  E  E  E  E  E  E     E  E  E  E  E  E  E  E   
--------------------------|--------------------------|
--------------------------|--------------------------|
--------2--------2--------|--------2--------2--------|
-----4--------4-----4-----|-----4--------4-----4-----|
--2--------3-----------3--|--2--------3-----------3--|
--------------------------|--------------------------|


  E  E  E  E  E  E  E  E     E  E  E  E  E  E  E  E   
--------------------------|--------------------------|
--------------------------|--------------------------|
--------------------------|--------------------------|
--------2--------2--------|--------2--------2--------|
-----4--------4-----4-----|-----4--------4-----4-----|
--2--------3-----------3--|--2--------3-----------3--|


  E  E  E  E  E  E  E  E     E  E  S S E  E  E  E  E   
--------------------------|---------------------------|
--------------------------|---------------------------|
--------0--------0--------|--------2---------0--------|
-----2--------2-----2-----|-----2---------2-----2-----|
--4--------3-----------3--|--4---------3-----------3--|
--------------------------|---------------------------|


  E  E  S S E  E  E  E  E     E  E  E  E  H           W                 
---------------------------|-----------------------|-------------------|
---------------------------|-----------------------|-------------------|
--------2---------0--------|-----------2--L--------|--L----------------|
-----2---------2-----2-----|--------2--2--L--------|--L----------------|
--4---------3-----------3--|-----2-----3--L--------|--L----------------|
---------------------------|--4--------5--L--------|--L----------------|


  E  E  E  E  E  E  E  E     E  E  E  E  E  E  E  E   
--------------------------|--------------------------|
--------------------------|--------------------------|
--------------------------|--------------------------|
--------2--------2--------|--------2--------2--------|
-----4--------4-----4-----|-----4--------4-----4-----|
--2--------3-----------3--|--2--------3-----------3--|


  E  E  E  E  E  E  E  E     E  E  E  E  E  E  E  E   
--------------------------|--------------------------|
--------------------------|--------------------------|
--------------------------|--------------------------|
--------2--------2--------|--------2--------2--------|
-----4--------4-----4-----|-----4--------4-----4-----|
--2--------3-----------3--|--2--------3-----------3--|


  E  E  E  E  E  E  E  E     E  E  E  E  E  E  E  E   
--------------------------|--------------------------|
--------------------------|--------------------------|
--------2--------2--------|--------2--------2--------|
-----4--------4-----4-----|-----4--------4-----4-----|
--2--------3-----------3--|--2--------3-----------3--|
--------------------------|--------------------------|


  E  E  E  E  E  E  E  E     E  E  E  E  E  E  E  E   
--------------------------|--------------------------|
--------------------------|--------------------------|
--------------------------|--------------------------|
--------2--------2--------|--------2--------2--------|
-----4--------4-----4-----|-----4--------4-----4-----|
--2--------3-----------3--|--2--------3-----------3--|


  E  E  E  E  E  E  E  E     E  E  S S E  E  E  E  E   
--------------------------|---------------------------|
--------------------------|---------------------------|
--------0--------0--------|--------2---------0--------|
-----2--------2-----2-----|-----2---------2-----2-----|
--4--------3-----------3--|--4---------3-----------3--|
--------------------------|---------------------------|


  E  E  S S E  E  E  E  E     E  E  E  E  E  E  E  E   
---------------------------|--------------------------|
---------------------------|--------------------------|
--------2---------0--------|--------------------------|
-----2---------2-----2-----|--------2--------2--------|
--4---------3-----------3--|-----2--------3-----3-----|
---------------------------|--4--------5-----------5--|


  E  E  E  E  E  E  E  E     E  E  S S E  E  E  E  E   
--------------------------|---------------------------|
--------------------------|---------------------------|
--------0--------0--------|--------2---------0--------|
-----2--------2-----2-----|-----2---------2-----2-----|
--4--------3-----------3--|--4---------3-----------3--|
--------------------------|---------------------------|


  E  E  S S E  E  E  E  E     E  E  E  E  H           H         
---------------------------|-----------------------|-----------|
---------------------------|-----------------------|-----------|
--------2---------0--------|-----------2--L--------|--L--------|
-----2---------2-----2-----|--------2--2--L--------|--L--------|
--4---------3-----------3--|-----2-----3--L--------|--L--------|
---------------------------|--4--------5--L--------|--L--------|


  E  E  E  E  E  E  E  E     E  E  E  E  E  E  E  E   
--------------------------|--------------------------|
--------------------------|--------------------------|
--------------------------|--------------------------|
--------2--------2--------|--------2--------2--------|
-----4--------4-----4-----|-----4--------4-----4-----|
--2--------3-----------3--|--2--------3-----------3--|


  E  E  E  E  E  E  E  E     E  E  E  E  E  E  E  E     W                 
--------------------------|--------------------------|-------------------|
--------------------------|--------------------------|-------------------|
--------------------------|--------------------------|-------------------|
--------2--------2--------|--------2--------2--------|-------------------|
-----4--------4-----4-----|-----4--------4-----4-----|-------------------|
--2--------3-----------3--|--2--------3-----------3--|-------------------|


  W                   W                   W                   W                 
-------------------|-------------------|-------------------|-------------------|
-------------------|-------------------|-------------------|-------------------|
-------------------|-------------------|-------------------|-------------------|
-------------------|-------------------|-------------------|-------------------|
-------------------|-------------------|-------------------|-------------------|
-------------------|-------------------|-------------------|-------------------|


  W                   W                   W                 
-------------------|-------------------|-------------------|
-------------------|-------------------|-------------------|
-------------------|-------------------|-------------------|
-------------------|-------------------|-------------------|
-------------------|-------------------|-------------------|
-------------------|-------------------|-------------------|


  E  E  E  E  E  E  E  E     E  E  E  E  E  E  E  E   
--------------------------|--------------------------|
--------------------------|--------------------------|
--------------------------|--------------------------|
--------2--------2--------|--------2--------2--------|
-----4--------4-----4-----|-----4--------4-----4-----|
--2--------3-----------3--|--2--------3-----------3--|


  E  E  E  E  E  E  E  E     E  E  E  E  E  E  E  E   
--------------------------|--------------------------|
--------------------------|--------------------------|
--------------------------|--------------------------|
--------2--------2--------|--------2--------2--------|
-----4--------4-----4-----|-----4--------4-----4-----|
--2--------3-----------3--|--2--------3-----------3--|


  E  E  E  E  E  E  E  E     E  E  E  E  E  E  E  E   
--------------------------|--------------------------|
--------------------------|--------------------------|
--------------------------|--------------------------|
--------2--------2--------|--------2--------2--------|
-----4--------4-----4-----|-----4--------4-----4-----|
--2--------3-----------3--|--2--------3-----------3--|


  E  E  E  E  E  E  E  E     E  E  E  E  E  E  E  E   
--------------------------|--------------------------|
--------------------------|--------------------------|
--------------------------|--------------------------|
--------2--------2--------|--------2--------2--------|
-----4--------4-----4-----|-----4--------4-----4-----|
--2--------3-----------3--|--2--------3-----------3--|


  E  E  E  E  E  E  E  E     E  E  E  E  E  E  E  E   
--------------------------|--------------------------|
--------------------------|--------------------------|
--------2--------2--------|--------2--------2--------|
-----4--------4-----4-----|-----4--------4-----4-----|
--2--------3-----------3--|--2--------3-----------3--|
--------------------------|--------------------------|


  E  E  E  E  E  E  E  E     E  E  E  E  E  E  E  E   
--------------------------|--------------------------|
--------------------------|--------------------------|
--------------------------|--------------------------|
--------2--------2--------|--------2--------2--------|
-----4--------4-----4-----|-----4--------4-----4-----|
--2--------3-----------3--|--2--------3-----------3--|


  E  E  E  E  E  E  E  E     E  E  S S E  E  E  E  E   
--------------------------|---------------------------|
--------------------------|---------------------------|
--------0--------0--------|--------2---------0--------|
-----2--------2-----2-----|-----2---------2-----2-----|
--4--------3-----------3--|--4---------3-----------3--|
--------------------------|---------------------------|


  E  E  S S E  E  E  E  E     E  E  E  E  E  E  E  E   
---------------------------|--------------------------|
---------------------------|--------------------------|
--------2---------0--------|--------------------------|
-----2---------2-----2-----|--------2--------2--------|
--4---------3-----------3--|-----2--------3-----3-----|
---------------------------|--4--------5-----------5--|


  E  E  E  E  E  E  E  E     E  E  S S E  E  E  E  E   
--------------------------|---------------------------|
--------------------------|---------------------------|
--------0--------0--------|--------2---------0--------|
-----2--------2-----2-----|-----2---------2-----2-----|
--4--------3-----------3--|--4---------3-----------3--|
--------------------------|---------------------------|


  E  E  S S E  E  E  E  E     E  E  E  E  H           H         
---------------------------|-----------------------|-----------|
---------------------------|-----------------------|-----------|
--------2---------0--------|-----------2--L--------|--L--------|
-----2---------2-----2-----|--------2--2--L--------|--L--------|
--4---------3-----------3--|-----2-----3--L--------|--L--------|
---------------------------|--4--------5--L--------|--L--------|


  E  E  E  E  E  E  E  E     E  E  E  E  E  E  E  E   
--------------------------|--------------------------|
--------------------------|--------------------------|
--------------------------|--------------------------|
--------2--------2--------|--------2--------2--------|
-----4--------4-----4-----|-----4--------4-----4-----|
--2--------3-----------3--|--2--------3-----------3--|


  E  E  E  E  E  E  E  E     E  E  E  E  E  E  E  E     W                 
--------------------------|--------------------------|-------------------|
--------------------------|--------------------------|-------------------|
--------------------------|--------------------------|-------------------|
--------2--------2--------|--------2--------2--------|-------------------|
-----4--------4-----4-----|-----4--------4-----4-----|-------------------|
--2--------3-----------3--|--2--------3-----------3--|-------------------|


  W                   W                   W                   W                 
-------------------|-------------------|-------------------|-------------------|
-------------------|-------------------|-------------------|-------------------|
-------------------|-------------------|-------------------|-------------------|
-------------------|-------------------|-------------------|-------------------|
-------------------|-------------------|-------------------|-------------------|
-------------------|-------------------|-------------------|-------------------|


  W                   W                   W                   W                 
-------------------|-------------------|-------------------|-------------------|
-------------------|-------------------|-------------------|-------------------|
-------------------|-------------------|-------------------|-------------------|
-------------------|-------------------|-------------------|-------------------|
-------------------|-------------------|-------------------|-------------------|
-------------------|-------------------|-------------------|-------------------|


  W                   W                   W                   W                 
-------------------|-------------------|-------------------|-------------------|
-------------------|-------------------|-------------------|-------------------|
-------------------|-------------------|-------------------|-------------------|
-------------------|-------------------|-------------------|-------------------|
-------------------|-------------------|-------------------|-------------------|
-------------------|-------------------|-------------------|-------------------|


  W                   W                   W                   H         
-------------------|-------------------|-------------------|-----------|
-------------------|-------------------|-------------------|-----------|
-------------------|-------------------|-------------------|-----------|
-------------------|-------------------|-------------------|-----------|
-------------------|-------------------|-------------------|-----------|
-------------------|-------------------|-------------------|-----------|


  W                   W                   W                   W                 
-------------------|-------------------|-------------------|-------------------|
-------------------|-------------------|-------------------|-------------------|
-------------------|-------------------|-------------------|-------------------|
-------------------|-------------------|-------------------|-------------------|
-------------------|-------------------|-------------------|-------------------|
-------------------|-------------------|-------------------|-------------------|


  W                   W                   W                   W                 
-------------------|-------------------|-------------------|-------------------|
-------------------|-------------------|-------------------|-------------------|
-------------------|-------------------|-------------------|-------------------|
-------------------|-------------------|-------------------|-------------------|
-------------------|-------------------|-------------------|-------------------|
-------------------|-------------------|-------------------|-------------------|


  W                   W                   W                   W                 
-------------------|-------------------|-------------------|-------------------|
-------------------|-------------------|-------------------|-------------------|
-------------------|-------------------|-------------------|-------------------|
-------------------|-------------------|-------------------|-------------------|
-------------------|-------------------|-------------------|-------------------|
-------------------|-------------------|-------------------|-------------------|


  W                   W                   W                   W                 
-------------------|-------------------|-------------------|-------------------|
-------------------|-------------------|-------------------|-------------------|
-------------------|-------------------|-------------------|-------------------|
-------------------|-------------------|-------------------|-------------------|
-------------------|-------------------|-------------------|-------------------|
-------------------|-------------------|-------------------|-------------------|


  W                   W                   H.              W                 
-------------------|-------------------|---------------|-------------------|
-------------------|-------------------|---------------|-------------------|
-------------------|-------------------|---------------|-------------------|
-------------------|-------------------|---------------|-------------------|
-------------------|-------------------|---------------|-------------------|
-------------------|-------------------|---------------|-------------------|


  E  E  E  E  E  E  E  E     E  E  E  E  E  E  E  E   
--------------------------|--------------------------|
--------------------------|--------------------------|
--------------------------|--------------------------|
--------2--------2--------|--------2--------2--------|
-----4--------4-----4-----|-----4--------4-----4-----|
--2--------3-----------3--|--2--------3-----------3--|


  E  E  E  E  E  E  E  E     E  E  E  E  E  E  E  E   
--------------------------|--------------------------|
--------------------------|--------------------------|
--------------------------|--------------------------|
--------2--------2--------|--------2--------2--------|
-----4--------4-----4-----|-----4--------4-----4-----|
--2--------3-----------3--|--2--------3-----------3--|


  solo                                                  
  E    E  E  E  E  E  E  E     E  E  E  E  E  E  E  E   
----------------------------|--------------------------|
----------------------------|--------------------------|
----------------------------|--------------------------|
----------2--------2--------|--------2--------2--------|
-------4--------4-----4-----|-----4--------4-----4-----|
--2----------3-----------3--|--2--------3-----------3--|


  E  E  E  E  E  E  E  E     E  E  E  E  E  E  E  E   
--------------------------|--------------------------|
--------------------------|--------------------------|
--------------------------|--------------------------|
--------2--------2--------|--------2--------2--------|
-----4--------4-----4-----|-----4--------4-----4-----|
--2--------3-----------3--|--2--------3-----------3--|


  E  E  E  E  E  E  E  E     E  E  E  E  E  E  E  E   
--------------------------|--------------------------|
--------------------------|--------------------------|
--------2--------2--------|--------2--------2--------|
-----4--------4-----4-----|-----4--------4-----4-----|
--2--------3-----------3--|--2--------3-----------3--|
--------------------------|--------------------------|


  E  E  E  E  E  E  E  E     E  E  E  E  E  E  E  E   
--------------------------|--------------------------|
--------------------------|--------------------------|
--------2--------2--------|--------2--------2--------|
-----4--------4-----4-----|-----4--------4-----4-----|
--2--------3-----------3--|--2--------3-----------3--|
--------------------------|--------------------------|


  E  E  E  E  E  E  E  E     E  E  E  E  E  E  E  E   
--------------------------|--------------------------|
--------------------------|--------------------------|
--------2--------2--------|--------2--------0--------|
-----3--------3-----3-----|-----3--------3-----3-----|
--5--------4-----------4--|--3--------2-----------2--|
--------------------------|--------------------------|


  E  E  E  E  E  E  E  E     E  E  E  E  E  E  E  E   
--------------------------|--------------------------|
--------------------------|--------------------------|
--------2--------2--------|--------2--------0--------|
-----3--------3-----3-----|-----3--------3-----3-----|
--5--------4-----------4--|--3--------2-----------2--|
--------------------------|--------------------------|


  E  E  E  E  E  E  E  E     E  E  E  E  E  E  E  E   
--------------------------|--------------------------|
--------------------------|--------------------------|
--------------------------|--------------------------|
--------2--------2--------|--------2--------2--------|
-----4--------4-----4-----|-----4--------4-----4-----|
--2--------3-----------3--|--2--------3-----------3--|


  E  E  E  E  E  E  E  E     E  E  E  E  E  E  E  E     W                 
--------------------------|--------------------------|-------------------|
--------------------------|--------------------------|-------------------|
--------------------------|--------------------------|-------------------|
--------2--------2--------|--------2--------2--------|-------------------|
-----4--------4-----4-----|-----4--------4-----4-----|-------------------|
--2--------3-----------3--|--2--------3-----------3--|-------------------|


  W                   W                   W                   W                 
-------------------|-------------------|-------------------|-------------------|
-------------------|-------------------|-------------------|-------------------|
-------------------|-------------------|-------------------|-------------------|
-------------------|-------------------|-------------------|-------------------|
-------------------|-------------------|-------------------|-------------------|
-------------------|-------------------|-------------------|-------------------|


  W                   W                   W                   W                 
-------------------|-------------------|-------------------|-------------------|
-------------------|-------------------|-------------------|-------------------|
-------------------|-------------------|-------------------|-------------------|
-------------------|-------------------|-------------------|-------------------|
-------------------|-------------------|-------------------|-------------------|
-------------------|-------------------|-------------------|-------------------|


  W                   W                   W                   W                 
-------------------|-------------------|-------------------|-------------------|
-------------------|-------------------|-------------------|-------------------|
-------------------|-------------------|-------------------|-------------------|
-------------------|-------------------|-------------------|-------------------|
-------------------|-------------------|-------------------|-------------------|
-------------------|-------------------|-------------------|-------------------|


  W                   W                   W                   W                 
-------------------|-------------------|-------------------|-------------------|
-------------------|-------------------|-------------------|-------------------|
-------------------|-------------------|-------------------|-------------------|
-------------------|-------------------|-------------------|-------------------|
-------------------|-------------------|-------------------|-------------------|
-------------------|-------------------|-------------------|-------------------|


  W                   W                   W                   W                 
-------------------|-------------------|-------------------|-------------------|
-------------------|-------------------|-------------------|-------------------|
-------------------|-------------------|-------------------|-------------------|
-------------------|-------------------|-------------------|-------------------|
-------------------|-------------------|-------------------|-------------------|
-------------------|-------------------|-------------------|-------------------|


  W                   W                   W                   W                 
-------------------|-------------------|-------------------|-------------------|
-------------------|-------------------|-------------------|-------------------|
-------------------|-------------------|-------------------|-------------------|
-------------------|-------------------|-------------------|-------------------|
-------------------|-------------------|-------------------|-------------------|
-------------------|-------------------|-------------------|-------------------|


  W                   W                   W                   W                 
-------------------|-------------------|-------------------|-------------------|
-------------------|-------------------|-------------------|-------------------|
-------------------|-------------------|-------------------|-------------------|
-------------------|-------------------|-------------------|-------------------|
-------------------|-------------------|-------------------|-------------------|
-------------------|-------------------|-------------------|-------------------|


  W                   W                   W                   W                 
-------------------|-------------------|-------------------|-------------------|
-------------------|-------------------|-------------------|-------------------|
-------------------|-------------------|-------------------|-------------------|
-------------------|-------------------|-------------------|-------------------|
-------------------|-------------------|-------------------|-------------------|
-------------------|-------------------|-------------------|-------------------|


  W                   W                   W                   W                 
-------------------|-------------------|-------------------|-------------------|
-------------------|-------------------|-------------------|-------------------|
-------------------|-------------------|-------------------|-------------------|
-------------------|-------------------|-------------------|-------------------|
-------------------|-------------------|-------------------|-------------------|
-------------------|-------------------|-------------------|-------------------|


  W                   E  E  E  E  E  E  E  E     E  E  E  E  E  E  E  E   
-------------------|--------------------------|--------------------------|
-------------------|--------------------------|--------------------------|
-------------------|--------------------------|--------------------------|
-------------------|--------2--------2--------|--------2--------2--------|
-------------------|-----4--------4-----4-----|-----4--------4-----4-----|
-------------------|--2--------3-----------3--|--2--------3-----------3--|


  E  E  E  E  E  E  E  E     E  E  E  E  E  E  E  E   
--------------------------|--------------------------|
--------------------------|--------------------------|
--------------------------|--------------------------|
--------2--------2--------|--------2--------2--------|
-----4--------4-----4-----|-----4--------4-----4-----|
--2--------3-----------3--|--2--------3-----------3--|


  E  E  E  E  E  E  E  E     E  E  E  E  E  E  E  E   
--------------------------|--------------------------|
--------------------------|--------------------------|
--------------------------|--------------------------|
--------2--------2--------|--------2--------2--------|
-----4--------4-----4-----|-----4--------4-----4-----|
--2--------3-----------3--|--2--------3-----------3--|


  E  E  E  E  E  E  E  E     E  E  E  E  E  E  E  E   
--------------------------|--------------------------|
--------------------------|--------------------------|
--------------------------|--------------------------|
--------2--------2--------|--------2--------2--------|
-----4--------4-----4-----|-----4--------4-----4-----|
--2--------3-----------3--|--2--------3-----------3--|


  E  E  E  E  E  E  E  E     E  E  E  E  E  E  E  E   
--------------------------|--------------------------|
--------------------------|--------------------------|
--------------------------|--------------------------|
--------2--------2--------|--------2--------2--------|
-----4--------4-----4-----|-----4--------4-----4-----|
--2--------3-----------3--|--2--------3-----------3--|


  E  E  E  E  E  E  E  E     E  E  E  E  E  E  E  E   
--------------------------|--------------------------|
--------------------------|--------------------------|
--------------------------|--------------------------|
--------2--------2--------|--------2--------2--------|
-----4--------4-----4-----|-----4--------4-----4-----|
--2--------3-----------3--|--2--------3-----------3--|


  E  E  E  E  E  E  E  E     E  E  E  E  E  E  E  E   
--------------------------|--------------------------|
--------------------------|--------------------------|
--------------------------|--------------------------|
--------2--------2--------|--------2--------2--------|
-----4--------4-----4-----|-----4--------4-----4-----|
--2--------3-----------3--|--2--------3-----------3--|


  E  E  E  E  E  E  E  E     E  E  E  E  E  E  E  E   
--------------------------|--------------------------|
--------------------------|--------------------------|
--------------------------|--------------------------|
--------2--------2--------|--------2--------2--------|
-----4--------4-----4-----|-----4--------4-----4-----|
--2--------3-----------3--|--2--------3-----------3--|


  E  E  E  E  E  E  E  E     E  E  E  E  E  E  E  E   
--------------------------|--------------------------|
--------------------------|--------------------------|
--------------------------|--------------------------|
--------2--------2--------|--------2--------2--------|
-----4--------4-----4-----|-----4--------4-----4-----|
--2--------3-----------3--|--2--------3-----------3--|


  E  E  E  E  E  E  E  E     E  E  E  E  E  E  E  E   
--------------------------|--------------------------|
--------------------------|--------------------------|
--------------------------|--------------------------|
--------2--------2--------|--------2--------2--------|
-----4--------4-----4-----|-----4--------4-----4-----|
--2--------3-----------3--|--2--------3-----------3--|


  E  E  E  E  E  E  E  E     E  E  E  E  E  E  E  E   
--------------------------|--------------------------|
--------------------------|--------------------------|
--------------------------|--------------------------|
--------2--------2--------|--------2--------2--------|
-----4--------4-----4-----|-----4--------4-----4-----|
--2--------3-----------3--|--2--------3-----------3--|


  E  E  E  E  E  E  E  E     E  E  E  E  E  E  E  E   
--------------------------|--------------------------|
--------------------------|--------------------------|
--------------------------|--------------------------|
--------2--------2--------|--------2--------2--------|
-----4--------4-----4-----|-----4--------4-----4-----|
--2--------3-----------3--|--2--------3-----------3--|


  E  E  E  E  E  E  E  E     E  E  E  E  E  E  E  E   
--------------------------|--------------------------|
--------------------------|--------------------------|
--------------------------|--------------------------|
--------2--------2--------|--------2--------2--------|
-----4--------4-----4-----|-----4--------4-----4-----|
--2--------3-----------3--|--2--------3-----------3--|


  E  E  E  E  E  E  E  E     E  E  E  E  E  E  E  E          
--------------------------|--------------------------|-----||
--------------------------|--------------------------|-----||
--------------------------|--------------------------|-----||
--------2--------2--------|--------2--------2--------|-----||
-----4--------4-----4-----|-----4--------4-----4-----|-----||
--2--------3-----------3--|--2--------3-----------3--|-----||




								####
							!!!!!!!!!!!!!!!!!!!!!!!
						&&&&&&&&&&&&&&&&&&&&&&&&&&&&&&&&&&&&&&
								SOLO
						&&&&&&&&&&&&&&&&&&&&&&&&&&&&&&&&&&&&&&
							!!!!!!!!!!!!!!!!!!!!!!!
								####



  W                   W                   H           Q    E  E  H         
-------------------|-------------------|-----------|----------------------|
-------------------|-------------------|-----------|----------7--L--------|
-------------------|-------------------|-----------|----------x-----------|
-------------------|-------------------|-----------|----------x-----------|
-------------------|-------------------|-----------|----------------------|
-------------------|-------------------|-----------|----------x-----------|


           \0/  \0/  \0/             \0/          \1/                 \1/       
           |----3----|                                                          
  H        Q    Q    Q       Q    E  E   Q.       E     H        E    E  E  E   
--------------------------|--------------------------|-------------------------|
--L--------7--------------|--------------------------|-------------------------|
----------------9----9----|--8----6--6---L------<>6--|--L--------L--<>6--L--x--|
--------------------------|--------------------------|-------------------------|
--------------------------|--------------------------|-------------------------|
--------------------------|--------------------------|-------------------------|


  S S E  E.  S S S E  E  S S    S S E  Q    E.  S E  E   
-----------------------------|--------------------------|
-----------------------------|--------------------------|
-----------------------------|--------------------------|
-----------------------------|--------------------------|
--2-4--------4-2-4-------4-4-|--2-4---------6---5-L--4--|
--0-2--------2-0-2-------2-2-|--0-2---------8---7-L--5--|


  S S E  E.  S S S E  E  S S    S S E  Q    E.  S E  E   
-----------------------------|--------------------------|
-----------------------------|--------------------------|
-----------------------------|--------------------------|
-----------------------------|--------------------------|
--2-4--------4-2-4-------4-4-|--2-4---------6---5-L--4--|
--0-2--------2-0-2-------2-2-|--0-2---------8---7-L--5--|


  S S E  Q    S S E  Q       S S E  Q    E.  S E  E   
--------------------------|--------------------------|
--------------------------|--------------------------|
--------------------------|--------------------------|
--------------------------|--------------------------|
--2-4---------2-4---------|--2-4---------6---5-L--4--|
--0-2---------0-2---------|--0-2---------8---7-L--5--|


  S S E  Q    S S E  Q       S S E  Q    E.  S E  E     W                 
--------------------------|--------------------------|-------------------|
--------------------------|--------------------------|-------------------|
--------------------------|--------------------------|-------------------|
--------------------------|--------------------------|-------------------|
--2-4---------2-4---------|--2-4---------6---5-L--4--|--4----------------|
--0-2---------0-2---------|--0-2---------8---7-L--5--|--2----------------|


  W                   W                   W                   W                 
-------------------|-------------------|-------------------|-------------------|
-------------------|-------------------|-------------------|-------------------|
-------------------|-------------------|-------------------|-------------------|
-------------------|-------------------|-------------------|-------------------|
--L----------------|--L----------------|--L----------------|-------------------|
--L----------------|--L----------------|--L----------------|-------------------|




			##########__--__--SOLO 2--__--__##########

     solo                                                       
  ^                            ^                                
  S  Q    Q     Q      E  S    E   E   E.   S  E   E   E   E    
----------------------------|----------------------------------|
----------------------------|----------------------------------|
----16----L----16b~----L--L-|-----16b--L---16-16--16--16--16h--|
--x-------------------------|--x-------------------------------|
--x-------------------------|--x-------------------------------|
--x-------------------------|--x-------------------------------|


                                                ^  
   E   E   Q     Q    Q       H        Q    E.  S  
---------------------------|----------------------|
---------------------------|--------------------x-|
--14~--L--14S----L---------|--------------------x-|
---------------------------|--------------------x-|
---------------------------|--------------------x-|
---------------------------|----------------------|


                                         |---3---|                
   Q.       E   Q    E   E      E  Q     S    S  S  S  E.   Q     
--19b------19~--L----L--19b--|--L--L----19b~-17----19------------|
-----------------------------|------------------19----19b---L----|
-----------------------------|-----------------------------------|
-----------------------------|-----------------------------------|
-----------------------------|-----------------------------------|
-----------------------------|-----------------------------------|


         |---3---|                                                
  E.  S  E   E   E   E   Q.         Q    S  S   S   E  Q    E  S  
--------17--19------19--19~------|--L----------------------------|
--L---L---------18---------------|-------------------------------|
---------------------------------|---------14h-16p-14--L----L--L-|
---------------------------------|-------x-----------------------|
---------------------------------|-------------------------------|
---------------------------------|-------------------------------|


   Q.       E   E   E    E   E      H         S  S  E    E   S  S  
--13~------12--10-------10-------|-----------13-17-17br--L--13----|
-------------------13b------13b--|--L--------------------------17-|
---------------------------------|--------------------------------|
---------------------------------|--------------------------------|
---------------------------------|--------------------------------|
---------------------------------|--------------------------------|


   Q      E    E   E.    S  Q       Q     E  E   Q      E   E    
---------------------------------|------------------------------|
---------17S--18--------15b-L----|--L----15--L--15~----15S------|
--15~-------------14~------------|--------------------------2b--|
---------------------------------|------------------------------|
---------------------------------|------------------------------|
---------------------------------|------------------------------|


  Q    S  S T  T  S Q    E  S  S    E  S S S S S S Q    Q       
---------------------------------|-----------------------------|
---------------------------------|-----------------------------|
--L------------------------------|-----------------------------|
-------4p-2-2h-4~-L-L----2-------|--2--------------------------|
----------------------------3S-4-|-----4-3-2-3-2--------7br----|
---------------------------------|---------------0-L-----------|


                                   \1               
  E  E   E  E  E   E  E  E      E  H.           E   
-----------------------------|---------------------|
-----------------------------|---------------------|
-----------------------------|---------------------|
-----------------------------|---------------------|
-----7b--7-----7b--7--L------|-----0------------L--|
--5---------5------------5S--|--2------------------|


			##########__--__--SOLO 3--__--__##########


                      |---3---|                              
  H            Q      E    E  E      Q     E   E   H         
---------------------------------|--------------------------|
---------------------------------|--------------------------|
--L--------11g11b----11br--L--9--|--------11--11~--L--------|
---------------------------------|--11----------------------|
---------------------------------|--------------------------|
---------------------------------|--------------------------|


  W                    H.           E   E     W                 
-------------------|-----------------------|-------------------|
-------------------|--14------------L--14--|--L----------------|
--L----------------|-----------------------|-------------------|
-------------------|-----------------------|-------------------|
-------------------|-----------------------|-------------------|
-------------------|-----------------------|-------------------|


                                              |----3---|   
   W                    Q.      E   E  E      E    E   E   
--------------------|-------------------------------------|
--------------------|-----------------------------14--15--|
--14----------------|--14S------x--13-----16g16b----------|
--------------------|-------------------------------------|
--------------------|-------------------------------------|
--------------------|-------------------------------------|


                                                |----3----|               
      Q.         E    H               E     E   E     E   E     H         
-------------------------------|-----------------------------------------|
--17g17------17g17~---L--------|--17g17br--17--17br--17--17br~--L--------|
-------------------------------|-----------------------------------------|
-------------------------------|-----------------------------------------|
-------------------------------|-----------------------------------------|
-------------------------------|-----------------------------------------|


      Q.      E   H               Q.          E   Q        Q      
---------------------------|------------------------------12-----|
--17g17------17~--L--------|-----14----------16---L----15g15b----|
---------------------------|--16g16b------18g18b--L--------------|
---------------------------|-------------------------------------|
---------------------------|-------------------------------------|
---------------------------|-------------------------------------|


      W                    E      Q       E   S     S  S     S  E      S  S  
-----14-----------------|--L--17g17br----17--17pbr-17-17pbr-17-17pbr--17-14-|
--17g17b----------------|--L------------------------------------------------|
------------------------|---------------------------------------------------|
------------------------|---------------------------------------------------|
------------------------|---------------------------------------------------|
------------------------|---------------------------------------------------|


      W                   E      Q      E   S  S  S  S     E     S  S  
-----------------------|-----16g16b----16--21-20-19-17-19g19br--19-17-|
--17g17----------------|----------------------------------------------|
-----------------------|----------------------------------------------|
-----------------------|----------------------------------------------|
-----------------------|----------------------------------------------|
-----------------------|----------------------------------------------|


      W                   W                       Q.       E   Q        Q      
-----------------------|-------------------|--21g21b------21b--L----21g21b----|
--19g19----------------|--L----------------|----------------------------------|
-----------------------|-------------------|----------------------------------|
-----------------------|-------------------|----------------------------------|
-----------------------|-------------------|----------------------------------|
-----------------------|-------------------|----------------------------------|


  Q     Q         Q.       E      E      Q     E   H          
--L----21b----21g21b------21b--|--L--21g21b----L--21b--------|
-------------------------------|-----------------------------|
-------------------------------|-----------------------------|
-------------------------------|-----------------------------|
-------------------------------|-----------------------------|
-------------------------------|-----------------------------|


  W                     W                    W                 
--7b----------------|--14~----------------|--L----------------|
--------------------|---------------------|-------------------|
--------------------|---------------------|-------------------|
--------------------|---------------------|-------------------|
--------------------|---------------------|-------------------|
--------------------|---------------------|-------------------|




						=================================

							6. RISE

						=================================


Tune your guitar to EB



      Q    Q    Q    Q       S S S S Q    S S S S Q     
D#||----------------------|----------------------------|
A#||----------------------|----------------------------|
F#||----------------------|----------5------------5----|
C#||----------------------|----------3------------3----|
G#||----------------------|----------------------------|
D#||----------------------|--1-1-1-1------1-1-1-1------|


  S S S S Q    S S S S Q       S S S S Q    S S S S Q     
----------------------------|----------------------------|
----------------------------|----------------------------|
----------5------------5----|----------5------------5----|
----------3------------3----|----------3------------3----|
----------------------------|----------------------------|
--1-1-1-1------1-1-1-1------|--1-1-1-1------1-1-1-1------|


  S S S S Q    S S S S Q       S S S S Q    S S S S Q     
----------------------------|----------------------------|
----------------------------|----------------------------|
----------5------------5----|----------------------------|
----------3------------3----|----------------------------|
----------------------------|----------5------------5----|
--1-1-1-1------1-1-1-1------|--4-4-4-4-4----4-4-4-4-4----|


  S S S S Q    S S S S Q       S S S S Q    S S S S Q     
----------------------------|----------------------------|
----------------------------|----------------------------|
----------------------------|----------------------------|
----------------------------|----------------------------|
----------5------------5----|----------5------------5----|
--4-4-4-4-4----4-4-4-4-4----|--4-4-4-4-4----4-4-4-4-4----|


  S S S S Q    S S S S Q       S S S S Q    S S S S Q     
----------------------------|----------------------------|
----------------------------|----------------------------|
----------------------------|----------------------------|
----------------------------|----------7------------7----|
----------5------------5----|----------5------------5----|
--4-4-4-4-4----4-4-4-4-4----|--6-6-6-6-6----6-6-6-6-6----|


  S S S S Q    S S S S Q       S S S S Q    S S S S Q     
----------------------------|----------------------------|
----------------------------|----------------------------|
----------------------------|----------------------------|
----------7------------7----|----------7------------7----|
----------5------------5----|----------5------------5----|
--6-6-6-6-6----6-6-6-6-6----|--6-6-6-6-6----6-6-6-6-6----|


  S S S S Q    S S S S Q       S S S S Q    S S S S Q     
----------------------------|----------------------------|
----------------------------|----------------------------|
----------------------------|----------------------------|
----------7------------7----|----------------------------|
----------5------------5----|----------9------------9----|
--6-6-6-6-6----6-6-6-6-6----|--8-8-8-8-8----8-8-8-8-8----|


  S S S S Q    S S S S Q       S S S S S S S S S S S S S S S S  
----------------------------|----------------------------------|
----------------------------|----------------------------------|
----------------------------|----------------------------------|
----------------------------|----------------------------------|
----------9------------9----|--9-------9-------9-------9-------|
--8-8-8-8-8----8-8-8-8-8----|--7-7-7-7-8-8-8-8-7-7-7-7-8-8-8-8-|


         Pick scrapes                                              
  Q.     S            S S S S S S S S S    Q    E  E  E  Q    E    
----------------------------------------|-------------------------|
----------------------------------------|-------------------------|
----------------------------------------|-------------------------|
---------9------------8-7-6-5-4-3-2-1-0-|--5----------5--3----3S--|
--9------9------------8-7-6-5-4-3-2-1-0-|--5----x--x--5--3----3S--|
--7---------------------L---------------|--3----x--x--3--1----1S--|


  Q    E  E  E  Q    E      Q    E  E  E  Q    E      H        H         
-------------------------|-------------------------|--------------------|
-------------------------|-------------------------|--------------------|
-------------------------|-------------------------|--------------------|
--5----------5--3----3S--|--5----------5--3----3S--|--5--------6--------|
--5----x--x--5--3----3S--|--5----x--x--5--3----3S--|--5--------6--------|
--3----x--x--3--1----1S--|--3----x--x--3--1----1S--|--3--------4--------|


  Q    E  E  E  Q    E      Q    E  E  E  Q    E      Q    E  E  E  Q    E    
-------------------------|-------------------------|-------------------------|
-------------------------|-------------------------|-------------------------|
-------------------------|-------------------------|-------------------------|
--5----------5--3----3S--|--5----------5--3----3S--|--5----------5--3----3S--|
--5----x--x--5--3----3S--|--5----x--x--5--3----3S--|--5----x--x--5--3----3S--|
--3----x--x--3--1----1S--|--3----x--x--3--1----1S--|--3----x--x--3--1----1S--|


  H        H           E  E  E  Q    Q    E     E  Q.     E  E  E  E   
--------------------|------------------------|------------------------|
--------------------|------------------------|------------------------|
--------------------|------------------------|------------------------|
--5--------6--------|------------------------|------------------------|
--5--------6--------|--1--1--1-------1----1--|--1---------1--1--1-----|
--3--------4--------|--3--3--0-------3----3--|--0---------3--3--0-----|


  E  E  E  Q    Q    E     E  Q.     E  E  E  E     Q    E  E  Q    E  E   
------------------------|------------------------|------------------------|
------------------------|------------------------|------------------------|
------------------------|------------------------|------------------------|
------------------------|------------------------|------------------------|
--1--1--1-------1----1--|--1---------1--1--1-----|-------2--2--2-------2--|
--3--3--0-------3----3--|--0---------3--3--0-----|-------0--0--3-------0--|


  E  E  E  E  E  E  E  E     E  E  E  Q    E  E  E     H           E  Q.      
--------------------------|-------------------------|-----------|------------|
--------------------------|-------------------------|-----------|------------|
--------------------------|-------------------------|-----------|--4---------|
--------------------------|-------------------------|-----------|--4--3------|
--L--2--2-----2--2--2-----|--1--1--2-------1--1--2--|-----------|--2--3------|
--L--0--3-----0--0--3-----|--3--3--0-------3--3--0--|-----------|-----1------|


  E  E  E  Q    Q    E     E  Q.     E  E  E  E     E  E  E  Q    Q    E   
------------------------|------------------------|------------------------|
------------------------|------------------------|------------------------|
------------------------|------------------------|------------------------|
------------------------|------------------------|------------------------|
--1--1--1-------1----1--|--1---------1--1--1-----|--1--1--1-------1----1--|
--3--3--0-------3----3--|--0---------3--3--0-----|--3--3--0-------3----3--|


  E  Q.     E  E  E  E     Q    E  E  Q    E  E     E  E  E  E  E  E  E  E   
------------------------|------------------------|--------------------------|
------------------------|------------------------|--------------------------|
------------------------|------------------------|--------------------------|
------------------------|------------------------|--------------------------|
--1---------1--1--1-----|-------2--2--2-------2--|--L--2--2-----2--2--2-----|
--0---------3--3--0-----|-------0--0--3-------0--|--L--0--3-----0--0--3-----|


  E  E  E  Q    E  E  E     E  Q    E  E  Q.        E  E  E  Q    Q    E   
-------------------------|-----------------------|------------------------|
-------------------------|-----------------------|------------------------|
-------------------------|-----4----4--5---------|------------------------|
-------------------------|--3--4----4--5--3------|------------------------|
--1--1--2-------1--1--2--|--3--2----2--3--3------|--1--1--1-------1----1--|
--3--3--0-------3--3--0--|--1-------------1------|--3--3--0-------3----3--|


  E  Q.     E  E  E  E     E  E  E  Q    Q    E     E  Q.     E  E  E  E   
------------------------|------------------------|------------------------|
------------------------|------------------------|------------------------|
------------------------|------------------------|------------------------|
------------------------|------------------------|------------------------|
--1---------1--1--1-----|--1--1--1-------1----1--|--1---------1--1--1-----|
--0---------3--3--0-----|--3--3--0-------3----3--|--0---------3--3--0-----|


  Q    E  E  Q    E  E     E  E  E  E  E  E  E  E     E  E  E  Q    E  E  E   
------------------------|--------------------------|-------------------------|
------------------------|--------------------------|-------------------------|
------------------------|--------------------------|-------------------------|
------------------------|--------------------------|-------------------------|
-------2--2--2-------2--|--L--2--2-----2--2--2-----|--1--1--2-------1--1--2--|
-------0--0--3-------0--|--L--0--3-----0--0--3-----|--3--3--0-------3--3--0--|


  PM PM PM PM                                                                
  E  E  E  E  E  Q.        Q    E  E  E  Q    E      Q    E  E  E  Q    E    
------------------------|-------------------------|-------------------------|
------------------------|-------------------------|-------------------------|
--------------4---------|-------------------------|-------------------------|
--------------4--3------|--5----------5--3----3S--|--5----------5--3----3S--|
--3--3--3--3--2--3------|--5----x--x--5--3----3S--|--5----x--x--5--3----3S--|
--1--1--1--1-----1------|--3----x--x--3--1----1S--|--3----x--x--3--1----1S--|


  Q    E  E  E  Q    E      H        H           Q    E  E  E  Q    E    
-------------------------|--------------------|-------------------------|
-------------------------|--------------------|-------------------------|
-------------------------|--------------------|-------------------------|
--5----------5--3----3S--|--5--------6--------|--5----------5--3----3S--|
--5----x--x--5--3----3S--|--5--------6--------|--5----x--x--5--3----3S--|
--3----x--x--3--1----1S--|--3--------4--------|--3----x--x--3--1----1S--|


  Q    E  E  E  Q    E      Q    E  E  E  Q    E      H        H         
-------------------------|-------------------------|--------------------|
-------------------------|-------------------------|--------------------|
-------------------------|-------------------------|--------------------|
--5----------5--3----3S--|--5----------5--3----3S--|--5--------6--------|
--5----x--x--5--3----3S--|--5----x--x--5--3----3S--|--5--------6--------|
--3----x--x--3--1----1S--|--3----x--x--3--1----1S--|--3--------4--------|


  S S S S Q    S S S S Q       S S S S Q    S S S S Q     
----------------------------|----------------------------|
----------------------------|----------------------------|
----------5------------5----|----------5------------5----|
----------3------------3----|----------3------------3----|
----------------------------|----------------------------|
--1-1-1-1------1-1-1-1------|--1-1-1-1------1-1-1-1------|


  S S S S Q    S S S S Q       S S S S Q    S S S S Q     
----------------------------|----------------------------|
----------------------------|----------------------------|
----------5------------5----|----------5------------5----|
----------3------------3----|----------3------------3----|
----------------------------|----------------------------|
--1-1-1-1------1-1-1-1------|--1-1-1-1------1-1-1-1------|


  S S S S Q    S S S S Q       S S S S Q    S S S S Q     
----------------------------|----------------------------|
----------------------------|----------------------------|
----------------------------|----------------------------|
----------------------------|----------------------------|
----------5------------5----|----------5------------5----|
--4-4-4-4-4----4-4-4-4-4----|--4-4-4-4-4----4-4-4-4-4----|


  S S S S Q    S S S S Q       S S S S Q    S S S S Q     
----------------------------|----------------------------|
----------------------------|----------------------------|
----------------------------|----------------------------|
----------------------------|----------------------------|
----------5------------5----|----------5------------5----|
--4-4-4-4-4----4-4-4-4-4----|--4-4-4-4-4----4-4-4-4-4----|


  S S S S Q    S S S S Q       S S S S Q    S S S S Q     
----------------------------|----------------------------|
----------------------------|----------------------------|
----------------------------|----------------------------|
----------7------------7----|----------7------------7----|
----------5------------5----|----------5------------5----|
--6-6-6-6-6----6-6-6-6-6----|--6-6-6-6-6----6-6-6-6-6----|


  S S S S Q    S S S S Q       S S S S Q    S S S S Q     
----------------------------|----------------------------|
----------------------------|----------------------------|
----------------------------|----------------------------|
----------7------------7----|----------7------------7----|
----------5------------5----|----------5------------5----|
--6-6-6-6-6----6-6-6-6-6----|--6-6-6-6-6----6-6-6-6-6----|


  S S S S Q    S S S S Q       S S S S Q    S S S S Q     
----------------------------|----------------------------|
----------------------------|----------------------------|
----------------------------|----------------------------|
----------------------------|----------------------------|
----------9------------9----|----------9------------9----|
--8-8-8-8-8----8-8-8-8-8----|--8-8-8-8-8----8-8-8-8-8----|


                                     Pick scrapes                
  S S S S S S S S S S S S S S S S    S            S S S S S S S  
----------------------------------|-----------------------------|
----------------------------------|-----------------------------|
----------------------------------|-----------------------------|
----------------------------------|--7------------6-5-4-3-2-1-0-|
--9-------9-------9-------9-------|--7------------6-5-4-3-2-1-0-|
--7-7-7-7-8-8-8-8-7-7-7-7-8-8-8-8-|-----------------------------|


  PM PM    PM               PM PM    PM               PM PM    PM             
  E  E  E  E  E  Q.         E  E  E  E  E  Q.         E  E  E  E  E  Q.       
-------------------------|-------------------------|-------------------------|
-------------------------|-------------------------|-------------------------|
-------------------------|-------------------------|-------------------------|
-----------------2~------|-----------------2~------|-----------------2~------|
--3--3-----3-------------|--3--3-----3-------------|--3--3-----3-------------|
--1--1-----1-------------|--1--1-----1-------------|--1--1-----1-------------|


  PM PM    PM                                                               
  E  E  E  E  E  Q.         E  E  E  Q    Q    E     E  Q.     E  E  E  E   
-------------------------|------------------------|------------------------|
-------------------------|------------------------|------------------------|
-------------------------|------------------------|------------------------|
-----------------2~------|------------------------|------------------------|
--3--3-----3-------------|--1--1--1-------1----1--|--1---------1--1--1-----|
--1--1-----1-------------|--3--3--0-------3----3--|--0---------3--3--0-----|


  E  E  E  Q    Q    E     E  Q    E  Q    E  E     E  E  Q    E  Q.      
------------------------|------------------------|-----------------------|
------------------------|------------------------|-----------------------|
------------------------|-----3-------4-------3--|--L-----3----4---------|
------------------------|--x--3----x--4----x--3--|--L--x--3----4--3------|
--1--1--1-------1----1--|--x--1----x--2----x--1--|--L--x--1----2--3------|
--3--3--0-------3----3--|--x-------x-------x-----|-----x----------1------|


  Q    Q    Q    Q       E  E  E  Q    Q    E     E  Q.     E  E  E  E   
----------------------|------------------------|------------------------|
----------------------|------------------------|------------------------|
----------------------|------------------------|------------------------|
-----------------L----|------------------------|------------------------|
-----------------L----|--1--1--1-------1----1--|--1---------1--1--1-----|
-----------------L----|--3--3--0-------3----3--|--0---------3--3--0-----|


  E  E  E  Q    Q    E     E  Q.     E  E  E  E     Q    E  E  Q    E  E   
------------------------|------------------------|------------------------|
------------------------|------------------------|------------------------|
------------------------|------------------------|------------------------|
------------------------|------------------------|------------------------|
--1--1--1-------1----1--|--1---------1--1--1-----|-------2--2--2-------2--|
--3--3--0-------3----3--|--0---------3--3--0-----|-------0--0--3-------0--|


  E  E  E  E  E  E  E  E     E  E  E  Q    E  E  E     E  Q    E  E  Q.      
--------------------------|-------------------------|-----------------------|
--------------------------|-------------------------|-----------------------|
--------------------------|-------------------------|-----4----4--5---------|
--------------------------|-------------------------|--3--4----4--5--3------|
--L--2--2-----2--2--2-----|--1--1--2-------1--1--2--|--3--2----2--3--3------|
--L--0--3-----0--0--3-----|--3--3--0-------3--3--0--|--1-------------1------|


  E  E  E  Q    Q    E     E  Q.     E  E  E  E     E  E  E  Q    Q    E   
------------------------|------------------------|------------------------|
------------------------|------------------------|------------------------|
------------------------|------------------------|------------------------|
------------------------|------------------------|------------------------|
--1--1--1-------1----1--|--1---------1--1--1-----|--1--1--1-------1----1--|
--3--3--0-------3----3--|--0---------3--3--0-----|--3--3--0-------3----3--|


  E  Q.     E  E  E  E     Q    E  E  Q    E  E     E  E  E  E  E  E  E  E   
------------------------|------------------------|--------------------------|
------------------------|------------------------|--------------------------|
------------------------|------------------------|--------------------------|
------------------------|------------------------|--------------------------|
--1---------1--1--1-----|-------2--2--2-------2--|--L--2--2-----2--2--2-----|
--0---------3--3--0-----|-------0--0--3-------0--|--L--0--3-----0--0--3-----|


                            PM PM PM PM                                      
  E  E  E  Q    E  E  E     E  E  E  E  E  Q.        Q    E  E  E  Q    E    
-------------------------|------------------------|-------------------------|
-------------------------|------------------------|-------------------------|
-------------------------|--------------4---------|-------------------------|
-------------------------|--------------4--3------|--5----------5--3----3S--|
--1--1--2-------1--1--2--|--3--3--3--3--2--3------|--5----x--x--5--3----3S--|
--3--3--0-------3--3--0--|--1--1--1--1-----1------|--3----x--x--3--1----1S--|


  Q    E  E  E  Q    E      Q    E  E  E  Q    E      H        H         
-------------------------|-------------------------|--------------------|
-------------------------|-------------------------|--------------------|
-------------------------|-------------------------|--------------------|
--5----------5--3----3S--|--5----------5--3----3S--|--5--------6--------|
--5----x--x--5--3----3S--|--5----x--x--5--3----3S--|--5--------6--------|
--3----x--x--3--1----1S--|--3----x--x--3--1----1S--|--3--------4--------|


  Q    E  E  E  Q    E      Q    E  E  E  Q    E      Q    E  E  E  Q    E    
-------------------------|-------------------------|-------------------------|
-------------------------|-------------------------|-------------------------|
-------------------------|-------------------------|-------------------------|
--5----------5--3----3S--|--5----------5--3----3S--|--5----------5--3----3S--|
--5----x--x--5--3----3S--|--5----x--x--5--3----3S--|--5----x--x--5--3----3S--|
--3----x--x--3--1----1S--|--3----x--x--3--1----1S--|--3----x--x--3--1----1S--|


  H        H           S S S S Q    S S S S Q       S S S S Q    S S S S Q     
--------------------|----------------------------|----------------------------|
--------------------|----------------------------|----------------------------|
--------------------|----------5------------5----|----------5------------5----|
--5--------6--------|----------3------------3----|----------3------------3----|
--5--------6--------|----------------------------|----------------------------|
--3--------4--------|--1-1-1-1------1-1-1-1------|--1-1-1-1------1-1-1-1------|


  S S S S Q    S S S S Q       S S S S Q    S S S S Q     
----------------------------|----------------------------|
----------------------------|----------------------------|
----------5------------5----|----------5------------5----|
----------3------------3----|----------3------------3----|
----------------------------|----------------------------|
--1-1-1-1------1-1-1-1------|--1-1-1-1------1-1-1-1------|


  S S S S Q    S S S S Q       S S S S Q    S S S S Q     
----------------------------|----------------------------|
----------------------------|----------------------------|
----------------------------|----------------------------|
----------------------------|----------------------------|
----------5------------5----|----------5------------5----|
--4-4-4-4-4----4-4-4-4-4----|--4-4-4-4-4----4-4-4-4-4----|


  S S S S Q    S S S S Q       S S S S Q    S S S S Q     
----------------------------|----------------------------|
----------------------------|----------------------------|
----------------------------|----------------------------|
----------------------------|----------------------------|
----------5------------5----|----------5------------5----|
--4-4-4-4-4----4-4-4-4-4----|--4-4-4-4-4----4-4-4-4-4----|


  S S S S Q    S S S S Q       S S S S Q    S S S S Q     
----------------------------|----------------------------|
----------------------------|----------------------------|
----------------------------|----------------------------|
----------7------------7----|----------7------------7----|
----------5------------5----|----------5------------5----|
--6-6-6-6-6----6-6-6-6-6----|--6-6-6-6-6----6-6-6-6-6----|


  S S S S Q    S S S S Q       S S S S Q    S S S S Q     
----------------------------|----------------------------|
----------------------------|----------------------------|
----------------------------|----------------------------|
----------7------------7----|----------7------------7----|
----------5------------5----|----------5------------5----|
--6-6-6-6-6----6-6-6-6-6----|--6-6-6-6-6----6-6-6-6-6----|


  S S S S Q    S S S S Q       S S S S Q    S S S S Q     
----------------------------|----------------------------|
----------------------------|----------------------------|
----------------------------|----------------------------|
----------------------------|----------------------------|
----------9------------9----|----------9------------9----|
--8-8-8-8-8----8-8-8-8-8----|--8-8-8-8-8----8-8-8-8-8----|


                                     Pick scrapes                
  S S S S S S S S S S S S S S S S    S            S S S S S S S  
----------------------------------|-----------------------------|
----------------------------------|-----------------------------|
----------------------------------|-----------------------------|
----------------------------------|--7------------6-5-4-3-2-1-0-|
--9-------9-------9-------9-------|--7------------6-5-4-3-2-1-0-|
--7-7-7-7-8-8-8-8-7-7-7-7-8-8-8-8-|-----------------------------|


  PM PM    PM               PM PM    PM               PM PM    PM             
  E  E  E  E  E  Q.         E  E  E  E  E  Q.         E  E  E  E  E  Q.       
-------------------------|-------------------------|-------------------------|
-------------------------|-------------------------|-------------------------|
-------------------------|-------------------------|-------------------------|
-----------------2~------|-----------------2~------|-----------------2~------|
--3--3-----3-------------|--3--3-----3-------------|--3--3-----3-------------|
--1--1-----1-------------|--1--1-----1-------------|--1--1-----1-------------|


  PM PM    PM                                              
  E  E  E  E  E  Q.          Q     E   E   E   E   E   E   
-------------------------|--------------------------------|
-------------------------|--------------------------------|
-------------------------|--12----12--12--12--12--12--12--|
-----------------2~------|--15----15--15--15--15--15--14--|
--3--3-----3-------------|--------------------------------|
--1--1-----1-------------|--------------------------------|


   Q     E   E   E   E   E   E     Q     E   E   E   E   E   E     
--------------------------------|---------------------------------|
----------------------------11--|--L----11--11--11--11--11--------|
---L----12--12--12--12--12--12--|--L----12--12--12--12--12--12b~--|
---L----14--14--14--14--14------|---------------------------------|
--------------------------------|---------------------------------|
--------------------------------|---------------------------------|


   Q    Q    Q    Q        Q     E   E   E   E   E   E   
-----------------------|--------------------------------|
-----------------------|--------------------------------|
---L----L----L----L----|--12----12--12--12--12--12--12--|
-----------------------|--15----15--15--15--15--15--14--|
-----------------------|--------------------------------|
-----------------------|--------------------------------|


  Q     E   E   E   E   E   E     Q     E   E   E   E   E   E    
-------------------------------|---------------------------15b--|
---------------------------11--|--L----11--11--11--11--11---x---|
--L----12--12--12--12--12--12--|--L----12--12--12--12--12--12b--|
--L----14--14--14--14--14------|--------------------------------|
-------------------------------|--------------------------------|
-------------------------------|--------------------------------|


  Q    Q    Q    Q        Q      Q     S  S  S  S  S  S  S  S  
-----------------L----|---------------------------------------|
----------------------|---------------------------------------|
-----------------L----|--10s----12----14-15-12-14-15-17-15-14-|
----------------------|---------------------------------------|
----------------------|---------------------------------------|
----------------------|---------------------------------------|


   S  S  S  S  S  S  S  S  S  S  S  S  S  S  S  S  
-----------------19-19-16-15-19-19-16-15----------|
-----------------------------------------18-16-15-|
--15-17-19-17-15----------------------------------|
--------------------------------------------------|
--------------------------------------------------|
--------------------------------------------------|


   S  S  S  S  S  S  S  S  S  S  S  S  S  S  S  S     E   E   H.            
--------------------------------------------------|------------------------|
--10-11-12-11-12-13-12-13-14-13-14-15-15-15-15-14-|--12--12--15------------|
--------------------------------------------------|------------------------|
--------------------------------------------------|------------------------|
--------------------------------------------------|------------------------|
--------------------------------------------------|------------------------|


   \2/                  \1/                                               
   Q     Q      E   E   Q         S   S   E   S   S   E   S   S   Q.      
-------------------13---------|------------------------------------------|
--15----14b----15------14b----|--13h-14p-13--12h-13p-12------------------|
------------------------------|--------------------------12h-13p-12------|
------------------------------|------------------------------------------|
------------------------------|------------------------------------------|
------------------------------|------------------------------------------|


   W                     H         H              Q     E   E   Q     E   E   
---------------------|-----------------------|--/10-----L--10--------10------|
---------------------|-----------------------|--/12------------12--------12--|
--12b----------------|---L-------------------|-------------------------------|
---x-----------------|-----------------------|-------------------------------|
--10b----------------|---L--------10\--------|-------------------------------|
---------------------|------------10\--------|-------------------------------|


   E   E   E   E   E   Q      S  S  
--10------10-----------------14-15-|
------12------12--10--10b----------|
-----------------------------------|
-----------------------------------|
-----------------------------------|
-----------------------------------|


   S  S  S  S  S  S  S  S  S  S  S  S  S  S  S  S  
--17-15-14-12-15-14-12----14-12-------12----------|
-----------------------15-------15-14----15-14-12-|
--------------------------------------------------|
--------------------------------------------------|
--------------------------------------------------|
--------------------------------------------------|


   S  S  S  S  S  S  S  S  H              Q       E   E   E   Q.      
--------------------------------------|--15~---------15--14--12------|
--15-14-12----14-12-------------------|---x---------------x---x------|
-----------14-------14-12-14b~--------|--12br-----L--12--11---9------|
--------------------------------------|------------------------------|
--------------------------------------|------------------------------|
--------------------------------------|------------------------------|


   Q       E   E   E   Q.         Q     Q     E   Q     E   
--15----------15--14--12------|----------------------------|
---x-----------x---x---x------|----------------------------|
--12br-----L--12--11---9------|--12----12----12--12----12--|
------------------------------|--12----12----12--12----12--|
------------------------------|----------------------------|
------------------------------|----------------------------|


  E   Q     E   Q     Q         Q      S  S  S  S  Q      S  S  S  S  
----------------------------|--22b----22-22-22-22-22b----22-22-22-22-|
----------------------------|----------------------------------------|
-----12----12--12-----------|----------------------------------------|
-----12----12--12-----------|----------------------------------------|
----------------------------|----------------------------------------|
---------------------12\----|----------------------------------------|


          |----3----|                       
   Q      E    E    E   Q      S  S   S  S  
--22b----15h--17p--15----------------------|
-----------------------17~----17-15s-17-17-|
-------------------------------------------|
-------------------------------------------|
-------------------------------------------|
-------------------------------------------|


   S   S  S  S  S   S  E   S  S  S  S  S  S  S  S  
--------------------------12-15-12-14-12----12-15-|
--15s-17-17-17-15S-17-15-----------------15-------|
--------------------------------------------------|
--------------------------------------------------|
--------------------------------------------------|
--------------------------------------------------|


   S  S  S  S  S  S  S  S  S  S  S  S  S  S  S  S    Q       Q       H          
--12-14----12-------------------------------------|----------------------------|
--------15----15-14-12----14-12-------12----------|--9b~----11b~----12~--------|
-----------------------14-------14-12----14-12----|----------------------------|
-----------------------------------------------14-|----------------------------|
--------------------------------------------------|----------------------------|
--------------------------------------------------|----------------------------|


  Q     H           Q          Q     Q     E   Q     E   
-------15b--------(15)\----|----------------------------|
--L----17b--------(17)\----|----------------------------|
---------------------------|--12----12----12--12----12--|
---------------------------|--12----12----12--12----12--|
---------------------------|----------------------------|
---------------------------|----------------------------|


  E   Q     E   Q     Q        E  E  E  E  E  E  E  E   
----------------------------|--------------------------|
----------------------------|--------------------------|
-----12----12--12-----------|--------------------------|
-----12----12--12-----------|--------------------------|
----------------------------|--------------------------|
---------------------12\----|--1--1--1--1--1--1--1--1--|


  E  E  E  E  E  E  E  E      Q     Q     E   Q     E   
--------------------------|----------------------------|
--------------------------|----------------------------|
--------------------------|--12----12----12--12----12--|
--------------------------|--12----12----12--12----12--|
--------------------------|----------------------------|
--1--1--1--1--1--1--1--1--|----------------------------|


  E   Q     E   Q     Q        E  E  E  E  E  E  E  E   
----------------------------|--------------------------|
----------------------------|--------------------------|
-----12----12--12-----------|--------------------------|
-----12----12--12-----------|--------------------------|
----------------------------|--------------------------|
---------------------12\----|--1--1--1--1--1--1--1--1--|


  E  E  E  E  E  E  E  E      Q     Q     E   Q     E   
--------------------------|----------------------------|
--------------------------|----------------------------|
--------------------------|--12----12----12--12----12--|
--------------------------|--12----12----12--12----12--|
--------------------------|----------------------------|
--1--1--1--1--1--1--1--1--|----------------------------|


  E   Q     E   Q     Q        E  E  E  E  E  E  E  E   
----------------------------|--------------------------|
----------------------------|--------------------------|
-----12----12--12-----------|--------------------------|
-----12----12--12-----------|--------------------------|
----------------------------|--------------------------|
---------------------12\----|--1--1--1--1--1--1--1--1--|


  E  E  E  E  E  E  E  E      Q     Q     E   Q     E   
--------------------------|----------------------------|
--------------------------|----------------------------|
--------------------------|--12----12----12--12----12--|
--------------------------|--12----12----12--12----12--|
--------------------------|----------------------------|
--1--1--1--1--1--1--1--1--|----------------------------|


  E   Q     E   Q     Q        E  E  E  E  E  E  E  E   
----------------------------|--------------------------|
----------------------------|--------------------------|
-----12----12--12-----------|--------------------------|
-----12----12--12-----------|--------------------------|
----------------------------|--------------------------|
---------------------12\----|--1--1--1--1--1--1--1--1--|


  E  E  E  E  E  E  E  E      Q     Q     E   Q     E   
--------------------------|----------------------------|
--------------------------|----------------------------|
--------------------------|--12----12----12--12----12--|
--------------------------|--12----12----12--12----12--|
--------------------------|----------------------------|
--1--1--1--1--1--1--1--1--|----------------------------|


  E   Q     E   Q     Q         Q     Q     E   Q     E   
----------------------------|----------------------------|
----------------------------|----------------------------|
-----12----12--12-----------|--12----12----12--12----12--|
-----12----12--12-----------|--12----12----12--12----12--|
----------------------------|----------------------------|
---------------------12\----|----------------------------|


  E   Q     E   Q     Q        Q    E  E  E  Q    E    
----------------------------|-------------------------|
----------------------------|-------------------------|
-----12----12--12-----------|-------------------------|
-----12----12--12-----------|--5----------5--3----3S--|
----------------------------|--5----x--x--5--3----3S--|
---------------------12\----|--3----x--x--3--1----1S--|


  Q    E  E  E  Q    E      Q    E  E  E  Q    E      H        H         
-------------------------|-------------------------|--------------------|
-------------------------|-------------------------|--------------------|
-------------------------|-------------------------|--------------------|
--5----------5--3----3S--|--5----------5--3----3S--|--5--------6--------|
--5----x--x--5--3----3S--|--5----x--x--5--3----3S--|--5--------6--------|
--3----x--x--3--1----1S--|--3----x--x--3--1----1S--|--3--------4--------|


  Q    E  E  E  Q    E      Q    E  E  E  Q    E      Q    E  E  E  Q    E    
-------------------------|-------------------------|-------------------------|
-------------------------|-------------------------|-------------------------|
-------------------------|-------------------------|-------------------------|
--5----------5--3----3S--|--5----------5--3----3S--|--5----------5--3----3S--|
--5----x--x--5--3----3S--|--5----x--x--5--3----3S--|--5----x--x--5--3----3S--|
--3----x--x--3--1----1S--|--3----x--x--3--1----1S--|--3----x--x--3--1----1S--|


  H        H           S S S S Q    S S S S Q       S S S S Q    S S S S Q     
--------------------|----------------------------|----------------------------|
--------------------|----------------------------|----------------------------|
--------------------|----------5------------5----|----------5------------5----|
--5--------6--------|----------3------------3----|----------3------------3----|
--5--------6--------|----------------------------|----------------------------|
--3--------4--------|--1-1-1-1------1-1-1-1------|--1-1-1-1------1-1-1-1------|


  S S S S Q    S S S S Q       S S S S Q    S S S S Q     
----------------------------|----------------------------|
----------------------------|----------------------------|
----------5------------5----|----------5------------5----|
----------3------------3----|----------3------------3----|
----------------------------|----------------------------|
--1-1-1-1------1-1-1-1------|--1-1-1-1------1-1-1-1------|


  S S S S Q    S S S S Q       S S S S Q    S S S S Q     
----------------------------|----------------------------|
----------------------------|----------------------------|
----------------------------|----------------------------|
----------------------------|----------------------------|
----------5------------5----|----------5------------5----|
--4-4-4-4-4----4-4-4-4-4----|--4-4-4-4-4----4-4-4-4-4----|


  S S S S Q    S S S S Q       S S S S Q    S S S S Q     
----------------------------|----------------------------|
----------------------------|----------------------------|
----------------------------|----------------------------|
----------------------------|----------------------------|
----------5------------5----|----------5------------5----|
--4-4-4-4-4----4-4-4-4-4----|--4-4-4-4-4----4-4-4-4-4----|


  S S S S Q    S S S S Q       S S S S Q    S S S S Q     
----------------------------|----------------------------|
----------------------------|----------------------------|
----------------------------|----------------------------|
----------7------------7----|----------7------------7----|
----------5------------5----|----------5------------5----|
--6-6-6-6-6----6-6-6-6-6----|--6-6-6-6-6----6-6-6-6-6----|


  S S S S Q    S S S S Q       S S S S Q    S S S S Q     
----------------------------|----------------------------|
----------------------------|----------------------------|
----------------------------|----------------------------|
----------7------------7----|----------7------------7----|
----------5------------5----|----------5------------5----|
--6-6-6-6-6----6-6-6-6-6----|--6-6-6-6-6----6-6-6-6-6----|


  S S S S Q    S S S S Q       S S S S Q    S S S S Q     
----------------------------|----------------------------|
----------------------------|----------------------------|
----------------------------|----------------------------|
----------------------------|----------------------------|
----------9------------9----|----------9------------9----|
--8-8-8-8-8----8-8-8-8-8----|--8-8-8-8-8----8-8-8-8-8----|


                                     Pick scrapes                
  S S S S S S S S S S S S S S S S    S            S S S S S S S  
----------------------------------|-----------------------------|
----------------------------------|-----------------------------|
----------------------------------|-----------------------------|
----------------------------------|--7------------6-5-4-3-2-1-0-|
--9-------9-------9-------9-------|--7------------6-5-4-3-2-1-0-|
--7-7-7-7-8-8-8-8-7-7-7-7-8-8-8-8-|-----------------------------|


  PM PM    PM               PM PM    PM               PM PM    PM             
  E  E  E  E  E  Q.         E  E  E  E  E  Q.         E  E  E  E  E  Q.       
-------------------------|-------------------------|-------------------------|
-------------------------|-------------------------|-------------------------|
-------------------------|-------------------------|-------------------------|
-----------------2~------|-----------------2~------|-----------------2~------|
--3--3-----3-------------|--3--3-----3-------------|--3--3-----3-------------|
--1--1-----1-------------|--1--1-----1-------------|--1--1-----1-------------|


  PM PM    PM                                                               
  E  E  E  E  E  Q.         E  E  E  Q    Q    E     E  Q.     E  E  E  E   
-------------------------|------------------------|------------------------|
-------------------------|------------------------|------------------------|
-------------------------|------------------------|------------------------|
-----------------2~------|------------------------|------------------------|
--3--3-----3-------------|--1--1--1-------1----1--|--1---------1--1--1-----|
--1--1-----1-------------|--3--3--0-------3----3--|--0---------3--3--0-----|


  E  E  E  Q    Q    E     E  Q.     E  E  E  E     E  E  E  Q    Q    E   
------------------------|------------------------|------------------------|
------------------------|------------------------|------------------------|
------------------------|------------------------|------------------------|
------------------------|------------------------|------------------------|
--1--1--1-------1----1--|--1---------1--1--1-----|--1--1--1-------1----1--|
--3--3--0-------3----3--|--0---------3--3--0-----|--3--3--0-------3----3--|


  E  Q.     E  E  E  E     E  E  E  Q    E  E  E          
------------------------|-------------------------|-----||
------------------------|-------------------------|-----||
------------------------|-------------------------|-----||
------------------------|-------------------------|-----||
--1---------1--1--1-----|--1--1--1-------1--1--1--|-----||
--0---------3--3--0-----|--3--3--0-------3--3--0--|-----||


						============================================

							7. NO GOOD (ATTACK THE RADICAL

						============================================


      E  E  E  E  E  E  Q        W                    E  E  E  E  E  E  Q      
D#||--------------------------|--------------------|--------------------------|
A#||--------------------------|--------------------|--------------------------|
F#||--------------------------|--------------------|--------------------------|
C#||-----------------0--3~----|--L~----------------|-----------------0--3~----|
G#||-----------2--3-----------|--------------------|-----------2--3-----------|
C#||--0--2--3-----------------|--------------------|--0--2--3-----------------|


                                   W    W           
  H          H            E  E  E  E    E  Q    E   
-----------------------|---------------------------|
-----------------------|---------------------------|
-----------------------|---------------------------|
--L~-------------------|---------------------------|
-----------------------|---------------------------|
------------15\--------|--0--3--5--3br--L--0----5--|


     W    W                                 W    W           
  E  E    E  E  S S  E  S S  E     E  E  E  E    E  Q    E   
--------------------------------|---------------------------|
--------------------------------|---------------------------|
--------------------------------|---------------------------|
--------------------------------|---------------------------|
----------------3-Ls-5--3-Ls-5--|---------------------------|
--3--3br--L--0------------------|--0--3--5--3br--L--0----5--|


     W    W                              W    W           
  E  E    E  E  E   E  Q        E  E  E  E    E  Q    E   
-----------------------------|---------------------------|
-----------------------------|---------------------------|
-----------------------------|---------------------------|
-----------------------------|---------------------------|
-----------------------------|---------------------------|
--3--3br--L--0--5b--L--3~----|--0--3--5--3br--L--0----3--|


        PM PM PM PM W                W    W           
  E  E  E  E  E  E  Q       E  E  E  E    E  Q    E   
-------------------------|---------------------------|
-------------------------|---------------------------|
-------------------------|---------------------------|
--------------------3----|---------------------------|
--------2--3--4--5-------|---------------------------|
--2--3-------------------|--0--3--5--3br--L--0----5--|


     W    W                              W    W           
  E  E    E  E  E   E  Q        E  E  E  E    E  Q    E   
-----------------------------|---------------------------|
-----------------------------|---------------------------|
-----------------------------|---------------------------|
-----------------------------|---------------------------|
-----------------------------|---------------------------|
--3--3br--L--0--5b--L--3~----|--0--3--5--3br--L--0----5--|


     W    W                                 W    W           
  E  E    E  E  S S  E  S S  E     E  E  E  E    E  Q    E   
--------------------------------|---------------------------|
--------------------------------|---------------------------|
--------------------------------|---------------------------|
--------------------------------|---------------------------|
----------------3-Ls-5--3-Ls-5--|---------------------------|
--3--3br--L--0------------------|--0--3--5--3br--L--0----5--|


     W    W                              W    W           
  E  E    E  E  E   E  Q        E  E  E  E    E  Q    E   
-----------------------------|---------------------------|
-----------------------------|---------------------------|
-----------------------------|---------------------------|
-----------------------------|---------------------------|
-----------------------------|---------------------------|
--3--3br--L--0--5b--L--3~----|--0--3--5--3br--L--0----3--|


        PM PM PM PM W                W    W           
  E  E  E  E  E  E  Q       E  E  E  E    E  Q    E   
-------------------------|---------------------------|
-------------------------|---------------------------|
-------------------------|---------------------------|
--------------------3----|---------------------------|
--------2--3--4--5-------|---------------------------|
--2--3-------------------|--0--3--5--3br--L--0----5--|


     W    W                          \6                                   
  E  E    E  E  E   E  Q        Q    H.              Q     H.             
-----------------------------|--------------------|----------------------|
-----------------------------|--------------------|----------------------|
-----------------------------|--------------------|----------------------|
-----------------------------|--------------------|----------------------|
-----------------------------|--------------------|----------------------|
--3--3br--L--0--5b--L--3~----|--1----L------------|--L----(1)------------|


                  /0 -/0                                          
  E  H.           S  S      W                   W                 
-------------------------|-------------------|-------------------|
-------------------------|-------------------|-------------------|
-------------------------|-------------------|-------------------|
-------------------------|-------------------|-------------------|
-------------------------|-------------------|-------------------|
-----L------------1--L---|-------------------|-------------------|


                                                          W     
  W                   W                   H        E   E  Q     
-------------------|-------------------|-----------------------|
-------------------|-------------------|-----------------------|
-------------------|-------------------|-----------------------|
-------------------|-------------------|-----------------------|
-------------------|-------------------|-----------------------|
-------------------|-------------------|-----------6h--7--3----|


                                                  PM PM  
    E  E  E  E  E  E  E  E     E  E  E  E  E   E  E  E   
|---------------------------|---------------------------|
|---------------------------|---------------------------|
|*--------------------------|---------------------------|
|*--1--1-----1--1-----1--1--|-----1--1-----3h--4--3--2--|
|---1--1-----1--1-----1--1--|-----1--1-----3---4--3--2--|
|---1--1-----1--1-----1--1--|-----1--1-----3h--4--3--2--|


                                                                         W     
  E  E  E  E  E  E  E  E     E  E  H        Q     4x  E  E  E  E  E   E  Q     
--------------------------|-----------------------||--------------------------|
--------------------------|-----------------------||--------------------------|
--------------------------|----------------------*||--------------------------|
--1--1-----1--1-----1--1--|-----1--5--------6----*||-----1--1-----------------|
--1--1-----1--1-----1--1--|-----1--5--------6-----||-----1--1-----------------|
--1--1-----1--1-----1--1--|-----1--5--------6-----||-----1--1-----6h--7--3----|


    S S  E  E  E  E  E  E  E     S S  E  E  E  E  E  E  E   
|-----------------------------|----------------------------|
|-----------------------------|----------------------------|
|*----------------------------|----------------------------|
|*--6-Ls-7-----7-----6-----6--|--6-Ls-7-----7-----6-----6--|
|---6-Ls-7-----7-----6-----6--|--6-Ls-7-----7-----6-----6--|
|---6-Ls-7-----7-----6-----6--|--6-Ls-7-----7-----6-----6--|


  S S  E  E  E  E  E  E  E      Q     Q     H         
----------------------------|------------------------|
----------------------------|------------------------|
----------------------------|------------------------|
--6-Ls-7-----7-----6-----6--|--10-----L\----6--------|
--6-Ls-7-----7-----6-----6--|--10-----L\----6--------|
--6-Ls-7-----7-----6-----6--|--10-----L\----6--------|


  S S  E  E  E  E  E  E  E     S S  E  E  E  E  E  E  E   
----------------------------|----------------------------|
----------------------------|----------------------------|
----------------------------|----------------------------|
--6-Ls-7-----7-----6-----6--|--6-Ls-7-----7-----6-----6--|
--6-Ls-7-----7-----6-----6--|--6-Ls-7-----7-----6-----6--|
--6-Ls-7-----7-----6-----6--|--6-Ls-7-----7-----6-----6--|


  S S  E  E  E  E  Q.        Q     Q.     Q.        
--------------------------|-----------------------||
--------------------------|-----------------------||
--------------------------|----------------------*||
--6-Ls-7-----7-----6------|--L\----3------6------*||
--6-Ls-7-----7-----6------|--L\----3------6-------||
--6-Ls-7-----7-----6------|--L\----3------6-------||


  S S  E  E  E  E  E  E  E     S S  E  E  E  E  Q.        Q     Q.     Q.      
----------------------------|--------------------------|----------------------|
----------------------------|--------------------------|----------------------|
----------------------------|--------------------------|--------5------6------|
--6-Ls-7-----7-----6-----6--|--6-Ls-7-----7-----6------|--L\----5------6------|
--6-Ls-7-----7-----6-----6--|--6-Ls-7-----7-----6------|--L\----3------4------|
--6-Ls-7-----7-----6-----6--|--6-Ls-7-----7-----6------|--L\------------------|


           W    W                W    W                      
  E  E  E  E    E  Q    E     E  E    E  E  S S  E  S S  E   
---------------------------|--------------------------------|
---------------------------|--------------------------------|
---------------------------|--------------------------------|
---------------------------|--------------------------------|
---------------------------|----------------3-Ls-5--3-Ls-5--|
--0--3--5--3br--L--0----5--|--3--3br--L--0------------------|


           W    W                W    W                   
  E  E  E  E    E  Q    E     E  E    E  E  E   E  Q      
---------------------------|-----------------------------|
---------------------------|-----------------------------|
---------------------------|-----------------------------|
---------------------------|-----------------------------|
---------------------------|-----------------------------|
--0--3--5--3br--L--0----5--|--3--3br--L--0--5b--L--3~----|


           W    W                   PM PM PM PM W     
  E  E  E  E    E  Q    E     E  E  E  E  E  E  Q     
---------------------------|-------------------------|
---------------------------|-------------------------|
---------------------------|-------------------------|
---------------------------|--------------------3----|
---------------------------|--------2--3--4--5-------|
--0--3--5--3br--L--0----3--|--2--3-------------------|


           W    W                W    W                   
  E  E  E  E    E  Q    E     E  E    E  E  E   E  Q      
---------------------------|-----------------------------|
---------------------------|-----------------------------|
---------------------------|-----------------------------|
---------------------------|-----------------------------|
---------------------------|-----------------------------|
--0--3--5--3br--L--0----5--|--3--3br--L--0--5b--L--3~----|


           W    W                W    W                      
  E  E  E  E    E  Q    E     E  E    E  E  S S  E  S S  E   
---------------------------|--------------------------------|
---------------------------|--------------------------------|
---------------------------|--------------------------------|
---------------------------|--------------------------------|
---------------------------|----------------3-Ls-5--3-Ls-5--|
--0--3--5--3br--L--0----5--|--3--3br--L--0------------------|


           W    W                W    W                   
  E  E  E  E    E  Q    E     E  E    E  E  E   E  Q      
---------------------------|-----------------------------|
---------------------------|-----------------------------|
---------------------------|-----------------------------|
---------------------------|-----------------------------|
---------------------------|-----------------------------|
--0--3--5--3br--L--0----5--|--3--3br--L--0--5b--L--3~----|


           W    W                   PM PM PM PM W     
  E  E  E  E    E  Q    E     E  E  E  E  E  E  Q     
---------------------------|-------------------------|
---------------------------|-------------------------|
---------------------------|-------------------------|
---------------------------|--------------------3----|
---------------------------|--------2--3--4--5-------|
--0--3--5--3br--L--0----3--|--2--3-------------------|


           W    W                W    W                   
  E  E  E  E    E  Q    E     E  E    E  E  E   E  Q      
---------------------------|-----------------------------|
---------------------------|-----------------------------|
---------------------------|-----------------------------|
---------------------------|-----------------------------|
---------------------------|-----------------------------|
--0--3--5--3br--L--0----5--|--3--3br--L--0--5b--L--3~----|


  E  E  E  E  E  E  Q        W                    E  E  E  E  E  E  Q      
--------------------------|--------------------|--------------------------|
--------------------------|--------------------|--------------------------|
--------------------------|--------------------|--------------------------|
-----------------0--3~----|--L~----------------|-----------------0--3~----|
-----------2--3-----------|--------------------|-----------2--3-----------|
--0--2--3-----------------|--------------------|--0--2--3-----------------|


                            /0 \2                       -/0       
  W                    E    E  H.              H        H         
--------------------|-----------------------|--------------------|
--------------------|-----------------------|-----------x--------|
--------------------|-----------------------|-----------x--------|
--L~----------------|-----------------------|--------------------|
--------------------|-----------------------|--------------------|
--------------------|-----0g0--L------------|--L--------L--------|


    \2/\1  /0    \2/  \2/\2 /0     \2/ \2/    /3     W         -/0 \2    -/0 
    S  E   T  T  E    S  S  S  S   E   E      E      H         E   Q     E   
----------------15---------------/17--17--20g20--|---L---------L---L-----L--|
--/15--L---L--L-----/17--L--L--L-----------------|--------------------------|
-------------------------------------------------|--------------------------|
-------------------------------------------------|--------------------------|
-------------------------------------------------|--------------------------|
-------------------------------------------------|--------------------------|


      /6                    NH                    NH                
      W                     W                     W                 
-----------------------|---------------------|---------------------|
-----------------------|---------------------|---------------------|
--3g<>3----------------|--<>L----------------|--<>L----------------|
--3g<>3----------------|--<>L----------------|--<>L----------------|
-----------------------|---------------------|---------------------|
-----------------------|---------------------|---------------------|


       -/0                        W                   
  E    H.           E      Q      Q.      E   E   E   
-----------------------|---------------------13------|
-----------------------|-----------------13------13--|
-----<>L------------x--|--15b-----L------------------|
-----<>L------------x--|-----------------------------|
-----------------------|-----------------------------|
-----------------------|-----------------------------|


         W                W                  W            W       
   E.    Q     E   Q      E.      E   Q      E   E   E    E   E   
--------------13--------------|--13-------------13-----------13--|
--16b----L--------16b-----L---|------16b-----L------16b---L------|
------------------------------|----------------------------------|
------------------------------|----------------------------------|
------------------------------|----------------------------------|
------------------------------|----------------------------------|


   W   W  W    W  W        \6                                              
                                             |----3---|                    
   S   S  S    S  H        Q        E   E    E    E   E   E   E   E   E    
--------------------------------|--16--17p--16p--13------16------13--16h--|
--16b--L--Lbr--L--L-------------|--------------------15------15-----------|
--------------------------------|-----------------------------------------|
--------------------------------|-----------------------------------------|
--------------------------------|-----------------------------------------|
---------------------------0----|-----------------------------------------|


   S   S   S  S  E   E   E   E    S   S   S  S  
--17p-16p-13----16------13--16h--17p-16p-13----|
-------------15-----15----------------------15-|
-----------------------------------------------|
-----------------------------------------------|
-----------------------------------------------|
-----------------------------------------------|


   E   E   E   E   S    S  S  S  S  S    S  S  
--16------13-----------------16---------------|
------15------16----------------16------------|
------------------15br--L-13-------15br--L-13-|
----------------------------------------------|
----------------------------------------------|
----------------------------------------------|


                           W                   PM  PM      PM  PM      
   S  S  S   E      S  E   H            Q      E   E   E   E   E   E   
--16--------------------------------|---------------------------------|
-----16-----------------------------|---------------------------------|
--------15b--Lpbr---L-13------------|--10~------------10----------10--|
--------------------------15--------|---------12--10--10--12--10--10--|
------------------------------------|---------------------------------|
------------------------------------|---------------------------------|


   PM  PM  PM  PM      PM  PM  PM                                        
   E   E   E   E   E   E   E   E      E    E   E   E    E   E   E    E   
----------------------------------|-------------------------------------|
----------------------------------|-------------------------------------|
----------------------------------|-------------------------------------|
--12--10----------10--------------|-------------------------------------|
----------12--11------12--11--10--|-----------15-----------15-----------|
----------------------------------|--12s--14------14s--15------15s--16--|


   W                     S  S S  S  S  S S  S  S  S S  S  S  S S  S  
---------------------|----------------------------------------------|
---------------------|--13-10-9-10-12-10-9-10-11-10-9-10-12-10-9-10-|
---------------------|----------------------------------------------|
---------------------|----------------------------------------------|
--17~----------------|----------------------------------------------|
---L~----------------|----------------------------------------------|


                                                         W                      
   S  S S  S  S  S S  S  S  S S  S  S  S S  S     Q      Q     E   E.   S   E   
----------------------------------------------|---------------17--20-----------|
--13-10-9-10-12-10-9-10-11-10-9-10-12-10-9-10-|--20b-----L-------------20b--L--|
----------------------------------------------|--------------------------------|
----------------------------------------------|--------------------------------|
----------------------------------------------|--------------------------------|
----------------------------------------------|--------------------------------|


           W                        PM PM PM PM PM PM  
  E   E    H.                E   E  E  E  E  E  E  E   
-----20b---L------------||----------------------------|
------------------------||----------------------------|
------------------------||*---------------------------|
------------------------||*--0h--1--------------------|
------------------------||---0---1--1--1--1--1--1--1--|
------------------------||---0h--1--1--1--1--1--1--1--|


  PM PM PM PM                        PM PM PM PM PM PM  
  E  E  E  E  E   Q    E      E   E  E  E  E  E  E  E   
---------------------------|---------------------------|
---------------------------|---------------------------|
---------------------------|---------------------------|
--------------3h--4----L\--|--0h--1--------------------|
--1--1--1--1--3---4----L\--|--0---1--1--1--1--1--1--1--|
--1--1--1--1--3h--4----L\--|--0h--1--1--1--1--1--1--1--|


  PM PM PM PM                        PM PM PM PM PM PM  
  E  E  E  E  E   Q    E      E   E  E  E  E  E  E  E   
---------------------------|---------------------------|
---------------------------|---------------------------|
---------------------------|---------------------------|
--------------3h--4----L\--|--0h--1--------------------|
--1--1--1--1--3---4----L\--|--0---1--1--1--1--1--1--1--|
--1--1--1--1--3h--4----L\--|--0h--1--1--1--1--1--1--1--|


  PM PM PM PM                                                                   
  E  E  E  E  E   Q    E      E  E  E  E  E  Q.          E  E  E  E  E  Q.      
---------------------------|-------------------------||------------------------|
---------------------------|-------------------------||------------------------|
---------------------------|------------------------*||------------------------|
--------------3h--4----L\--|--1--1-----1--1---------*||--1--1-----1--1---------|
--1--1--1--1--3---4----L\--|--1--1-----1--1----------||--1--1-----1--1---------|
--1--1--1--1--3h--4----L\--|--1--1-----1--1----------||--1--1-----1--1---------|


                                     W    W           
  H        E  E  E  E       E  E  E  E    E  Q    E   
-----------------------||----------------------------|
-----------------------||----------------------------|
-----------------------||*---------------------------|
-----------------------||*---------------------------|
-----------3--5--3--1--||----------------------------|
-----------3--5--3--1--||---0--3--5--3br--L--0----5--|


     W    W                                 W    W           
  E  E    E  E  S S  E  S S  E     E  E  E  E    E  Q    E   
--------------------------------|---------------------------|
--------------------------------|---------------------------|
--------------------------------|---------------------------|
--------------------------------|---------------------------|
----------------3-Ls-5--3-Ls-5--|---------------------------|
--3--3br--L--0------------------|--0--3--5--3br--L--0----5--|


     W    W                              W    W           
  E  E    E  E  E   E  Q        E  E  E  E    E  Q    E   
-----------------------------|---------------------------|
-----------------------------|---------------------------|
-----------------------------|---------------------------|
-----------------------------|---------------------------|
-----------------------------|---------------------------|
--3--3br--L--0--5b--L--3~----|--0--3--5--3br--L--0----3--|


        PM PM PM PM W                W    W           
  E  E  E  E  E  E  Q       E  E  E  E    E  Q    E   
-------------------------|---------------------------|
-------------------------|---------------------------|
-------------------------|---------------------------|
--------------------3----|---------------------------|
--------2--3--4--5-------|---------------------------|
--2--3-------------------|--0--3--5--3br--L--0----5--|


     W    W                                 W    W           
  E  E    E  E  E   E    Q         E  E  E  E    E  Q    E   
-------------------------------||---------------------------|
-------------------------------||---------------------------|
------------------------------*||---------------------------|
------------------------------*||---------------------------|
-------------------------------||---------------------------|
--3--3br--L--0--5b--Lpb--L-----||--0--3--5--3br--L--0----5--|


                                 PM PM PM PM PM PM    PM PM PM PM               
  E  E  Q     H           E   E  E  E  E  E  E  E     E  E  E  E  E   Q    E    
-----------------------|---------------------------|---------------------------|
-----------------------|---------------------------|---------------------------|
-----------------------|---------------------------|---------------------------|
-----------------------|--0h--1--------------------|--------------3h--4----L\--|
-----------------------|--0---1--1--1--1--1--1--1--|--1--1--1--1--3---4----L\--|
--3--5--Lb----L--------|--0h--1--1--1--1--1--1--1--|--1--1--1--1--3h--4----L\--|


         PM PM PM PM PM PM    PM PM PM PM               
  E   E  E  E  E  E  E  E     E  E  E  E  E   Q    E    
---------------------------|---------------------------|
---------------------------|---------------------------|
---------------------------|---------------------------|
--0h--1--------------------|--------------3h--4----L\--|
--0---1--1--1--1--1--1--1--|--1--1--1--1--3---4----L\--|
--0h--1--1--1--1--1--1--1--|--1--1--1--1--3h--4----L\--|


         PM PM PM PM PM PM    PM PM PM PM               
  E   E  E  E  E  E  E  E     E  E  E  E  E   Q    E    
---------------------------|---------------------------|
---------------------------|---------------------------|
---------------------------|---------------------------|
--0h--1--------------------|--------------3h--4----L\--|
--0---1--1--1--1--1--1--1--|--1--1--1--1--3---4----L\--|
--0h--1--1--1--1--1--1--1--|--1--1--1--1--3h--4----L\--|


                                    PM PM PM PM PM PM  
  E  E  E  E  E  Q.          E   E  E  E  E  E  E  E   
------------------------||----------------------------|
------------------------||----------------------------|
------------------------||*---------------------------|
--1--1-----1--1---------||*--0h--1--------------------|
--1--1-----1--1---------||---0---1--1--1--1--1--1--1--|
--1--1-----1--1---------||---0h--1--1--1--1--1--1--1--|


  PM PM PM PM                 
  E  E  E  E  E   Q    E   20x
----------------------------||
----------------------------||
---------------------------*||
--------------3h--4----L\--*||
--1--1--1--1--3---4----L\---||
--1--1--1--1--3h--4----L\---||





						=================================

							8. LIVE IN A HOLE

						=================================


     Heavy Palm Mute                                                    
     E.              E.  E.  E.     E.  E.  E.  E.     E.  E.  E.  E.   
E||------------------------------|------------------|------------------|
B||------------------------------|------------------|------------------|
G||------------------------------|------------------|------------------|
D||------------------------------|------------------|------------------|
A||------------------------------|------------------|------------------|
E||--0---------------0---0---0---|--0---0---0---0---|--0---0---0---0---|


  E.  E.  E.  E.     E.  E.  E.  E.  Q       E  S S E  E  S E  S E  E   
------------------|-----------------------|----------------------------|
------------------|-----------------------|----------------------------|
------------------|-----------------------|----------------------------|
------------------|-----------------------|--4------4--4---------4--4--|
------------------|-----------------------|--2------2--2---------2--2--|
--0---0---0---0---|--0---0---0---0---0----|-----0-0---------0--0-------|


   E.  E.  E.  E.  E  E     E.  E.  E.  E.  E  E      E.  E.  E.  E.  E  E   
-------------------------|------------------------|-------------------------|
-------------------------|------------------------|-------------------------|
-------------------------|------------------------|-------------------------|
--10---9---8---5---4--3--|--------------5---4--3--|--10---9---8---5---4--3--|
---8---7---6---3---2--1--|--5---4---3---3---2--1--|---8---7---6---3---2--1--|
-------------------------|--3---2---1-------------|-------------------------|


  E.  E.  E.  E.  E  E      E.  E.  E.  E.  E  E     E.  E.  E.  E.  E  E   
------------------------|-------------------------|------------------------|
------------------------|-------------------------|------------------------|
------------------------|-------------------------|------------------------|
--------------5---4--3--|--10---9---8---5---4--3--|--------------5---4--3--|
--5---4---3---3---2--1--|---8---7---6---3---2--1--|--5---4---3---3---2--1--|
--3---2---1-------------|-------------------------|--3---2---1-------------|


   E.  E.  E.  E.  E  E     E.  E.  E.  E.  E  E      E.  E.  E.  E.  E  E   
-------------------------|------------------------|-------------------------|
-------------------------|------------------------|-------------------------|
-------------------------|------------------------|-------------------------|
--10---9---8---5---4--3--|--------------5---4--3--|--10---9---8---5---4--3--|
---8---7---6---3---2--1--|--5---4---3---3---2--1--|---8---7---6---3---2--1--|
-------------------------|--3---2---1-------------|-------------------------|


  E.  E.  E.  E.  E  E      E.  E.  E.  E.  E  E     E.  E.  E.  E.  E  E   
------------------------|-------------------------|------------------------|
------------------------|-------------------------|------------------------|
------------------------|-------------------------|------------------------|
--------------5---4--3--|--10---9---8---5---4--3--|--------------5---4--3--|
--5---4---3---3---2--1--|---8---7---6---3---2--1--|--5---4---3---3---2--1--|
--3---2---1-------------|-------------------------|--3---2---1-------------|


   E.  E.  E.  E.  E  E     E.  E.  E.  E.  E  E      E.  E.  E.  S E  E  E   
-------------------------|------------------------|--------------------------|
-------------------------|------------------------|--------------------------|
-------------------------|------------------------|--------------------------|
--10---9---8---5---4--3--|--------------5---4--3--|--10---9---8---L-5--4--3--|
---8---7---6---3---2--1--|--5---4---3---3---2--1--|---8---7---6---L-3--2--1--|
-------------------------|--3---2---1-------------|--------------------------|


  H        T E.  E.  S.     H        H           W                E   
------------------------|---------------------|----------------------|
------------------------|---------------------|----------------------|
------------------------|---------------------|----------------------|
--L--------L-3---4---5--|---L-----------------|----------------------|
--L--------L-1---2---3--|---L--------5--------|-------------------L--|
------------------------|------------3--------|--L----------------L--|


  Q.     E  E  E  Q       Q.     E  E  E  Q       Q.     E  E  E  Q     
-----------------------|-----------------------|-----------------------|
--2--------------------|--2--------------------|--2--------------------|
--3--------------------|--3--------------------|--3--------------------|
---------3-------------|---------3-------------|---------3-------------|
------------4--5-------|------------4--5-------|------------4--5-------|
------------------1----|------------------1----|------------------1----|


  H        H            Q.     E  E  E  Q       Q.     E  E  E  Q     
---------------------|-----------------------|-----------------------|
--2--------4~--------|--2--------------------|--2--------------------|
--3------------------|--3--------------------|--3--------------------|
---------------------|---------3-------------|---------3-------------|
---------------------|------------4--5-------|------------4--5-------|
---------------------|------------------1----|------------------1----|


  Q.     E  E  E  Q       H        H            W                 
-----------------------|---------------------|-------------------|
--2--------------------|--2--------4~--------|-------------------|
--3--------------------|--3------------------|-------------------|
---------3-------------|---------------------|-------------------|
------------4--5-------|---------------------|-------------------|
------------------1----|---------------------|--0----------------|


  W                   W                   W                 
-------------------|-------------------|-------------------|
-------------------|-------------------|-------------------|
-------------------|-------------------|-------------------|
-------------------|-------------------|-------------------|
-------------------|-------------------|-------------------|
--L----------------|--L----------------|--L----------------|


  Q.     E  E  E  Q       Q.     E  E  E  Q       Q.     E  E  E  Q     
-----------------------|-----------------------|-----------------------|
--2--------------------|--2--------------------|--2--------------------|
--3--------------------|--3--------------------|--3--------------------|
---------3-------------|---------3-------------|---------3-------------|
------------4--5-------|------------4--5-------|------------4--5-------|
------------------1----|------------------1----|------------------1----|


  H        H            W                   W                 
---------------------|-------------------|-------------------|
--2--------4~--------|-------------------|-------------------|
--3------------------|-------------------|-------------------|
---------------------|-------------------|-------------------|
---------------------|-------------------|-------------------|
---------------------|--0----------------|--L----------------|


  W                   W                   Q.     E  E  E  Q     
-------------------|-------------------|-----------------------|
-------------------|-------------------|--2--------------------|
-------------------|-------------------|--3--------------------|
-------------------|-------------------|---------3-------------|
-------------------|-------------------|------------4--5-------|
--L----------------|--L----------------|------------------1----|


  Q.     E  E  E  Q       Q.     E  E  E  Q       H        H          
-----------------------|-----------------------|---------------------|
--2--------------------|--2--------------------|--2--------4~--------|
--3--------------------|--3--------------------|--3------------------|
---------3-------------|---------3-------------|---------------------|
------------4--5-------|------------4--5-------|---------------------|
------------------1----|------------------1----|---------------------|


  Q.     E  E  E  Q       Q.     E  E  E  Q       Q.     E  E  E  Q     
--2--------------------|--2--------------------|--2--------------------|
--3--------------------|--3--------------------|--3--------------------|
---------3-------------|---------3-------------|---------3-------------|
------------4--5-------|------------4--5-------|------------4--5-------|
------------------1----|------------------1----|------------------1----|
-----------------------|-----------------------|-----------------------|


  H        H         E     E.  E.  E.  E.     E.  E.  E.  E.   
--2--------4~--------L--|------------------|------------------|
--3---------------------|------------------|------------------|
------------------------|------------------|------------------|
------------------------|------------------|------------------|
------------------------|------------------|------------------|
------------------------|--0---0---0---0---|--0---0---0---0---|


  E.  E.  E.  E.     E.  E.  E.  E.     E.  E.  E.  E.  Q     
------------------|------------------|-----------------------|
------------------|------------------|-----------------------|
------------------|------------------|-----------------------|
------------------|------------------|-----------------------|
------------------|------------------|-----------------------|
--0---0---0---0---|--0---0---0---0---|--0---0---0---0---0----|


  E  S S E  E  S E  S E  E      E.  E.  E.  E.  E  E     E.  E.  E.  E.  E  E   
----------------------------|-------------------------|------------------------|
----------------------------|-------------------------|------------------------|
----------------------------|-------------------------|------------------------|
--4------4--4---------4--4--|--10---9---8---5---4--3--|--------------5---4--3--|
--2------2--2---------2--2--|---8---7---6---3---2--1--|--5---4---3---3---2--1--|
-----0-0---------0--0-------|-------------------------|--3---2---1-------------|


   E.  E.  E.  E.  E  E     E.  E.  E.  E.  E  E      E.  E.  E.  E.  E  E   
-------------------------|------------------------|-------------------------|
-------------------------|------------------------|-------------------------|
-------------------------|------------------------|-------------------------|
--10---9---8---5---4--3--|--------------5---4--3--|--10---9---8---5---4--3--|
---8---7---6---3---2--1--|--5---4---3---3---2--1--|---8---7---6---3---2--1--|
-------------------------|--3---2---1-------------|-------------------------|


  E.  E.  E.  E.  E  E      E.  E.  E.  S E  E  E     H        T E.  E.  S.  
------------------------|--------------------------|------------------------|
------------------------|--------------------------|------------------------|
------------------------|--------------------------|------------------------|
--------------5---4--3--|--10---9---8---L-5--4--3--|--L--------L-3---4---5--|
--5---4---3---3---2--1--|---8---7---6---L-3--2--1--|--L--------L-1---2---3--|
--3---2---1-------------|--------------------------|------------------------|


   H        H           W                E     Q.     E  E  E  Q     
---------------------|----------------------|-----------------------|
---------------------|----------------------|--2--------------------|
---------------------|----------------------|--3--------------------|
---L-----------------|----------------------|---------3-------------|
---L--------5--------|-------------------L--|------------4--5-------|
------------3--------|--L----------------L--|------------------1----|


  Q.     E  E  E  Q       Q.     E  E  E  Q       H        H          
-----------------------|-----------------------|---------------------|
--2--------------------|--2--------------------|--2--------4~--------|
--3--------------------|--3--------------------|--3------------------|
---------3-------------|---------3-------------|---------------------|
------------4--5-------|------------4--5-------|---------------------|
------------------1----|------------------1----|---------------------|


  Q.     E  E  E  Q       Q.     E  E  E  Q       Q.     E  E  E  Q     
-----------------------|-----------------------|-----------------------|
--2--------------------|--2--------------------|--2--------------------|
--3--------------------|--3--------------------|--3--------------------|
---------3-------------|---------3-------------|---------3-------------|
------------4--5-------|------------4--5-------|------------4--5-------|
------------------1----|------------------1----|------------------1----|


  H        H            W                   W                 
---------------------|-------------------|-------------------|
--2--------4~--------|-------------------|-------------------|
--3------------------|-------------------|-------------------|
---------------------|-------------------|-------------------|
---------------------|-------------------|-------------------|
---------------------|--0----------------|--L----------------|


  W                   W                   Q.     E  E  E  Q     
-------------------|-------------------|-----------------------|
-------------------|-------------------|--2--------------------|
-------------------|-------------------|--3--------------------|
-------------------|-------------------|---------3-------------|
-------------------|-------------------|------------4--5-------|
--L----------------|--L----------------|------------------1----|


  Q.     E  E  E  Q       Q.     E  E  E  Q       H        H          
-----------------------|-----------------------|---------------------|
--2--------------------|--2--------------------|--2--------4~--------|
--3--------------------|--3--------------------|--3------------------|
---------3-------------|---------3-------------|---------------------|
------------4--5-------|------------4--5-------|---------------------|
------------------1----|------------------1----|---------------------|


  W                   W                   W                   W                 
-------------------|-------------------|-------------------|-------------------|
-------------------|-------------------|-------------------|-------------------|
-------------------|-------------------|-------------------|-------------------|
-------------------|-------------------|-------------------|-------------------|
-------------------|-------------------|-------------------|-------------------|
--0----------------|--L----------------|--L----------------|--L----------------|


  Q.     E  E  E  Q       Q.     E  E  E  Q       Q.     E  E  E  Q     
-----------------------|-----------------------|-----------------------|
--2--------------------|--2--------------------|--2--------------------|
--3--------------------|--3--------------------|--3--------------------|
---------3-------------|---------3-------------|---------3-------------|
------------4--5-------|------------4--5-------|------------4--5-------|
------------------1----|------------------1----|------------------1----|


  H        H            Q.     E  E  E  Q       Q.     E  E  E  Q     
---------------------|--2--------------------|--2--------------------|
--2--------4~--------|--3--------------------|--3--------------------|
--3------------------|---------3-------------|---------3-------------|
---------------------|------------4--5-------|------------4--5-------|
---------------------|------------------1----|------------------1----|
---------------------|-----------------------|-----------------------|


  Q.     E  E  E  Q       H        H         E     E.  E.  E.  E.   
--2--------------------|--2--------4~--------L--|------------------|
--3--------------------|--3---------------------|------------------|
---------3-------------|------------------------|------------------|
------------4--5-------|------------------------|------------------|
------------------1----|------------------------|------------------|
-----------------------|------------------------|--0---0---0---0---|


  E.  E.  E.  E.     E.  E.  E.  E.     E.  E.  E.  E.   
------------------|------------------|------------------|
------------------|------------------|------------------|
------------------|------------------|------------------|
------------------|------------------|------------------|
------------------|------------------|------------------|
--0---0---0---0---|--0---0---0---0---|--0---0---0---0---|


  E.  E.  E.  E.  Q       E  S S E  E  S E  S E  E   
-----------------------|----------------------------|
-----------------------|----------------------------|
-----------------------|----------------------------|
-----------------------|--4------4--4---------4--4--|
-----------------------|--2------2--2---------2--2--|
--0---0---0---0---0----|-----0-0---------0--0-------|


  E  S S E  E  S E  S E  E     W                   W                 
----------------------------|-------------------|-------------------|
----------------------------|-------------------|-------------------|
----------------------------|-------------------|-------------------|
--4------4--4---------4--4--|-------------------|-------------------|
--2------2--2---------2--2--|-------------------|-------------------|
-----0-0---------0--0-------|--0----------------|--L----------------|


  W                   W                   H        E  E  E  E   
-------------------|-------------------|-----------------------|
-------------------|-------------------|-----------------------|
-------------------|-------------------|-----------------------|
-------------------|-------------------|-----------------------|
-------------------|-------------------|--4--------L-----0--4--|
--L----------------|--L----------------|--2--------L--2--------|


  Q    Q.     Q.        H        E  E  E  S S    Q.     Q.     Q     
---------------------|------------------------|---------------------|
---------------------|------------------------|---------------------|
---------------------|------------------------|---------------------|
---------------------|------------------------|--6------5------4----|
--L----3------2------|-----------------0--L---|--4------3------2----|
---------------------|--2--------L--2---------|---------------------|


  H        E  E  E  E     Q    Q.     Q.        H        E  E  E  S S  
-----------------------|---------------------|------------------------|
-----------------------|---------------------|------------------------|
-----------------------|---------------------|------------------------|
-----------------------|---------------------|------------------------|
--4--------L-----0--4--|--L----3------2------|-----------------0--L---|
--2--------L--2--------|---------------------|--2--------L--2---------|


  Q.     Q.     Q       W                   W                 
---------------------|-------------------|-------------------|
---------------------|-------------------|-------------------|
---------------------|-------------------|-------------------|
--6------5------4----|-------------------|-------------------|
--4------3------2----|-------------------|-------------------|
---------------------|-------------------|-------------------|


  W                   W                   W                   W                 
-------------------|-------------------|-------------------|-------------------|
-------------------|-------------------|-------------------|-------------------|
-------------------|-------------------|-------------------|-------------------|
-------------------|-------------------|-------------------|-------------------|
-------------------|-------------------|-------------------|-------------------|
-------------------|-------------------|-------------------|-------------------|


  W                   W                   H        E  E  E  E   
-------------------|-------------------|-----------------------|
-------------------|-------------------|-----------------------|
-------------------|-------------------|-----------------------|
-------------------|-------------------|-----------------------|
-------------------|-------------------|--4--------L-----0--4--|
-------------------|-------------------|--2--------L--2--------|


  Q    Q.     Q.        H        E  E  E  S S    Q.     Q.     Q     
---------------------|------------------------|---------------------|
---------------------|------------------------|---------------------|
---------------------|------------------------|---------------------|
---------------------|------------------------|--6------5------4----|
--L----3------2------|-----------------0--L---|--4------3------2----|
---------------------|--2--------L--2---------|---------------------|


  H        E  E  E  E     Q    Q.     Q.        H        E  E  E  S S  
-----------------------|---------------------|------------------------|
-----------------------|---------------------|------------------------|
-----------------------|---------------------|------------------------|
-----------------------|---------------------|------------------------|
--4--------L-----0--4--|--L----3------2------|-----------------0--L---|
--2--------L--2--------|---------------------|--2--------L--2---------|


  Q.     Q.     Q       W                   W                 
---------------------|-------------------|-------------------|
---------------------|-------------------|-------------------|
---------------------|-------------------|-------------------|
--6------5------4----|-------------------|-------------------|
--4------3------2----|-------------------|-------------------|
---------------------|-------------------|-------------------|


  W                   W                   W                   W                 
-------------------|-------------------|-------------------|-------------------|
-------------------|-------------------|-------------------|-------------------|
-------------------|-------------------|-------------------|-------------------|
-------------------|-------------------|-------------------|-------------------|
-------------------|-------------------|-------------------|-------------------|
-------------------|-------------------|-------------------|-------------------|


  W                   W                   E.  E.  E.  E.     E.  E.  E.  E.   
-------------------|-------------------|------------------|------------------|
-------------------|-------------------|------------------|------------------|
-------------------|-------------------|------------------|------------------|
-------------------|-------------------|------------------|------------------|
-------------------|-------------------|------------------|------------------|
-------------------|-------------------|--0---0---0---0---|--0---0---0---0---|


  E.  E.  E.  E.     E.  E.  E.  E.     E.  E.  E.  E.  Q     
------------------|------------------|-----------------------|
------------------|------------------|-----------------------|
------------------|------------------|-----------------------|
------------------|------------------|-----------------------|
------------------|------------------|-----------------------|
--0---0---0---0---|--0---0---0---0---|--0---0---0---0---0----|


  E  S S E  E  S E  S E  E      E.  E.  E.  E.  E  E     E.  E.  E.  E.  E  E   
----------------------------|-------------------------|------------------------|
----------------------------|-------------------------|------------------------|
----------------------------|-------------------------|------------------------|
--4------4--4---------4--4--|--10---9---8---5---4--3--|--------------5---4--3--|
--2------2--2---------2--2--|---8---7---6---3---2--1--|--5---4---3---3---2--1--|
-----0-0---------0--0-------|-------------------------|--3---2---1-------------|


   E.  E.  E.  E.  E  E     E.  E.  E.  E.  E  E     E.  E.  E  E.  S  
-------------------------|------------------------|-------------------|
-------------------------|------------------------|-------------------|
-------------------------|------------------------|-------------------|
--10---9---8---5---4--3--|--------------5---4--3--|-------------------|
---8---7---6---3---2--1--|--5---4---3---3---2--1--|-------------------|
-------------------------|--3---2---1-------------|--0---0---0--0---0-|


  E  E  E.  E.  E     E  S S S S S S E.  S    E  E  E.  E.  E   
-------------------|-----------------------|-------------------|
-------------------|-----------------------|-------------------|
-------------------|-----------------------|-------------------|
-------------------|-----------------------|-------------------|
-------------------|-----------------------|-------------------|
--L--0--0---0---0--|--0--0-0-L-0-0-0-0---0-|--L--0--0---0---0--|


  E.  E.  E  E  S S    S S S S E  E  Q       Q    Q.     E     H        Q     
--------------------|---------------------|-----------------|----------------|
--------------------|---------------------|-----------------|----------------|
--------------------|---------------------|-----------------|----------------|
--------------------|---------------------|-----------------|----------------|
--------------------|----------2----------|-------5------2--|----------------|
--0---0---0--0--0-0-|--L-0-0-0-0----------|-------3------0--|----------------|


                                                              \3      
  Q    Q.      E     H.              Q    Q.     E     Q.     Q.      
------------------|---------------|-----------------|----------------|
------------------|---------------|-----------------|----------------|
------------------|---------------|-----------------|----------------|
------------------|---------------|-----------------|----------------|
---------------2--|---------------|--------------3--|--L------2------|
-------3\------0--|---------------|--------------1--|--L------0------|


  H.              H.              H.              H.             
---------------|---------------|---------------|---------------||
---------------|---------------|---------------|---------------||
---------------|---------------|---------------|---------------||
---------------|---------------|---------------|---------------||
--L------------|--L------------|--L------------|--L------------||
--L------------|--L------------|--L------------|--L------------||




								####
							!!!!!!!!!!!!!!!!!!!!!!!
						&&&&&&&&&&&&&&&&&&&&&&&&&&&&&&&&&&&&&&
								SOLO
						&&&&&&&&&&&&&&&&&&&&&&&&&&&&&&&&&&&&&&
							!!!!!!!!!!!!!!!!!!!!!!!
								####


			##########__--__--SOLO 1--__--__##########

--11b------------L--/13--|--13----------------|--5s--11\----6s--12\--6s--9\----|
-------------------------|--------------------|--------------------------------|
-------------------------|--------------------|--------------------------------|
-------------------------|--------------------|--------------------------------|
-------------------------|--------------------|--------------------------------|
-------------------------|--------------------|--------------------------------|


                                      NH   NH                          
  Q      Q      H             Q       S    S E  S  E    S  S  E    S   
--4S----20----(20)\--------|-------<>16-<>16-x--x-------x--x----------|
---------------------------|--6--------------x--x-12b---x--x-12b--12b-|
---------------------------|------------------------------------------|
---------------------------|------------------------------------------|
---------------------------|------------------------------------------|
---------------------------|------------------------------------------|


                                 /2\     /2\           
   E.   S  S  S  E  H            Q    S  H        E.   
--------x-11-11-11--L--------|--20----L-20--------L---|
--12b------------------------|------------------------|
-----------------------------|------------------------|
-----------------------------|------------------------|
-----------------------------|------------------------|
-----------------------------|------------------------|


  E   S  S  S S  S S  S  S  S  S  S  S  S  S     W                              
-----21-20-19---17---17-19-17----19----17-19-|--17~----------------|-----|-----|
------------------------------18----18-------|---------------------|-----|-----|
---------------------------------------------|---------------------|-----|-----|
---------------------------------------------|---------------------|-----|-----|
---------------------------------------------|---------------------|-----|-----|
---------------------------------------------|---------------------|-----|-----|



			##########__--__--SOLO 2--__--__##########


-------|--11p-9------------9-11p-9------------9-11p-9---------|
-------|--------11p-10h-11---------11p-10h-11---------11p-10h-|
-------|------------------------------------------------------|
-------|------------------------------------------------------|
-------|------------------------------------------------------|
-------|------------------------------------------------------|


   S S  S  S  S   S   S S  S  S  S   S T  S  S  S   T  
-----9-11p-9------------9-11p-9--------9-11p-9--------|
--11---------11p-10h-11---------11p-10---------11p-10-|
------------------------------------------------------|
------------------------------------------------------|
------------------------------------------------------|
------------------------------------------------------|


       \1/       \1/       \1/           \1/                
   E   Q     E   Q     E   E     E   E   Q     H            
--11--11----13--------14------|-----17--------18brb--------|
----------------15--------15--|--L------15-----------------|
------------------------------|----------------------------|
------------------------------|----------------------------|
------------------------------|----------------------------|
------------------------------|----------------------------|


   |---3---|         |--3--|       |--3--|           
   S   S   S  E.     S  S  S E.    S  S  S  E.    S  
----------------------------------------------------|
--16p-14p-11-14br---16-14-11-9b---16-14-11-14b----L-|
----------------------------------------------------|
----------------------------------------------------|
----------------------------------------------------|
----------------------------------------------------|


   |--3--|      |--3--|       |--3--|      |--3--|       
   S  S  S E    S  S  S  E    S  S  S E    S  S  S  E    
--------------------------------------------------------|
--16-14-11-9b--16-14-11-14b--16-14-11-9b--16-14-11-10b--|
--------------------------------------------------------|
--------------------------------------------------------|
--------------------------------------------------------|
--------------------------------------------------------|


                        \0/          \0/                                     
  E    E   Q        E   Q     E      Q     E    Q    Q.                      
-----<>9---------<>11--------13--|--------13s--17----L------|-------|-------|
--L-------11~----------11--------|--11----------------------|-------|-------|
---------------------------------|--------------------------|-------|-------|
---------------------------------|--------------------------|-------|-------|
---------------------------------|--------------------------|-------|-------|
---------------------------------|--------------------------|-------|-------|





						=========================================

							9. REGULAR PEOPLE (CONCEIT)

						=========================================




()()()()()()()()()()()()()()()()()()()()()()()()()()()()()()()()()()()()()()()()()()()()()()()()()()()()()()()()()()()

					PLEASE NOTE:

		I could not find any acceptable tabs for this song. The one that I could find has many errors, and
		 therefore, is unusable. I am sorry for any Inconvenience this may have caused.

()()()()()()()()()()()()()()()()()()()()()()()()()()()()()()()()()()()()()()()()()()()()()()()()()()()()()()()()()()()



						=========================================

							10. BY DEMONS BE DRIVEN

						=========================================


Tune down to E flat



||---------------------------------------------------------------------------|
||------------------------------------------5--------------------------------|
||------------------------------------------7^-------------------------------|
||---------------------------------------------------------------------------|
||---------------2-----------------2-----------------------------------------|
||-0-0-0-0-0-0-0-0---0-0-0-0-0-0-0-0-----------------------------------------|



|---------------------------------------------------------------------------||
|---------------------------------------------------------------------------||
|---------------------------------------------------------------------------||
|---------------------------------------------------------------------------||
|---------------2-----------------2---3-/-5-\-3---5---3---------------------||
|-0-0-0-0-0-0-0-0---0-0-0-0-0-0-0-0---1-/-3-\-1---3---1---------------------||



Riff 1: Ending 2

|-------------------------------|
|-------------------------------|
|-------------------------------|
|---------------------6---------|
|-3---5---3---5---3-------7---5~|
|-1---3---1---3---1-------------|
  .   .   .   .   .   PH  PH  PH



Riff 2


|-----------------------------------------------------------------|
|------------------5----------------------------------------------|
|-----------------------------------------------------------------|
|--------------0--------------------------------------------------|
|---2-/-5--7-----------7-6-5------------------3-4-5-------------5-|
|-0-------------------------7-6-5~----3-4-5----------7-5--5-6-7---|
           PH      PH                         PH---       PH-----


|-----------------------------------------------------------------|
|------------------5----------------------------------------------|
|-----------------------------------------------------------------|
|--------------0------------------------------------------ 6------|
|---2-/-5--7-----------7-6-5------------------3-4-5----------7-5~-|
|-0-------------------------7-6-5~----3-4-5-----------7-5---------|
           PH      PH                         PH---       PH-----

|-----------------------------------------------------------------|
|------------------5----------------------------------------------|
|-----------------------------------------------------------------|
|--------------0--------------------------------------------------|
|---2-/-5--7-----------7-6-5------------------3-4-5-------------5-|
|-0-------------------------7-6-5~----3-4-5----------7-5--5-6-7---|
           PH      PH                         PH---       PH-----



|-------------------------------------------------------------------|
|------------------5------------------------------------------------|
|-------------------------------------------------------------------|
|--------------0-----------------------------------------------4----|
|---2-/-5--7-----------7-6-5------------------3-4-5---2-1------2--2-|
|-0-------------------------7-6-5~----3-4-5---------------3-2-----0-|
           PH      PH                         PH---       



						=================================

							11. HOLLOW

						=================================




*****GUITAR ONE - ACOUSTIC*****



     W                   E  E  E  E  E  E  E  E     E  E  E  E  E  E  E  E   
E||-------------------|--------------------------|--------------------------|
B||-------------------|-----------0--------------|-----0-----------------0--|
G||-------------------|--------5-----5-----------|--5-----5-----------5-----|
D||-------------------|-----2-----------2-----2--|-----------2-----2--------|
A||-------------------|--0-----------------3-----|--------------------------|
E||-------------------|--------------------------|--------------3-----------|


  E  E  E  E  E  E  E  E     E  E  E  E  E  E  E  E   
--------------------------|--------------------------|
-----------------0--------|-----------0--------------|
--5-----------5-----5-----|--------5-----5-----------|
-----2-----2-----------2--|-----2-----------2-----2--|
--------0-----------------|--0-----------------3-----|
--------------------------|--------------------------|


  E  E  E  E  E  E  E  E     E  E  E  E  E  E  E  E   
--------------------------|--------------------------|
-----0-----------------0--|-----------------0--------|
--5-----5-----------5-----|--5-----------5-----5-----|
-----------2-----2--------|-----2-----2-----------2--|
--------------------------|--------0-----------------|
--------------3-----------|--------------------------|


  E  E  E  E  E  E  E  E     E  E  E  E  E  E  E  E   
--------------------------|--------------------------|
-----------0--------------|-----0-----------------0--|
--------5-----5-----------|--5-----5-----------5-----|
-----2-----------2-----2--|-----------2-----2--------|
--0-----------------3-----|--------------------------|
--------------------------|--------------3-----------|


  E  E  E  E  E  E  E  E     E  E  E  E  E  E  E  E   
--------------------------|--------------------------|
-----------------0--------|-----------0--------------|
--5-----------5-----5-----|--------5-----5-----------|
-----2-----2-----------2--|-----2-----------2-----2--|
--------0-----------------|--0-----------------3-----|
--------------------------|--------------------------|


  E  E  E  E  E  E  E  E     E  E  E  E  E  E  E  E   
--------------------------|--------------------------|
-----0-----------------0--|-----------------0--------|
--5-----5-----------5-----|--5-----------5-----5-----|
-----------2-----2--------|-----2-----2-----------2--|
--------------------------|--------0-----------------|
--------------3-----------|--------------------------|


  Verse 1                                                  
  E       E  E  E  E  E  E  E     E  E  E  E  E  E  E  E   
-------------------------------|--------------------------|
----------------0--------------|-----0-----------------0--|
-------------5-----5-----------|--5-----5-----------5-----|
----------2-----------2-----2--|-----------2-----2--------|
--0----------------------3-----|--------------------------|
-------------------------------|--------------3-----------|


  E  E  E  E  E  E  E  E     E  E  E  E  E  E  E  E   
--------------------------|--------------------------|
-----------------0--------|-----------0--------------|
--5-----------5-----5-----|--------5-----5-----------|
-----2-----2-----------2--|-----2-----------2-----2--|
--------0-----------------|--0-----------------3-----|
--------------------------|--------------------------|


  E  E  E  E  E  E  E  E     E  E  E  E  E  E  E  E   
--------------------------|--------------------------|
-----0-----------------0--|-----------------0--------|
--5-----5-----------5-----|--5-----------5-----5-----|
-----------2-----2--------|-----2-----2-----------2--|
--------------------------|--------0-----------------|
--------------3-----------|--------------------------|


  E  E  E  E  E  E  E  E     E  E  E  E  E  E  E  E   
--------------------------|--------------------------|
-----------0--------------|-----0-----------------0--|
--------5-----5-----------|--5-----5-----------5-----|
-----2-----------2-----2--|-----------2-----2--------|
--0-----------------3-----|--------------------------|
--------------------------|--------------3-----------|


  E  E  E  E  E  E  E  E     E  E  E  E  E  E  E  E   
--------------------------|--------------------------|
-----------------0--------|-----------0--------------|
--5-----------5-----5-----|--------5-----5-----------|
-----2-----2-----------2--|-----2-----------2-----2--|
--------0-----------------|--0-----------------3-----|
--------------------------|--------------------------|


  E  E  E  E  E  E  E  E     E  E  E  E  E  E  E  E   
--------------------------|--------------------------|
-----0-----------------0--|-----------------0--------|
--5-----5-----------5-----|--5-----------5-----5-----|
-----------2-----2--------|-----2-----2-----------2--|
--------------------------|--------0-----------------|
--------------3-----------|--------------------------|


  Pre-Chorus                                                  
  E          E  E  E  E  E  E  E     E  E  E  E  E  E  E  E   
----------------------------------|--------------------------|
-------------------0--------------|-----0-----------------0--|
----------------5-----5-----------|--5-----5-----------5-----|
-------------2-----------2-----2--|-----------2--------------|
----------------------------------|-----------------3--------|
--0-------------------------0-----|--------------2-----------|


  E  E  E  E  E  E  E  E     E  E  E  E  E  E  E  E   
--------------------------|--------------------------|
-----------------0--------|-----------0--------------|
--5-----------5-----5-----|--------5-----5-----------|
-----0-----------------0--|-----------------0--------|
-----------3--------------|-----2-----------------2--|
--------2-----------------|--3-----------------3-----|


                                                   Chorus                       
  E  E  E  E  E  E  E  E     E  E  H.              E      E  E  E  E  E  E  E   
--------------------------|---------------------|------------------------------|
-----0-----------------0--|---------------------|---------------0--------------|
--5-----5-----------5-----|--5------------------|------------5-----5-----------|
-----------0-----2--------|-----2---------------|---------2-----------2-----2--|
--------------------------|---------------------|--0---------------------3-----|
--------------0-----------|--------0------------|------------------------------|


  E  E  E  E  E  E  E  E     E  E  E  E  E  E  E  E   
--------------------------|--------------------------|
-----0-----------------0--|-----------------0--------|
--5-----5-----------5-----|--5-----------5-----5-----|
-----------2-----2--------|-----2-----2-----------2--|
--------------------------|--------0-----------------|
--------------3-----------|--------------------------|


  E  E  E  E  E  E  E  E     E  E  E  E  E  E  E  E   
--------------------------|--------------------------|
-----------0--------------|-----0-----------------0--|
--------5-----5-----------|--5-----5-----------5-----|
-----2-----------2-----2--|-----------2-----2--------|
--0-----------------3-----|--------------------------|
--------------------------|--------------3-----------|


  E  E  E  E  E  E  E  E     E  E  E  E  E  E  E  E   
--------------------------|--------------------------|
-----------------0--------|-----------0--------------|
--5-----------5-----5-----|--------5-----5-----------|
-----2-----2-----------2--|-----2-----------2-----2--|
--------0-----------------|--0-----------------3-----|
--------------------------|--------------------------|


  E  E  E  E  E  E  E  E     E  E  E  E  E  E  E  E   
--------------------------|--------------------------|
-----0-----------------0--|-----------------0--------|
--5-----5-----------5-----|--5-----------5-----5-----|
-----------2-----2--------|-----2-----2-----------2--|
--------------------------|--------0-----------------|
--------------3-----------|--------------------------|


  E  E  E  E  E  E  E  E     E  E  E  E  E  E  E  E   
--------------------------|--------------------------|
-----------0--------------|-----0-----------------0--|
--------5-----5-----------|--5-----5-----------5-----|
-----2-----------2-----2--|-----------2-----2--------|
--0-----------------3-----|--------------------------|
--------------------------|--------------3-----------|


                             Verse 2                       
  E  E  E  E  E  E  E  E     E       E  E  E  E  E  E  E   
--------------------------|-------------------------------|
-----------------0--------|----------------0--------------|
--5-----------5-----5-----|-------------5-----5-----------|
-----2-----2-----------2--|----------2-----------2-----2--|
--------0-----------------|--0----------------------3-----|
--------------------------|-------------------------------|


  E  E  E  E  E  E  E  E     E  E  E  E  E  E  E  E   
--------------------------|--------------------------|
-----0-----------------0--|-----------------0--------|
--5-----5-----------5-----|--5-----------5-----5-----|
-----------2-----2--------|-----2-----2-----------2--|
--------------------------|--------0-----------------|
--------------3-----------|--------------------------|


  E  E  E  E  E  E  E  E     E  E  E  E  E  E  E  E   
--------------------------|--------------------------|
-----------0--------------|-----0-----------------0--|
--------5-----5-----------|--5-----5-----------5-----|
-----2-----------2-----2--|-----------2-----2--------|
--0-----------------3-----|--------------------------|
--------------------------|--------------3-----------|


  E  E  E  E  E  E  E  E     E  E  E  E  E  E  E  E   
--------------------------|--------------------------|
-----------------0--------|-----------0--------------|
--5-----------5-----5-----|--------5-----5-----------|
-----2-----2-----------2--|-----2-----------2-----2--|
--------0-----------------|--0-----------------3-----|
--------------------------|--------------------------|


  E  E  E  E  E  E  E  E     E  E  E  E  E  E  E  E   
--------------------------|--------------------------|
-----0-----------------0--|-----------------0--------|
--5-----5-----------5-----|--5-----------5-----5-----|
-----------2-----2--------|-----2-----2-----------2--|
--------------------------|--------0-----------------|
--------------3-----------|--------------------------|


  E  E  E  E  E  E  E  E     E  E  E  E  E  E  E  E   
--------------------------|--------------------------|
-----------0--------------|-----0-----------------0--|
--------5-----5-----------|--5-----5-----------5-----|
-----2-----------2-----2--|-----------2-----2--------|
--0-----------------3-----|--------------------------|
--------------------------|--------------3-----------|


                             Pre-Chorus                       
  E  E  E  E  E  E  E  E     E          E  E  E  E  E  E  E   
--------------------------|----------------------------------|
-----------------0--------|-------------------0--------------|
--5-----------5-----5-----|----------------5-----5-----------|
-----2-----2-----------2--|-------------2-----------2-----2--|
--------0-----------------|----------------------------------|
--------------------------|--0-------------------------0-----|


  E  E  E  E  E  E  E  E     E  E  E  E  E  E  E  E   
--------------------------|--------------------------|
-----0-----------------0--|-----------------0--------|
--5-----5-----------5-----|--5-----------5-----5-----|
-----------2--------------|-----0-----------------0--|
-----------------3--------|-----------3--------------|
--------------2-----------|--------2-----------------|


  E  E  E  E  E  E  E  E     E  E  E  E  E  E  E  E     E  E  H.            
--------------------------|--------------------------|---------------------|
-----------0--------------|-----0-----------------0--|---------------------|
--------5-----5-----------|--5-----5-----------5-----|--5------------------|
-----------------0--------|-----------0-----2--------|-----2---------------|
-----2-----------------2--|--------------------------|---------------------|
--3-----------------3-----|--------------0-----------|--------0------------|


  Solo Fills                                                  
  E          E  E  E  E  E  E  E     E  E  E  E  E  E  E  E   
----------------------------------|--------------------------|
-------------------0--------------|-----0-----------------0--|
----------------5-----5-----------|--5-----5-----------5-----|
-------------2-----------2-----2--|-----------2-----2--------|
--0-------------------------3-----|--------------------------|
----------------------------------|--------------3-----------|


  E  E  E  E  E  E  E  E     E  E  E  E  E  E  E  E   
--------------------------|--------------------------|
-----------------0--------|-----------0--------------|
--5-----------5-----5-----|--------5-----5-----------|
-----2-----2-----------2--|-----2-----------2-----2--|
--------0-----------------|--0-----------------3-----|
--------------------------|--------------------------|


  E  E  E  E  E  E  E  E     E  E  H.              E  E  E  E  E  E  E  E   
--------------------------|---------------------|--------------------------|
-----0-----------------0--|---------------------|--------------------------|
--5-----5-----------5-----|--5-----5------------|-----------0--------------|
-----------2-----2--------|-----2--2------------|--------4-----4-----------|
--------------------------|--------0------------|-----2-----------2-----2--|
--------------3-----------|---------------------|--0-----------------0-----|


  E  E  E  E  E  E  E  E   
--------------------------|
--------------------------|
-----0-----------------0--|
--4-----4-----------4-----|
-----------2-----2--------|
--------------0-----------|


  this bar is questionable...as accurate as possible                            
  E                                                  E  E  E  E  E  E  E  E  E  
--------------------------------------------------------------------------------
--------------------------------------------------------------------------------
--------------------------------------------------------------------------------
--4-----------------------------------------------------------0-----0--------0--
-----------------------------------------------------2-----2--------------0-----
--------------------------------------------------------3--------2-----1--------


  E  E  E  E  E  E  E  E     E  E  E  E  E  E  E  E   
--------------------------|--------------------------|
--------------------------|--------------------------|
-----------0--------------|-----0-----------------0--|
--------4-----4-----------|--4-----4-----------4-----|
-----2-----------2-----2--|-----------2-----2--------|
--0-----------------0-----|--------------0-----------|


  E  E  E  E  E  E  E  E  E  E     E  E  E  E  E  E  E  E   
--------------------------------|--------------------------|
--------------------------------|--------------------------|
--------------------------------|-----------0--------------|
--4-----------0-----0--------0--|--------4-----4-----------|
-----2-----2--------------0-----|-----2-----------2-----2--|
--------3--------2-----1--------|--0-----------------0-----|


  E  E  E  E  E  E  E  E     E  E  E  E  E  E  E  E  E  E   
--------------------------|--------------------------------|
--------------------------|--------------------------------|
-----0-----------------0--|--------------------------------|
--4-----4-----------4-----|--4-----------0-----0--------0--|
-----------2-----2--------|-----2-----2--------------0-----|
--------------0-----------|--------3--------2-----1--------|


  E  E  E  E  E  E  E  E     E  E  E  S. T E  E  E  E   
--------------------------|----------------------------|
--------------------------|----------------------------|
-----------0--------------|-----0----------------0-----|
--------4-----4-----------|--4-----4----------5--------|
-----2-----------2-----2--|-----------2--5-7--------5--|
--0-----------------0-----|----------------------------|


  E  E  E  E  E  E  E  E  E  E  E  E     W                       
--------------------------------------|-------------------|-----|
--------------------------------------|-------------------|-----|
-----------0--------0-----0-----0-----|-------------------|-----|
--4-----4--------2--------------------|-------------------|-----|
-----5--------3--------2-----1--------|-------------------|-----|
-----------------------------------1--|--0----------------|-----|


                            W                                                 
-------------------|-----|-------------------|-----|-------------------|-----|
-------------------|-----|-------------------|-----|-------------------|-----|
-------------------|-----|-------------------|-----|-------------------|-----|
-------------------|-----|-------------------|-----|-------------------|-----|
-------------------|-----|-------------------|-----|-------------------|-----|
-------------------|-----|-------------------|-----|-------------------|-----|


                          W                                                 
-----|-----|-----|-----|-------------------|-----|-------------------|-----|
-----|-----|-----|-----|-------------------|-----|-------------------|-----|
-----|-----|-----|-----|-------------------|-----|-------------------|-----|
-----|-----|-----|-----|-------------------|-----|-------------------|-----|
-----|-----|-----|-----|-------------------|-----|-------------------|-----|
-----|-----|-----|-----|-------------------|-----|-------------------|-----|


                                H        Q      S   E.     W                 
-----|-----|-----|-----|-----|--------------------------|-------------------|
-----|-----|-----|-----|-----|----------------<>5-------|-------------------|
-----|-----|-----|-----|-----|--------------------<>4---|-------------------|
-----|-----|-----|-----|-----|--------------------------|-------------------|
-----|-----|-----|-----|-----|--------------------------|-------------------|
-----|-----|-----|-----|-----|--------------------------|-------------------|


-----|-----|-----|-----|-----|-----|-----|-----|-----|-----|-----|-----|-----|
-----|-----|-----|-----|-----|-----|-----|-----|-----|-----|-----|-----|-----|
-----|-----|-----|-----|-----|-----|-----|-----|-----|-----|-----|-----|-----|
-----|-----|-----|-----|-----|-----|-----|-----|-----|-----|-----|-----|-----|
-----|-----|-----|-----|-----|-----|-----|-----|-----|-----|-----|-----|-----|
-----|-----|-----|-----|-----|-----|-----|-----|-----|-----|-----|-----|-----|


                                H        Q      S   E.     W                 
-----|-----|-----|-----|-----|--------------------------|-------------------|
-----|-----|-----|-----|-----|----------------<>3-<>5---|-------------------|
-----|-----|-----|-----|-----|--------------------------|-------------------|
-----|-----|-----|-----|-----|--------------------------|-------------------|
-----|-----|-----|-----|-----|--------------------------|-------------------|
-----|-----|-----|-----|-----|--------------------------|-------------------|


                Q.       Q.       Q       W                   W                 
-----|-----|---------------------------|-------------------|-------------------|
-----|-----|--<>8------<>7------<>5----|--L----------------|--L----------------|
-----|-----|---------------------------|-------------------|-------------------|
-----|-----|---------------------------|-------------------|-------------------|
-----|-----|---------------------------|-------------------|-------------------|
-----|-----|---------------------------|-------------------|-------------------|


  Q    Q                                                           
------------|-----|-----|-----|-----|-----|-----|-----|-----|-----|
--L---------|-----|-----|-----|-----|-----|-----|-----|-----|-----|
------------|-----|-----|-----|-----|-----|-----|-----|-----|-----|
------------|-----|-----|-----|-----|-----|-----|-----|-----|-----|
------------|-----|-----|-----|-----|-----|-----|-----|-----|-----|
------------|-----|-----|-----|-----|-----|-----|-----|-----|-----|


   Studio Layer                                                             
   S            S S  S  S S  S  S S  S  S S  Q                              
---------------------------------------------------|-----|-----|-----|-----|
---------------------------------------------------|-----|-----|-----|-----|
---------------------------------------------------|-----|-----|-----|-----|
---------------------------------------------------|-----|-----|-----|-----|
--12-----------13---12-13---12-13---12-13---13~----|-----|-----|-----|-----|
--10-----------11-0-10-11-0-10-11-0-10-11-0-11~----|-----|-----|-----|-----|


-----|-----|-----|-----|-----|-----|-----|-----||
-----|-----|-----|-----|-----|-----|-----|-----||
-----|-----|-----|-----|-----|-----|-----|-----||
-----|-----|-----|-----|-----|-----|-----|-----||
-----|-----|-----|-----|-----|-----|-----|-----||
-----|-----|-----|-----|-----|-----|-----|-----||


*****GUITAR TWO - ELECTRIC*****


     W                    H          E   E   Q        Q     E   E   H          
E||-------------------|----------------------------|--------------------------|
B||-------------------|----------------------------|-----------12--15~--------|
G||-------------------|---------------------12~----|--L----12-----------------|
D||-------------------|-----------------14---------|--------------------------|
A||-------------------|--15~--------15-------------|--------------------------|
E||-------------------|----------------------------|--------------------------|


   E      E   Q        H             H          E   E   Q      
---------------------------------|----------------------------|
--15pbr---L--15pbr----12~--------|----------------------------|
---------------------------------|---------------------12~----|
---------------------------------|-----------------14---------|
---------------------------------|--15~--------15-------------|
---------------------------------|----------------------------|


  Q     E   E   Q.       E     E   E   Q.       Q      E   
----------------------------|-----------------------------|
-----------12---------------|-----------------------------|
--L----12---------------12--|--L--(9)---------------------|
---------------10~----------|----------9~------12~--------|
----------------------------|-------------------------12--|
----------------------------|-----------------------------|


   H          E   E   Q        Q     E   E   H          
----------------------------|--------------------------|
----------------------------|-----------12--15~--------|
---------------------12~----|--L----12-----------------|
-----------------14---------|--------------------------|
--15~--------15-------------|--------------------------|
----------------------------|--------------------------|


   May have done a 15 bend here. Still sounds good                      
   E                                               E   Q.      Q.       
-----------------------------------------------------------------------|
--17----------------------------------------------15--12------17~------|
-----------------------------------------------------------------------|
-----------------------------------------------------------------------|
-----------------------------------------------------------------------|
-----------------------------------------------------------------------|


   H          E   E   Q        Q     E   E   Q.      E   
----------------------------|---------------------------|
----------------------------|-----------12--------------|
---------------------12~----|--L----12--------------12--|
-----------------14---------|---------------10----------|
--15~--------15-------------|---------------------------|
----------------------------|---------------------------|


  Q    Q.     E   S  S E     W                                      
--------------------------|--------------------|-------------------|
--------------------------|--------------------|-------------------|
--L-----------7--(7)-5-7--|--5~----------------|-------------------|
-------9------------------|--------------------|-------------------|
--------------------------|--------------------|-------------------|
--------------------------|--------------------|-------------------|


-------------------|-------------------|-------------------|-------------------|
-------------------|-------------------|-------------------|-------------------|
-------------------|-------------------|-------------------|-------------------|
-------------------|-------------------|-------------------|-------------------|
-------------------|-------------------|-------------------|-------------------|
-------------------|-------------------|-------------------|-------------------|


-------------------|-------------------|-------------------|-------------------|
-------------------|-------------------|-------------------|-------------------|
-------------------|-------------------|-------------------|-------------------|
-------------------|-------------------|-------------------|-------------------|
-------------------|-------------------|-------------------|-------------------|
-------------------|-------------------|-------------------|-------------------|


-------------------|-------------------|-------------------|-------------------|
-------------------|-------------------|-------------------|-------------------|
-------------------|-------------------|-------------------|-------------------|
-------------------|-------------------|-------------------|-------------------|
-------------------|-------------------|-------------------|-------------------|
-------------------|-------------------|-------------------|-------------------|


                                                                    <    
                                                  H        Q.       E    
-------------------|-------------------|-------|------------------------|
-------------------|-------------------|-------|------------------------|
-------------------|-------------------|-------|------------------------|
-------------------|-------------------|-------|------------------------|
-------------------|-------------------|-------|------------------(10)--|
-------------------|-------------------|-------|------------------------|


   H          E   E   Q        Q     E   E   H          
----------------------------|--------------------------|
----------------------------|-----------12--15~--------|
---------------------12~----|--L----12-----------------|
-----------------14---------|--------------------------|
--15~--------15-------------|--------------------------|
----------------------------|--------------------------|


   E   E   Q     Q      Q        H          E   E   Q      
-----------------------------|----------------------------|
--17--15--12-----------------|----------------------------|
----------------14br----L----|---------------------12~----|
-----------------------------|-----------------14---------|
-----------------------------|--15~--------15-------------|
-----------------------------|----------------------------|


  Q     E   E   Q.       E     E   E   Q.       Q      E   
----------------------------|-----------------------------|
-----------12---------------|-----------------------------|
--L----12---------------12--|--L--(9)---------------------|
---------------10~----------|----------9~------12~--------|
----------------------------|-------------------------12--|
----------------------------|-----------------------------|


   H          E   E   Q        Q     E   E   H          
----------------------------|--------------------------|
----------------------------|-----------12--15~--------|
---------------------12~----|--L----12-----------------|
-----------------14---------|--------------------------|
--15~--------15-------------|--------------------------|
----------------------------|--------------------------|


   E   E   Q.      Q.          H          E   E   Q      
---------------------------|----------------------------|
--17--15--12------17~------|----------------------------|
---------------------------|---------------------12~----|
---------------------------|-----------------14---------|
---------------------------|--15~--------15-------------|
---------------------------|----------------------------|


  Q     E   E   Q.      E     Q    Q.     E   S  S E     W                  
---------------------------|--------------------------|--------------------|
-----------12--------------|--------------------------|--------------------|
--L----12--------------12--|--L-----------7--(7)-5-7--|--5~----------------|
---------------10----------|-------9------------------|--------------------|
---------------------------|--------------------------|--------------------|
---------------------------|--------------------------|--------------------|


-------------------|-------------------|-------------------|-------------------|
-------------------|-------------------|-------------------|-------------------|
-------------------|-------------------|-------------------|-------------------|
-------------------|-------------------|-------------------|-------------------|
-------------------|-------------------|-------------------|-------------------|
-------------------|-------------------|-------------------|-------------------|


-------------------|-------------------|-------------------|-------------------|
-------------------|-------------------|-------------------|-------------------|
-------------------|-------------------|-------------------|-------------------|
-------------------|-------------------|-------------------|-------------------|
-------------------|-------------------|-------------------|-------------------|
-------------------|-------------------|-------------------|-------------------|


-------------------|-------------------|-------------------|-------------------|
-------------------|-------------------|-------------------|-------------------|
-------------------|-------------------|-------------------|-------------------|
-------------------|-------------------|-------------------|-------------------|
-------------------|-------------------|-------------------|-------------------|
-------------------|-------------------|-------------------|-------------------|


-------------------|-------------------|-------------------|-------|-------|
-------------------|-------------------|-------------------|-------|-------|
-------------------|-------------------|-------------------|-------|-------|
-------------------|-------------------|-------------------|-------|-------|
-------------------|-------------------|-------------------|-------|-------|
-------------------|-------------------|-------------------|-------|-------|


  Solo                             
  Q    S T T E     S Q     E  T T  
----------------------------------|
-------------8pbr--5-8~----L------|
-----------x--------------------x-|
---------x--------------------x---|
----------------------------------|
----------------------------------|


                |--3-|  |--3-| |-3-|  |-3-| |--3--|  
  E     S S S S S S  S  S  S S S S S  S S S S  S  S  
---------------------------------5------------------|
--8pbr--5---5---5--------------5---8p-5---5---------|
----------8---8---8p-7p-5h-7-8----------8---8p-7p-5-|
----------------------------------------------------|
----------------------------------------------------|
----------------------------------------------------|


                                                  \1/                    
                        |--3--|                                          
  S  T  T S S Q     S S S  S  S Q         E   E   E   E   E   E   Q      
---------------------------------------|--------------------------------|
---------------------------------------|-------------20--20-------------|
--8p-7p-5---5--------------------------|-----19--19----------19--19~----|
----------7---7~-----------------------|--------------------------------|
--------------------7-6-5h-6p-5-3b~----|--------------------------------|
---------------------------------------|--------------------------------|


   E   E   E   E   Q     E    E       S  S  E    H         Q     
----------------------------------|-----------------------------|
-------x--20----------------(19)--|--20b---20~--20b--------L----|
---L---L------19--19~----L--------|-----------------------------|
----------------------------------|-----------------------------|
----------------------------------|-----------------------------|
----------------------------------|-----------------------------|


                                                                    |-3-|      
   W                       W                           H.           S S S E    
------------------------|-------------------|-------|-------------------------|
--19pbr~----------------|--L----------------|-------|-------------------------|
------------------------|-------------------|-------|---------------x---------|
------------------------|-------------------|-------|-----------------x-------|
------------------------|-------------------|-------|-------------------x-----|
------------------------|-------------------|-------|---------------------5~--|


                                        <     
  W                   W                 Q     
-------------------|-------------------12----|
-------------------|-------------------15----|
-------------------|-------------------------|
-------------------|-------------------------|
-------------------|-------------------------|
--L----------------|-------------------------|


     Dime does some crazy shit here                            
     Q                              E.   S    E      Q.        
--<>12---------------------------<>12------<>12---<>12--------|
--<>15b--------------------------<>15b---x-<>15b--<>15br------|
--------------------------------------------------------------|
--------------------------------------------------------------|
--------------------------------------------------------------|
--------------------------------------------------------------|


  H        H                                                                 
--L-----------------|-------|-------------------|-------------------|-------|
--L-----------------|-------|-------------------|-------------------|-------|
--------------------|-------|-------------------|-------------------|-------|
--------------------|-------|-------------------|-------------------|-------|
--------------------|-------|-------------------|-------------------|-------|
--------------------|-------|-------------------|-------------------|-------|


  E  E  S S E  S S E  S S S S    E  E  S S E  S S E  S S S  S  
------------------------------|-------------------------------|
------------------------------|-------------------------------|
------------------------------|-------------------------------|
------------------------------|-------------------------------|
--2-----2-2----2-2-2--5-6-6-7-|--2-----2-2----2-2-2--8-9-9-10-|
--0-----0-0----0-0-0--3-4-4-5-|--0-----0-0----0-0-0--6-7-7--8-|


  E  E  S S E  S S E  S S S S    E  E  S S E  S S E  S S S  S  
------------------------------|-------------------------------|
------------------------------|-------------------------------|
------------------------------|-------------------------------|
------------------------------|-------------------------------|
--2-----2-2----2-2-2--5-6-6-7-|--2-----2-2----2-2-2--8-9-9-10-|
--0-----0-0----0-0-0--3-4-4-5-|--0-----0-0----0-0-0--6-7-7--8-|


  Verse                                                           
  E     E  S S E  S S E  S S S S    E  E  S S E  S S E  S S S  S  
---------------------------------|-------------------------------|
---------------------------------|-------------------------------|
---------------------------------|-------------------------------|
---------------------------------|-------------------------------|
--2--------2-2----2-2-2--5-6-6-7-|--2-----2-2----2-2-2--8-9-9-10-|
--0--------0-0----0-0-0--3-4-4-5-|--0-----0-0----0-0-0--6-7-7--8-|


  E  E  S S E  S S E  S S S S    E  E  S S E  S S E  S S S  S  
------------------------------|-------------------------------|
------------------------------|-------------------------------|
------------------------------|-------------------------------|
------------------------------|-------------------------------|
--2-----2-2----2-2-2--5-6-6-7-|--2-----2-2----2-2-2--8-9-9-10-|
--0-----0-0----0-0-0--3-4-4-5-|--0-----0-0----0-0-0--6-7-7--8-|


  Bridge                                                                   
  S      S S S S S S S S S S S S S E      S S S S S S S S S S S S S S E    
---------------------------------------|----------------------------------|
---------------------------------------|----------------------------------|
---------------------------------------|----------------------------------|
---------------------------------------|----------------------------------|
---------8-----7-----8-----7---7-8-9~--|----8-----7-----8-----7---7-8-9~--|
--0------6-0-0-5-0-0-6-0-0-5-0-5-6-7~--|--0-6-0-0-5-0-0-6-0-0-5-0-5-6-7~--|


  S S S S S S S S S S S S S S E      S S S S S S S S S S S S S S E    
----------------------------------|----------------------------------|
----------------------------------|----------------------------------|
----------------------------------|----------------------------------|
----------------------------------|----------------------------------|
----8-----7-----8-----7---7-8-9~--|----8-----7-----8-----7---7-8-9~--|
--0-6-0-0-5-0-0-6-0-0-5-0-5-6-7~--|--0-6-0-0-5-0-0-6-0-0-5-0-5-6-7~--|


  Verse                                                           
  E     E  S S E  S S E  S S S S    E  E  S S E  S S E  S S S  S  
---------------------------------|-------------------------------|
---------------------------------|-------------------------------|
---------------------------------|-------------------------------|
---------------------------------|-------------------------------|
--2--------2-2----2-2-2--5-6-6-7-|--2-----2-2----2-2-2--8-9-9-10-|
--0--------0-0----0-0-0--3-4-4-5-|--0-----0-0----0-0-0--6-7-7--8-|


  E  E  S S E  S S E  S S S S    E  E  S S E  S S E  S S S  S  
------------------------------|-------------------------------|
------------------------------|-------------------------------|
------------------------------|-------------------------------|
------------------------------|-------------------------------|
--2-----2-2----2-2-2--5-6-6-7-|--2-----2-2----2-2-2--8-9-9-10-|
--0-----0-0----0-0-0--3-4-4-5-|--0-----0-0----0-0-0--6-7-7--8-|


  Bridge                                                                   
  S      S S S S S S S S S S S S S E      S S S S S S S S S S S S S S E    
---------------------------------------|----------------------------------|
---------------------------------------|----------------------------------|
---------------------------------------|----------------------------------|
---------------------------------------|----------------------------------|
---------8-----7-----8-----7---7-8-9~--|----8-----7-----8-----7---7-8-9~--|
--0------6-0-0-5-0-0-6-0-0-5-0-5-6-7~--|--0-6-0-0-5-0-0-6-0-0-5-0-5-6-7~--|


  S S S S S S S S S S S S S S E      S S S S S S S S S S S S S S E    
----------------------------------|----------------------------------|
----------------------------------|----------------------------------|
----------------------------------|----------------------------------|
----------------------------------|----------------------------------|
----8-----7-----8-----7---7-8-9~--|----8-----7-----8-----7---7-8-9~--|
--0-6-0-0-5-0-0-6-0-0-5-0-5-6-7~--|--0-6-0-0-5-0-0-6-0-0-5-0-5-6-7~--|


  E.  Q    S E.  Q    S    E.  E  E  S Q       S    E.   
------------------------|-------------------<>12--------|
------------------------|------------------------<>12---|
------------------------|-------------------------------|
--5---4----L-2---1----L-|-------------------------------|
--7---5----L-3---2----L-|--2---0------------------------|
------------------------|---------3--2-0-----<>L--<>L---|


                                                                  PM PM     
  E.  Q    S E.  Q    S    E.  E  E  S    S S S S S S S S S S S S S  S  E   
------------------------|--------------|-----------------------------------|
------------------------|--------------|-----------------------------------|
--0---0----L------------|--------------|-----------------------------------|
--5---4----L-2---1----L-|--------------|-----------------------------------|
--7---5----L-3---2----L-|--2---0-------|----7-8---7-L---7-8---7-L-7--7--7--|
------------------------|---------3--2-|--0-5-6-0-5-L-0-5-6-0-5-L-5--5--5--|


                                                            PM PM     
  S S S S S S S S S S S S S S E     S S S S S S S S S S S S S  S  E   
---------------------------------|-----------------------------------|
---------------------------------|-----------------------------------|
---------------------------------|-----------------------------------|
---------------------------------|-----------------------------------|
----7-8---7-L---7-8---7-L-7-8-9--|----7-8---7-L---7-8---7-L-7--7--7--|
--0-5-6-0-5-L-0-5-6-0-5-L-5-6-7--|--0-5-6-0-5-L-0-5-6-0-5-L-5--5--5--|


                                                            PM PM     
  S S S S S S S S S S S S S S E     S S S S S S S S S S S S S  S  E   
---------------------------------|-----------------------------------|
---------------------------------|-----------------------------------|
---------------------------------|-----------------------------------|
---------------------------------|-----------------------------------|
----7-8---7-L---7-8---7-L-7-8-9--|----7-8---7-L---7-8---7-L-7--7--7--|
--0-5-6-0-5-L-0-5-6-0-5-L-5-6-7--|--0-5-6-0-5-L-0-5-6-0-5-L-5--5--5--|


                                                            PM PM     
  S S S S S S S S S S S S S S E     S S S S S S S S S S S S S  S  E   
---------------------------------|-----------------------------------|
---------------------------------|-----------------------------------|
---------------------------------|-----------------------------------|
---------------------------------|-----------------------------------|
----7-8---7-L---7-8---7-L-7-8-9--|----7-8---7-L---7-8---7-L-7--7--7--|
--0-5-6-0-5-L-0-5-6-0-5-L-5-6-7--|--0-5-6-0-5-L-0-5-6-0-5-L-5--5--5--|


                                                               PM PM     
  S S S S S S S S S S S S S S E     S T T E  S S T T S S S S S S  S  E   
---------------------------------|--------------------------------------|
---------------------------------|--------------------------------------|
---------------------------------|--------------------------------------|
---------------------------------|--------------------------------------|
----7-8---7-L---7-8---7-L-7-8-9--|--x---7-8--7-L---7-8-L---7-L-8--7--7--|
--0-5-6-0-5-L-0-5-6-0-5-L-5-6-7--|--x---5-6--5-L-0-5-6-L-0-5-L-6--5--5--|


                             PM PM                                  PM PM     
  S T T E  S S T T S S S S S S  S  E     S T T E  S S T T S S S S S S  S  E   
--------------------------------------|--------------------------------------|
--------------------------------------|--------------------------------------|
--------------------------------------|--------------------------------------|
--------------------------------------|--------------------------------------|
--x---7-8--7-L---7-8-L---7-L-7--8--9--|--x---7-8--7-L---7-8-L---7-L-7--8--9--|
--x---5-6--5-L-0-5-6-L-0-5-L-5--6--7--|--x---5-6--5-L-0-5-6-L-0-5-L-5--6--7--|


                             PM PM                                  PM PM     
  S T T E  S S T T S S S S S S  S  E     S T T E  S S T T S S S S S S  S  E   
--------------------------------------|--------------------------------------|
--------------------------------------|--------------------------------------|
--------------------------------------|--------------------------------------|
--------------------------------------|--------------------------------------|
--x---7-8--7-L---7-8-L---7-L-7--8--9--|--x---7-8--7-L---7-8-L---7-L-7--8--9--|
--x---5-6--5-L-0-5-6-L-0-5-L-5--6--7--|--x---5-6--5-L-0-5-6-L-0-5-L-5--6--7--|


                             PM PM                                  PM PM     
  S T T E  S S T T S S S S S S  S  E     S T T E  S S T T S S S S S S  S  E   
--------------------------------------|--------------------------------------|
--------------------------------------|--------------------------------------|
--------------------------------------|--------------------------------------|
--------------------------------------|--------------------------------------|
--x---7-8--7-L---7-8-L---7-L-7--8--9--|--x---7-8--7-L---7-8-L---7-L-7--8--9--|
--x---5-6--5-L-0-5-6-L-0-5-L-5--6--7--|--x---5-6--5-L-0-5-6-L-0-5-L-5--6--7--|


                             PM PM                              
  S T T E  S S T T S S S S S S  S  E     E.  Q    S E.  Q    S  
--------------------------------------|------------------------|
--------------------------------------|------------------------|
--------------------------------------|------------------------|
--------------------------------------|--5---4----L-2---1----L-|
--x---7-8--7-L---7-8-L---7-L-7--8--9--|--7---5----L-3---2----L-|
--x---5-6--5-L-0-5-6-L-0-5-L-5--6--7--|------------------------|


  E.  E  E  S Q    S    E.     E.  Q    S E.  Q    S    E.  E  E  S  
---------------------<>12---|------------------------|--------------|
-------------------x--------|------------------------|--------------|
----------------------------|--0---0----L------------|--------------|
----------------------------|--5---4----L-2---1----L-|--------------|
--2---0---------------------|--7---5----L-3---2----L-|--2---0-------|
---------3--2-0----L--<>L---|------------------------|---------3--2-|


  W                   H        Q      Q       W                 
-------------------|-----------------------|-------------------|
-------------------|----------------<>5----|--L----------------|
-------------------|-----------------------|-------------------|
-------------------|-----------------------|-------------------|
--2----------------|--L--------L----<>L----|--L----------------|
--0----------------|--L--------L----<>L----|--L----------------|


                                                           PM PM     
  W                   Q    Q       S S S S S S S S S S S S S  S  E   
-------------------|------------|-----------------------------------|
--L----------------|--L---------|-----------------------------------|
-------------------|------------|-----------------------------------|
-------------------|------------|-----------------------------------|
--L----------------|--L---------|----7-8---7-L---7-8---7-L-7--7--7--|
--L----------------|--L---------|--0-5-6-0-5-L-0-5-6-0-5-L-5--5--5--|


                                                            PM PM     
  S S S S S S S S S S S S S S E     S S S S S S S S S S S S S  S  E   
---------------------------------|-----------------------------------|
---------------------------------|-----------------------------------|
---------------------------------|-----------------------------------|
---------------------------------|-----------------------------------|
----7-8---7-L---7-8---7-L-7-8-9--|----7-8---7-L---7-8---7-L-7--7--7--|
--0-5-6-0-5-L-0-5-6-0-5-L-5-6-7--|--0-5-6-0-5-L-0-5-6-0-5-L-5--5--5--|


                                                            PM PM     
  S S S S S S S S S S S S S S E     S S S S S S S S S S S S S  S  E   
---------------------------------|-----------------------------------|
---------------------------------|-----------------------------------|
---------------------------------|-----------------------------------|
---------------------------------|-----------------------------------|
----7-8---7-L---7-8---7-L-7-8-9--|----7-8---7-L---7-8---7-L-7--7--7--|
--0-5-6-0-5-L-0-5-6-0-5-L-5-6-7--|--0-5-6-0-5-L-0-5-6-0-5-L-5--5--5--|


                                                            PM PM     
  S S S S S S S S S S S S S S E     S S S S S S S S S S S S S  S  E   
---------------------------------|-----------------------------------|
---------------------------------|-----------------------------------|
---------------------------------|-----------------------------------|
---------------------------------|-----------------------------------|
----7-8---7-L---7-8---7-L-7-8-9--|----7-8---7-L---7-8---7-L-7--7--7--|
--0-5-6-0-5-L-0-5-6-0-5-L-5-6-7--|--0-5-6-0-5-L-0-5-6-0-5-L-5--5--5--|


  S S S S S S S S S S S S S S E   
---------------------------------|
---------------------------------|
---------------------------------|
---------------------------------|
----7-8---7-L---7-8---7-L-7-8-9--|
--0-5-6-0-5-L-0-5-6-0-5-L-5-6-7--|


  The simple, awesome riff people seem to forget...                             
  S                                                 S S S S S S S S S S S S S S 
--------------------------------------------------------------------------------
--------------------------------------------------------------------------------
--------------------------------------------------------------------------------
--------------------------------------------------------------------------------
----------------------------------------------------7-8---7-8---7-8---7-8---7-8-
--0-------------------------------------------------5-6-0-5-6-0-5-6-0-5-6-0-5-6-


                                                           PM PM     
  S S S S S S S S S S S S Q        S S S S S S S S S S S S S  S  E   
--------------------------------|-----------------------------------|
--------------------------------|-----------------------------------|
--------------------------------|-----------------------------------|
--------------------------------|-----------------------------------|
--7-8---7-8---7-8---7-8---8~----|----7-8---7-L---7-8---7-L-7--7--7--|
--5-6-0-5-6-0-5-6-0-5-6-0-6~----|--0-5-6-0-5-L-0-5-6-0-5-L-5--5--5--|


                                                            PM PM     
  S S S S S S S S S S S S S S E     S S S S S S S S S S S S S  S  E   
---------------------------------|-----------------------------------|
---------------------------------|-----------------------------------|
---------------------------------|-----------------------------------|
---------------------------------|-----------------------------------|
----7-8---7-L---7-8---7-L-7-8-9--|----7-8---7-L---7-8---7-L-7--7--7--|
--0-5-6-0-5-L-0-5-6-0-5-L-5-6-7--|--0-5-6-0-5-L-0-5-6-0-5-L-5--5--5--|


                                                            PM PM     
  S S S S S S S S S S S S S S E     S S S S S S S S S S S S S  S  E   
---------------------------------|-----------------------------------|
---------------------------------|-----------------------------------|
---------------------------------|-----------------------------------|
---------------------------------|-----------------------------------|
----7-8---7-L---7-8---7-L-7-8-9--|----7-8---7-L---7-8---7-L-7--7--7--|
--0-5-6-0-5-L-0-5-6-0-5-L-5-6-7--|--0-5-6-0-5-L-0-5-6-0-5-L-5--5--5--|


                                    Fade Begins                       PM PM     
  S S S S S S S S S S S S S S E     S           S S S S S S S S S S S S  S  E   
---------------------------------|---------------------------------------------|
---------------------------------|---------------------------------------------|
---------------------------------|---------------------------------------------|
---------------------------------|---------------------------------------------|
----7-8---7-L---7-8---7-L-7-8-9--|--------------7-8---7-L---7-8---7-L-7--7--7--|
--0-5-6-0-5-L-0-5-6-0-5-L-5-6-7--|--0-----------5-6-0-5-L-0-5-6-0-5-L-5--5--5--|


                                                            PM PM     
  S S S S S S S S S S S S S S E     S S S S S S S S S S S S S  S  E   
---------------------------------|-----------------------------------|
---------------------------------|-----------------------------------|
---------------------------------|-----------------------------------|
---------------------------------|-----------------------------------|
----7-8---7-L---7-8---7-L-7-8-9--|----7-8---7-L---7-8---7-L-7--7--7--|
--0-5-6-0-5-L-0-5-6-0-5-L-5-6-7--|--0-5-6-0-5-L-0-5-6-0-5-L-5--5--5--|


                                                            PM PM     
  S S S S S S S S S S S S S S E     S S S S S S S S S S S S S  S  E   
---------------------------------|-----------------------------------|
---------------------------------|-----------------------------------|
---------------------------------|-----------------------------------|
---------------------------------|-----------------------------------|
----7-8---7-L---7-8---7-L-7-8-9--|----7-8---7-L---7-8---7-L-7--7--7--|
--0-5-6-0-5-L-0-5-6-0-5-L-5-6-7--|--0-5-6-0-5-L-0-5-6-0-5-L-5--5--5--|


  S S S S S S S S S S S S S S E    
---------------------------------||
---------------------------------||
---------------------------------||
---------------------------------||
----7-8---7-L---7-8---7-L-7-8-9--||
--0-5-6-0-5-L-0-5-6-0-5-L-5-6-7--||
comments
We did not receive enough feedback on this tab! Please rate:
print report bad tab
1 2 3 4 5
1 comment total.
0 reply
Kooldood wrote on May 8 2008, 07:59 am

LOL!

*****

I want to post or [tab]
guest
You may want to rate the tab now too:
select rating
Please do not post tabs as comments. Select "correction" instead!