Oops, an error
Loading. Please wait.

Walk Tab

ver6
ver6
More versions @911Tabs.com
20,025 views 36 this week
12 commentsread comments
1 2 3 4 5
accurate
x 8
Autoscroll
+/-
esc
set tempo
stop
Contributor
NEW! There's an official Ultimate Guitar app which is ideal
for learning songs when you're away from computer. Get the app
WARNING: You are trying to view
                                    content from Ultimate-Guitar.com
                                    in an unauthorized application,
                                    which is prohibited.

                                    Please use an official Ultimate
                                    Guitar Tabs application for iPhone,
                                    iPad or Android to access legitimate
                                    chords, guitar, bass, and drum tabs
                                    from Ultimate-Guitar.com database.

                                    Type "ultimate guitar tabs" in Apple
                                    App Store's or Android Market's
                                    search to find the application.
Band- Pantera
Song- Walk
RIP DIME!!

Gtr I (D G C F A D) - 'Untitled'

   Intro
    Triplet Feel Q=116(8=s8)
    E5
   4/4
    Gtr I
    |-3-|        |--3---|            |--3---|
    E E E a     +E  +E  E E E a     +E  +E  E
||--------------------------------------------|
||o-------------------------------------------|
||--------------------------------------------|
||--------------------------------------------|
||o-------------------------------------------|
||--0---0-1pb3==(1)r(1)-0---0-1pb3==(1)r(1)-0-|


             |--3---|            |--3---|
  E E a     +E  +E  E E E a     +E  +E  E
|-----------------------------------------|
|-----------------------------------------|
|-----------------------------------------|
|-----------------------------------------|
|-----------------------------------------|
|---0-1pb3==(1)r(1)-0---0-1pb3==(1)r(1)-0-|


             |--3---|            |--3---|
  E E a     +E  +E  E E E a     +E  +E  E
|-----------------------------------------|
|-----------------------------------------|
|-----------------------------------------|
|-----------------------------------------|
|-----------------------------------------|
|---0-1pb3==(1)r(1)-0---0-1pb3==(1)r(1)-0-|


             |--3---| |--3--|
  E E a     +E  +E  E E   E E   Q
|------------------------------------||
|-----------------------------------o||
|------------------------------------||
|------------------------------------||
|-----------------------------------o||
|---0-1pb3==(1)r(1)-0---/10s4-/10\---||


                              C5/G
    |-3-|        |--3---|
    E E E a     +E  +E  E E E Q
||-------------------------------|
||o------------------------------|
||----------------------------5--|
||----------------------------5--|
||o---------------------------3--|
||--0---0-1pb3==(1)r(1)-0---0-3--|


                            Bb5/F                          D#5/Bb
  |-3-|        |--3---|          |-3-|        |--3---|
  E E E a     +E  +E  E E E Q    E E E a     +E  +E  E E E Q
|------------------------------|-------------------------------|
|------------------------------|-------------------------------|
|---------------------------3--|---------------------------8---|
|---------------------------3--|---------------------------8---|
|---------------------------1--|---------------------------6---|
|-0---0-1pb3==(1)r(1)-0---0-1--|-0---0-1pb3==(1)r(1)-0---0-6---|


        F5  G5  G#5 G5  F5          F5  G5  G#5 G5  F5
  PM--|   PM  PM  PM  PM      PM--|   PM  PM  PM  PM
  |-3-| |-3-| |-3-| |-3-|     |-3-| |-3-| |-3-| |-3-|
  E E E E E E E E E E E E     E E E E E E E E E E E E
|--------------------------||-------------------------||
|-------------------------o||-------------------------||
|--------------------------||-------------------------||
|--------------------------||-------------------------||
|-------3---5---6---5---3-o||-------3---5---6---5---3-||
|-0-0-0-1-0-3-0-4-0-3-0-1--||-0-0-0-1-0-3-0-4-0-3-0-1-||


   Verse 1
    E5
    |-3-|        |--3---|            |--3---|
    E E E a     +E  +E  E E E a     +E  +E  E
||--------------------------------------------|
||o-------------------------------------------|
||--------------------------------------------|
||--------------------------------------------|
||o-------------------------------------------|
||--0---0-1pb3==(1)r(1)-0---0-1pb3==(1)r(1)-0-|


             |--3---|            |--3---|
  E E a     +E  +E  E E E a     +E  +E  E
|-----------------------------------------|
|-----------------------------------------|
|-----------------------------------------|
|-----------------------------------------|
|-----------------------------------------|
|---0-1pb3==(1)r(1)-0---0-1pb3==(1)r(1)-0-|


                                                                D#5/Bb
             |--3---|            |--3---|              |--3---| |--3--|
  E E a     +E  +E  E E E a     +E  +E  E   E E a     +E  +E  E E S S E Q
|-----------------------------------------|---------------------------------||
|-----------------------------------------|--------------------------------o||
|-----------------------------------------|---------------------8-8-8-8-8---||
|-----------------------------------------|---------------------8-8-8-8-8---||
|-----------------------------------------|---------------------6-6-6-6-6--o||
|---0-1pb3==(1)r(1)-0---0-1pb3==(1)r(1)-0-|---0-1pb3==(1)r(1)-0-6-6-6-6-6---||


 Pre-Chorus
  $
  D5/A       Bb5/FB5/F#  E5
                         |-3-|        |--3---|            |--3---|
  W          H    H      E E E a     +E  +E  E E E a     +E  +E  E
|----------|-----------|-------------------------------------------|
|----------|-----------|-------------------------------------------|
|-7--------|-3----4----|-------------------------------------------|
|-7--------|-3----4----|-------------------------------------------|
|-5--------|-1----2----|-------------------------------------------|
|-5--------|-1----2----|-0---0-1pb3==(1)r(1)-0---0-1pb3==(1)r(1)-0-|


             |--3---|            |--3---|
  E E a     +E  +E  E E E a     +E  +E  E
|-----------------------------------------|
|-----------------------------------------|
|-----------------------------------------|
|-----------------------------------------|
|-----------------------------------------|
|---0-1pb3==(1)r(1)-0---0-1pb3==(1)r(1)-0-|


  D5/A       Bb5/FB5/F#  E5
                         |-3-|        |--3---|            |--3---|
  W          H    H      E E E a     +E  +E  E E E a     +E  +E  E
|----------|-----------|-------------------------------------------|
|----------|-----------|-------------------------------------------|
|-7--------|-3----4----|-------------------------------------------|
|-7--------|-3----4----|-------------------------------------------|
|-5--------|-1----2----|-------------------------------------------|
|-5--------|-1----2----|-0---0-1pb3==(1)r(1)-0---0-1pb3==(1)r(1)-0-|


             |--3---|            |--3---|
  E E a     +E  +E  E E E a     +E  +E  E
|-----------------------------------------|
|-----------------------------------------|
|-----------------------------------------|
|-----------------------------------------|
|-----------------------------------------|
|---0-1pb3==(1)r(1)-0---0-1pb3==(1)r(1)-0-|


  D5/A       Bb5/F      G5         F#5  F5
  W          W          W          H    H
|----------|----------|----------|-----------||
|----------|----------|----------|-----------||
|-7--------|-3--------|----------|-----------||
|-7--------|-3--------|-5--------|-4----3----||
|-5--------|-1--------|-5--------|-4----3----||
|-5--------|-1--------|-3--------|-2----1----||


 Chorus
  E5                        C5/G                           Bb5/F
  |-3-|        |--3---|          |-3-|        |--3---|
  E E E a     +E  +E  E E E Q    E E E a     +E  +E  E E E Q
|------------------------------|------------------------------|
|------------------------------|------------------------------|
|---------------------------5--|---------------------------3--|
|---------------------------5--|---------------------------3--|
|---------------------------3--|---------------------------1--|
|-0---0-1pb3==(1)r(1)-0---0-3--|-0---0-1pb3==(1)r(1)-0---0-1--|


                            D#5/Bb     F5  G5  G#5 G5F5
                                 PM--|   PM  PM  PM  PM
  |-3-|        |--3---|          |-3-| |-3-| |-3-| |-3-|
  E E E a     +E  +E  E E E Q    E E E E E E E E E E E E
|------------------------------|---------------------------|
|------------------------------|---------------------------|
|---------------------------8--|---------------------------|
|---------------------------8--|---------------------------|
|---------------------------6--|-------3---5---6---5---3---|
|-0---0-1pb3==(1)r(1)-0---0-6--|-0-0-0-1-0-3-0-4-0-3-0-1---|


  E5                        C5/G                           Bb5/F
  |-3-|        |--3---|          |-3-|        |--3---|
  E E E a     +E  +E  E E E Q    E E E a     +E  +E  E E E Q
|------------------------------|------------------------------|
|------------------------------|------------------------------|
|---------------------------5--|---------------------------3--|
|---------------------------5--|---------------------------3--|
|---------------------------3--|---------------------------1--|
|-0---0-1pb3==(1)r(1)-0---0-3--|-0---0-1pb3==(1)r(1)-0---0-1--|


                                                  To Coda
                            D#5/Bb     F5  G5  G#5 G5F5
                                 PM--|   PM  PM  PM  PM
  |-3-|        |--3---|          |-3-| |-3-| |-3-| |-3-|
  E E E a     +E  +E  E E E Q    E E E E E E E E E E E E
|------------------------------|---------------------------|
|------------------------------|---------------------------|
|---------------------------8--|---------------------------|
|---------------------------8--|---------------------------|
|---------------------------6--|-------3---5---6---5---3---|
|-0---0-1pb3==(1)r(1)-0---0-6--|-0-0-0-1-0-3-0-4-0-3-0-1---|


        F5  G5  G#5 G5  F5    E5
  PM--|   PM  PM  PM  PM
  |-3-| |-3-| |-3-| |-3-|     |-3-|        |--3---|            |--3---|
  E E E E E E E E E E E E     E E E a     +E  +E  E E E a     +E  +E  E
|-------------------------||--------------------------------------------|
|-------------------------||o-------------------------------------------|
|-------------------------||--------------------------------------------|
|-------------------------||--------------------------------------------|
|-------3---5---6---5---3-||o-------------------------------------------|
|-0-0-0-1-0-3-0-4-0-3-0-1-||--0---0-1pb3==(1)r(1)-0---0-1pb3==(1)r(1)-0-|


             |--3---|            |--3---|
  E E a     +E  +E  E E E a     +E  +E  E
|-----------------------------------------|
|-----------------------------------------|
|-----------------------------------------|
|-----------------------------------------|
|-----------------------------------------|
|---0-1pb3==(1)r(1)-0---0-1pb3==(1)r(1)-0-|


             |--3---|            |--3---|
  E E a     +E  +E  E E E a     +E  +E  E
|-----------------------------------------|
|-----------------------------------------|
|-----------------------------------------|
|-----------------------------------------|
|-----------------------------------------|
|---0-1pb3==(1)r(1)-0---0-1pb3==(1)r(1)-0-|


             |--3---| |--3--|
  E E a     +E  +E  E E   E E   Q
|------------------------------------||
|-----------------------------------o||
|------------------------------------||
|------------------------------------||
|-----------------------------------o||
|---0-1pb3==(1)r(1)-0---/10s4-/10\---||


   Verse 2
    |-3-|        |--3---|            |--3---|
    E E E a     +E  +E  E E E a     +E  +E  E
||--------------------------------------------|
||o-------------------------------------------|
||--------------------------------------------|
||--------------------------------------------|
||o-------------------------------------------|
||--0---0-1pb3==(1)r(1)-0---0-1pb3==(1)r(1)-0-|


             |--3---|            |--3---|
  E E a     +E  +E  E E E a     +E  +E  E
|-----------------------------------------|
|-----------------------------------------|
|-----------------------------------------|
|-----------------------------------------|
|-----------------------------------------|
|---0-1pb3==(1)r(1)-0---0-1pb3==(1)r(1)-0-|


                                                              D.S. al Coda
                                                                D#5/Bb
             |--3---|            |--3---|              |--3---| |--3--|
  E E a     +E  +E  E E E a     +E  +E  E   E E a     +E  +E  E E S S E Q
|-----------------------------------------|---------------------------------||
|-----------------------------------------|--------------------------------o||
|-----------------------------------------|---------------------8-8-8-8-8---||
|-----------------------------------------|---------------------8-8-8-8-8---||
|-----------------------------------------|---------------------6-6-6-6-6--o||
|---0-1pb3==(1)r(1)-0---0-1pb3==(1)r(1)-0-|---0-1pb3==(1)r(1)-0-6-6-6-6-6---||


    &
    E5                        C5/G                           Bb5/F
    |-3-|        |--3---|          |-3-|        |--3---|
    E E E a     +E  +E  E E E Q    E E E a     +E  +E  E E E Q
||-------------------------------|------------------------------|
||o------------------------------|------------------------------|
||----------------------------5--|---------------------------3--|
||----------------------------5--|---------------------------3--|
||o---------------------------3--|---------------------------1--|
||--0---0-1pb3==(1)r(1)-0---0-3--|-0---0-1pb3==(1)r(1)-0---0-1--|


                            D#5/Bb     F5  G5  G#5 G5  F5
                                 PM--|   PM  PM  PM  PM
  |-3-|        |--3---|          |-3-| |-3-| |-3-| |-3-|
  E E E a     +E  +E  E E E Q    E E E E E E E E E E E E
|------------------------------|---------------------------||
|------------------------------|--------------------------o||
|---------------------------8--|---------------------------||
|---------------------------8--|---------------------------||
|---------------------------6--|-------3---5---6---5---3--o||
|-0---0-1pb3==(1)r(1)-0---0-6--|-0-0-0-1-0-3-0-4-0-3-0-1---||


            G5  G#5 G5  F5            G5  G#5 G5  F5
  PM--|   PM  PM  PM  PM    PM--|   PM  PM  PM  PM
  |-3-| |-3-| |-3-| |-3-|   |-3-| |-3-| |-3-| |-3-|
  E E E E E E E E E E E E   E E E E E E E E E E E E
|-------------------------|-------------------------|
|-------------------------|-------------------------|
|-------------------------|-------------------------|
|-------------------------|-------------------------|
|-------3---5---6---5---3-|-------3---5---6---5---3-|
|-0-0-0-1-0-3-0-4-0-3-0-1-|-0-0-0-1-0-3-0-4-0-3-0-1-|


            G5  G#5 G5  F5
  PM--|   PM  PM  PM  PM
  |-3-| |-3-| |-3-| |-3-|
  E E E E E E E E E E E E
|--------------------------||
|--------------------------||
|--------------------------||
|--------------------------||
|-------3---5---6---5---3--||
|-0-0-0-1-0-3-0-4-0-3-0-1--||


 Guitar Solo
  N.C.
                       ~~~~~~~~~~~
   H     +Q       +E   a     +E
|--------------------------------|
|-15----(15)-----(15)-15b17-(15)-|
|-14----(14)b16--(14)------------|
|--------------------------------|
|--------------------------------|
|--------------------------------|



 ~~~~~~
         |------6-------|  |------6-------|  |------6-------|
   +Q    S  S  S  S  S  S  S  S  S  S  S  S  S  S  S  S  S  S
|-------------------------------12----------------------12-----|
|-(15)--12----12-------------------15p12-------------------15p=|
|----------15----15p14p12h14h15----------15p14p12h14h15--------|
|--------------------------------------------------------------|
|--------------------------------------------------------------|
|--------------------------------------------------------------|


                      ~~~~
                           |-----3------|
   T  T  T  T  E     +Q    E  E  a     +E   S  S  a     +S   S
|-------------14b16-(14)--12-14------------12-16------------12-|
|-12----------------------------15b17-(15)-------15b17-(15)----|
|----15p14p12--------------------------------------------------|
|--------------------------------------------------------------|
|--------------------------------------------------------------|
|--------------------------------------------------------------|


          ~~~~~~~~~
                |----3----|              |--3--|  |------6-------|
   a     +Q    +E   E  S  S  T  T  T  T  S  S  S  S  S  S  S  S  S
|------------------12-16p12----12-16p12-12-16-12----12---------------|
|-15b17-(15)--(15)----------15-------------------15----15-12h15p12---|
|--------------------------------------------------------------------|
|--------------------------------------------------------------------|
|--------------------------------------------------------------------|
|--------------------------------------------------------------------|


                              ~~~~~~~                 ~~~
   |------6-------|                    |------6-------|
   S  S  S  S  S  S  S  S  S  S  +Q    S  S  S  S  S  S
|-------------------------------------------------------|
|----12-------------------------------------------------|
|-15----15p14p12----14----12-13-(13)--12h13p12----12h13-|
|----------------14----14----------------------14-------|
|-------------------------------------------------------|
|-------------------------------------------------------|


 ~~~~~~                       ~~~~
         |----3-----|
   +Q    E  E      +E    a   +E   S  S  +Q
|------------------------------------------------|
|------------------------------------------------|
|-(13)--12h13b17==(13)-(13)r(13)-12h13-(13)b18===|
|------------------------------------------------|
|------------------------------------------------|
|------------------------------------------------|


          ~~~~                              ~~~~
                          |--3--|
   +Q    +H     E    E    Q  Q  Q E  a     +E   +E   S S
|----------------------|-15-17-18---19b22-(19)-(19)\------|
|---------------x\-/17-|-----------------------------5s7s=|
|-(13)--(13)----x\-----|-----------------------------5s7s=|
|---------------x\-----|----------------------------------|
|---------------x\-----|----------------------------------|
|----------------------|----------------------------------|


  ~      ~
  Q  E E Q  S S S S   S S S S S S S     +S   a  +E  a   +E  E a    +S   a  S
|-----------8h9p8p5-|----------------------------------------------------------|
|-5-----------------|-7h8p7p5--------------------------------------------------|
|-5-----------------|---------6h7p6b11==(6)-(6)r(6)-7b9-(7)---7b9==(7)-(7)r7p==|
|----7p5-7----------|----------------------------------------------------------|
|-------------------|----------------------------------------------------------|
|-------------------|----------------------------------------------------------|


  ~~~~~~~         T            T  ~~
  Q  +E  E +E   E Q     E E  E E  H
|--------------------|-----------------|
|--------------------|-----------------|
|-5--(5)-2-(2)s14-2s=|=14-2s14-2s14----|
|--------------------|-----------------|
|--------------------|-----------------|
|--------------------|-----------------|


   |--3--|  |--3--|  |--3--|  |--3--|
   E  E  E  E  E  E  E  E  E  E  E  E
|-------------------------------------|
|-------------------------------------|
|----14-------14-------14-------14----|
|-14----14s13----13s14----14s13----13s|
|-------------------------------------|
|-------------------------------------|


                         ~~~~~~~~
   |--3--|  |-----3------|
   E  E  E  E  E  a     +E   +Q    +E   E
|------------------------------------------|
|---------------------------------------5s=|
|----14----14----14b16-(14)-(14)--(14)\----|
|-14----14----14---------------------------|
|------------------------------------------|
|------------------------------------------|


  |-3--|  |--3--|  |--3--|  |--3--|
  E  E E  E  E  E  E  E  E  E  E  E
|---10------13-------16-------19----|
|-9----9s12----12s15----15s18----18s|
|-----------------------------------|
|-----------------------------------|
|-----------------------------------|
|-----------------------------------|


                          ~~~~~~~~
   |--3--|  |------3------|
   E  E  E  E  E  a      +E   +H        H          +Q   Q
|----22----22----22b24==(22)-(22)----|----------------------||
|-21----21----21---------------------|-22pb24=====(22)--x\--||
|------------------------------------|------------------x\--||
|------------------------------------|------------------x\--||
|------------------------------------|----------------------||
|------------------------------------|----------------------||


 Breakdown
  E5
  |-3-|        |--3---|            |--3---|
  E E E a     +E  +E  E E E a     +E  +E  E
|-------------------------------------------|
|-------------------------------------------|
|-------------------------------------------|
|-------------------------------------------|
|-------------------------------------------|
|-0---0-1pb3==(1)r(1)-0---0-1pb3==(1)r(1)-0-|


             |--3---|            |--3---|
  E E a     +E  +E  E E E a     +E  +E  E
|-----------------------------------------|
|-----------------------------------------|
|-----------------------------------------|
|-----------------------------------------|
|-----------------------------------------|
|---0-1pb3==(1)r(1)-0---0-1pb3==(1)r(1)-0-|


             |--3---|            |--3---|
  E E a     +E  +E  E E E a     +E  +E  E
|-----------------------------------------|
|-----------------------------------------|
|-----------------------------------------|
|-----------------------------------------|
|-----------------------------------------|
|---0-1pb3==(1)r(1)-0---0-1pb3==(1)r(1)-0-|


             |--3---| |--3--|
  E E a     +E  +E  E E   E E  E  +S      +S
|---------------------------------------------||
|---------------------------------------------||
|---------------------------------------------||
|---------------------------------------------||
|---------------------------------------------||
|---0-1pb3==(1)r(1)-0---/10s6s21-(21)b24-(21)-||


   Chorus
                              C5/G                           Bb5/F
    |-3-|        |--3---|          |-3-|        |--3---|
    E E E a     +E  +E  E E E Q    E E E a     +E  +E  E E E Q
||-------------------------------|------------------------------|
||o------------------------------|------------------------------|
||----------------------------5--|---------------------------3--|
||----------------------------5--|---------------------------3--|
||o---------------------------3--|---------------------------1--|
||--0---0-1pb3==(1)r(1)-0---0-3--|-0---0-1pb3==(1)r(1)-0---0-1--|


                            D#5/Bb     F5  G5  G#5 G5  F5              G5  G#5 G5  F5
                                 PM--|   PM  PM  PM  PM      PM--|   PM  PM  PM  PM
  |-3-|        |--3---|          |-3-| |-3-| |-3-| |-3-|     |-3-| |-3-| |-3-| |-3-|
  E E E a     +E  +E  E E E Q    E E E E E E E E E E E E  4x E E E E E E E E E E E E
|------------------------------|--------------------------||---------------------------||
|------------------------------|-------------------------o||---------------------------||
|---------------------------8--|--------------------------||---------------------------||
|---------------------------8--|--------------------------||---------------------------||
|---------------------------6--|-------3---5---6---5---3-o||-------3---5---6---5---3---||
|-0---0-1pb3==(1)r(1)-0---0-6--|-0-0-0-1-0-3-0-4-0-3-0-1--||-0-0-0-1-0-3-0-4-0-3-0-1---||


   Outro
    E5
    PM--|                 PM--|
    |-3-|        |--3---| |-3-|        |--3---|
    E E E a     +E  +E  E E E E a     +E  +E  E
||----------------------------------------------|
||o---------------------------------------------|
||----------------------------------------------|
||----------------------------------------------|
||o---------------------------------------------|
||--0-0-0-1pb3==(1)r(1)-0-0-0-0-1pb3==(1)r(1)-0-|


  PM--|                 PM--|
  |-3-|        |--3---| |-3-|        |--3---|
  E E E a     +E  +E  E E E E a     +E  +E  E 12x
|----------------------------------------------||
|---------------------------------------------o||
|----------------------------------------------||
|----------------------------------------------||
|---------------------------------------------o||
|-0-0-0-1pb3==(1)r(1)-0-0-0-0-1pb3==(1)r(1)-0--||


Duration Legend
---------------
W - whole; H - half; Q - quarter; E - 8th; S - 16th; T - 32nd; X - 64th; a - acciaccatura
+ - note tied to previous; . - note dotted; .. - note double dotted
Uncapitalized letters represent notes that are staccato (1/2 duration)
Irregular groupings are notated above the duration line
Duration letters will always appear directly above the note/fret number it represents the
duration for.  Duration letters with no fret number below them represent rests.  Multi-
bar rests are notated in the form Wxn, where n is the number of bars to rest for.  Low
melody durations appear below the staff

Tablature Legend
----------------
 h   - hammer-on
 p   - pull-off
 b   - bend
 pb  - pre-bend
 r   - bend release (if no number after the r, then release immediately)
 /\  - slide into or out of (from/to "nowhere")
 s   - legato slide
 S   - shift slide
<n>  - natural harmonic
[n]  - artificial harmonic
n(n) - tapped harmonic
 ~   - vibrato
 tr  - trill
 T   - tap
 TP  - trem. picking
 PM  - palm muting
\n/  - tremolo bar dip; n = amount to dip
 \n  - tremolo bar down
 n/  - tremolo bar up
/n\  - tremolo bar inverted dip
 =   - hold bend; also acts as connecting device for hammers/pulls
 <>  - volume swell (louder/softer)
 x   - on rhythm slash represents muted slash
 o   - on rhythm slash represents single note slash

Misc Legend
-----------
 |  - bar
||  - double bar
||o - repeat start
o|| - repeat end
*|  - double bar (ending)
 :  - bar (freetime)
 $  - Segno
 &  - Coda
Tempo markers - <E/E./Q/Q./H/H.> = BPM(8/16=s8/s16), where s8 = swing 8ths, s16 = swing 16ths


***************************************************************************************
* Generated using Power Tab Editor by Brad Larsen - http://powertab.guitarnetwork.org *
***************************************************************************************
comments
print report bad tab
12 comments total. Showing first comments.
0 reply
kornrules09 wrote on March 3 2005, 12:00 am

I didn't think the main riff was right, I could be wrong, but I'm not.

0 reply
studded mind2 wrote on June 14 2005, 12:00 am

honestly, dude,dudette, im not sure but i couldnt read this for crap. but i give you a 10 for having the correct tuning

0 reply
Lycan wrote on February 25 2006, 08:27 am

bro that intro riff is wrong, it's

Bend 1/2 note Bend again
V V
D --0--0-1-0--0--0-1-0

I want to post or [tab]
guest
You may want to rate the tab now too:
select rating
Please do not post tabs as comments. Select "correction" instead!