Oops, an error
Loading. Please wait.

Alive N Out Of Control Tab

ver1
ver1

Whole song

Interactive

More versions @911Tabs.com
17,086 views 18 this week
10 commentsread comments
1 2 3 4 5
excellent!
x 14
Autoscroll
+/-
esc
set tempo
stop
Contributor
Tuning
C G C F A D
Hey! There's an official Ultimate Guitar app which is ideal
for learning songs when you're away from computer. Get the app
WARNING: You are trying to view
                                    content from Ultimate-Guitar.com
                                    in an unauthorized application,
                                    which is prohibited.

                                    Please use an official Ultimate
                                    Guitar Tabs application for iPhone,
                                    iPad or Android to access legitimate
                                    chords, guitar, bass, and drum tabs
                                    from Ultimate-Guitar.com database.

                                    Type "ultimate guitar tabs" in Apple
                                    App Store's or Android Market's
                                    search to find the application.
Papa Roach - Alive N Out Of Control

Album - The Paramoir Sessions

Tuning - Drop C

Intro
    Q=235
    N.C.
   4/4
    Gtr I
    ~                       ~
    W          +W           W          +W
||-----------|------------|----------|--------|
||o----------|------------|----------|--------|
||-----------|------------|----------|--------|
||-----------|------------|----------|--------|
||o-5--------|-(5)--------|-8--------|-(8)----|
||-----------|------------|----------|--------|


  ~                       ~
  W          +W           W          +W
|----------|------------|----------|---------||
|----------|------------|----------|--------o||
|----------|------------|----------|---------||
|----------|------------|----------|---------||
|----------|------------|----------|--------o||
|-8--------|-(8)--------|-5--------|-(5)-----||


    D5                                   F5  D5  F5    D5          F5
    PM|    PM|      PM--------|      PM|     PM|       PM--------|
    E E Q  E E Q    E E E E E E Q    E E  Q  E E  Q    E E E E E E  Q
||----------------|----------------|-----------------|------------------|
||o---------------|----------------|-----------------|------------------|
||------7------7--|-------------7--|-----10------10--|-------------10---|
||------7------7--|-------------7--|-----10------10--|-------------10---|
||o-0-0-5--0-0-5--|-0-0-0-0-0-0-5--|-0-0--8--0-0--8--|-0-0-0-0-0-0--8---|
||--0-0----0-0----|-0-0-0-0-0-0----|-0-0-----0-0-----|-0-0-0-0-0-0------|


  D5  Bb5D5  Bb5  D5          Bb5  D5  G5 D5  G5   D5          G5
  PM|    PM|      PM--------|      PM|    PM|      PM--------|
  E E Q  E E Q    E E E E E E Q    E E Q  E E Q    E E E E E E Q
|---------------|----------------|---------------|-----------------||
|---------------|----------------|---------------|----------------o||
|---------------|----------------|---------------|-----------------||
|-----8------8--|-------------8--|-----5------5--|-------------5---||
|-0-0-8--0-0-8--|-0-0-0-0-0-0-8--|-0-0-5--0-0-5--|-0-0-0-0-0-0-5--o||
|-0-0-8--0-0-8--|-0-0-0-0-0-0-8--|-0-0-5--0-0-5--|-0-0-0-0-0-0-5---||


   Verse
    D5
    PM---------------------------------|
    E E H.        Q  E E E E E E   E E H.        W     4x
||--------------|----------------|-------------|-------||
||o-------------|----------------|-------------|------o||
||--------------|----------------|-------------|-------||
||--------------|----------------|-------------|-------||
||o-0-0---------|----0-0---0-0---|-0-0---------|------o||
||--0-0---------|----0-0---0-0---|-0-0---------|-------||


  N.C.
  E E E E E E E E   E E E E E E E E   E E E E E E E E   E E E E E E Q
|-----------------|-----------------|-----------------|----------------|
|-----------------|-----------------|-----------------|----------------|
|-----------------|-----------------|-----------------|----------------|
|-----------------|-----------------|-----------------|----------------|
|-----------------|-----------------|-----------------|-------------5--|
|-0-0-3-0-2-0-3-0-|-5-0-0-3-0-0-2-3-|-0-0-3-0-2-0-3-0-|-5-0-0-3-0-0----|


                                                        D5
                                                        PM------------|
  E E E E E E E E   E E E E E E E E   E E E E E E E E   E E E E E E E E
|-----------------|-----------------|-----------------|-----------------|
|-----------------|-----------------|-----------------|-----------------|
|-----------------|-----------------|-----------------|-----------------|
|-----------------|-----------------|-----------------|-----------------|
|-----------------|-----------------|-----------------|-0-0-0-0-0-0-0-0-|
|-0-0-3-0-2-0-3-0-|-5-0-0-3-0-0-2-3-|-0-0-3-0-2-0-3-0-|-0-0-0-0-0-0-0-0-|


 Chorus
  D5                              F5
  PM|                         PM|
  E E  H    E E    W          E E  H    E E    W
|---------------|-----------|---------------|-------|
|---------------|-----------|---------------|-------|
|---------------|-----------|-----10--------|-10----|
|-----12--------|-12--------|-----10--------|-10----|
|-0-0-12----x-x-|-12--------|-0-0--8----x-x-|--8----|
|-0-0-12----x-x-|-12--------|-0-0-------x-x-|-------|


  D5  Bb5                   D5  G5
  PM|                       PM|
  E E H    E E   W          E E H    E E   W
|--------------|----------|--------------|------|
|--------------|----------|--------------|------|
|--------------|----------|--------------|------|
|-----8--------|-8--------|-----5--------|-5----|
|-0-0-8----x-x-|-8--------|-0-0-5----x-x-|-5----|
|-0-0-8----x-x-|-8--------|-0-0-5----x-x-|-5----|


  D5                              F5
  PM|                         PM|
  E E  H    E E    W          E E  H    E E    W
|---------------|-----------|---------------|-------|
|---------------|-----------|---------------|-------|
|---------------|-----------|-----10--------|-10----|
|-----12--------|-12--------|-----10--------|-10----|
|-0-0-12----x-x-|-12--------|-0-0--8----x-x-|--8----|
|-0-0-12----x-x-|-12--------|-0-0-------x-x-|-------|


  D5  Bb5                   D5  G5 D5  G5   D5  G5 D5  G5
  PM|                       PM|    PM|      PM|    PM|
  E E H    E E   W          E E Q  E E Q    E E Q  E E Q
|--------------|----------|---------------|---------------|
|--------------|----------|---------------|---------------|
|--------------|----------|---------------|---------------|
|-----8--------|-8--------|-----5------5--|-----5------5--|
|-0-0-8----x-x-|-8--------|-0-0-5--0-0-5--|-0-0-5--0-0-5--|
|-0-0-8----x-x-|-8--------|-0-0-5--0-0-5--|-0-0-5--0-0-5--|


   Verse
    D5
    PM-------------------------------------------|
    E E H.        Q  E E E E E E   E E H.        W     4x
||--------------|----------------|-------------|-------||
||o-------------|----------------|-------------|------o||
||--------------|----------------|-------------|-------||
||--------------|----------------|-------------|-------||
||o-0-0---------|----0-0---0-0---|-0-0---------|------o||
||--0-0---------|----0-0---0-0---|-0-0---------|-------||


  N.C.
  E E E E E E E E   E E E E E E E E   E E E E E E E E   E E E E E E Q
|-----------------|-----------------|-----------------|----------------|
|-----------------|-----------------|-----------------|----------------|
|-----------------|-----------------|-----------------|----------------|
|-----------------|-----------------|-----------------|----------------|
|-----------------|-----------------|-----------------|-------------5--|
|-0-0-3-0-2-0-3-0-|-5-0-0-3-0-0-2-3-|-0-0-3-0-2-0-3-0-|-5-0-0-3-0-0----|


                                                        D5
                                                        PM------------|
  E E E E E E E E   E E E E E E E E   E E E E E E E E   E E E E E E E E
|-----------------|-----------------|-----------------|-----------------|
|-----------------|-----------------|-----------------|-----------------|
|-----------------|-----------------|-----------------|-----------------|
|-----------------|-----------------|-----------------|-----------------|
|-----------------|-----------------|-----------------|-0-0-0-0-0-0-0-0-|
|-0-0-3-0-2-0-3-0-|-5-0-0-3-0-0-2-3-|-0-0-3-0-2-0-3-0-|-0-0-0-0-0-0-0-0-|


 Chorus
  D5                              F5
  PM|                         PM|
  E E  H    E E    W          E E  H    E E    W
|---------------|-----------|---------------|-------|
|---------------|-----------|---------------|-------|
|---------------|-----------|-----10--------|-10----|
|-----12--------|-12--------|-----10--------|-10----|
|-0-0-12----x-x-|-12--------|-0-0--8----x-x-|--8----|
|-0-0-12----x-x-|-12--------|-0-0-------x-x-|-------|


  D5  Bb5                   D5  G5
  PM|                       PM|
  E E H    E E   W          E E H    E E   W
|--------------|----------|--------------|------|
|--------------|----------|--------------|------|
|--------------|----------|--------------|------|
|-----8--------|-8--------|-----5--------|-5----|
|-0-0-8----x-x-|-8--------|-0-0-5----x-x-|-5----|
|-0-0-8----x-x-|-8--------|-0-0-5----x-x-|-5----|


  D5                              F5
  PM|                         PM|
  E E  H    E E    W          E E  H    E E    W
|---------------|-----------|---------------|-------|
|---------------|-----------|---------------|-------|
|---------------|-----------|-----10--------|-10----|
|-----12--------|-12--------|-----10--------|-10----|
|-0-0-12----x-x-|-12--------|-0-0--8----x-x-|--8----|
|-0-0-12----x-x-|-12--------|-0-0-------x-x-|-------|


  D5  Bb5                     D5  G5 D5  G5   D5  G5 D5  G5
  PM|                         PM|    PM|      PM|    PM|
  E E H    E E   W            E E Q  E E Q    E E Q  E E Q
|--------------|----------||----------------|----------------||
|--------------|----------||o---------------|---------------o||
|--------------|----------||----------------|----------------||
|-----8--------|-8--------||------5------5--|-----5------5---||
|-0-0-8----x-x-|-8--------||o-0-0-5--0-0-5--|-0-0-5--0-0-5--o||
|-0-0-8----x-x-|-8--------||--0-0-5--0-0-5--|-0-0-5--0-0-5---||


 Verse
  D5
  PM-------------------------------------------|
  E E H.        Q  E E E E E E   E E H.        W
|-------------|----------------|-------------|------|
|-------------|----------------|-------------|------|
|-------------|----------------|-------------|------|
|-------------|----------------|-------------|------|
|-0-0---------|----0-0---0-0---|-0-0---------|------|
|-0-0---------|----0-0---0-0---|-0-0---------|------|


  PM---------------------------------|
  E E H.        Q  E E E E E E   E E H.        H     H
|-------------|----------------|-------------|-------------|
|-------------|----------------|-------------|-------------|
|-------------|----------------|-------------|-------------|
|-------------|----------------|-------------|-------------|
|-0-0---------|----0-0---0-0---|-0-0---------|------12\----|
|-0-0---------|----0-0---0-0---|-0-0---------|------12\----|


  PM---------------------------------|
  E E H.        Q  E E E E E E   E E H.        W
|-------------|----------------|-------------|------|
|-------------|----------------|-------------|------|
|-------------|----------------|-------------|------|
|-------------|----------------|-------------|------|
|-0-0---------|----0-0---0-0---|-0-0---------|------|
|-0-0---------|----0-0---0-0---|-0-0---------|------|


  PM-----------------------------------|
  E H..         +Q   E E E E E E   E E H.        W
|-------------|------------------|-------------|------|
|-------------|------------------|-------------|------|
|-------------|------------------|-------------|------|
|-------------|------------------|-------------|------|
|-0-0---------|-(0)--0-0---0-0---|-0-0---------|------|
|-0-0---------|-(0)--0-0---0-0---|-0-0---------|------|


 Interlude
  D5
  PM--------------------------------------------
  E E  H.                 Q    E  E  E E  E  E
|----------------------|-----------------------|
|----------------------|-----------------------|
|----------------------|-----------------------|
|----------------------|-----------------------|
|-0-0------------------|-------0--0----0--0----|
|-0-0------------------|-------0--0----0--0----|
|
| Gtr II
| Q    E   E E  E  E E    E  E E  E  E E  E  E
|----------------------|-----------------------|
|----------------------|-----------------------|
|----------------------|-----------------------|
|-0---12--10-0-12-10-0-|-12-10-0-12-10-0-12-10-|
|----------------------|-----------------------|
|----------------------|-----------------------|

  E E  H.                 W
|----------------------|-----------------------|
|----------------------|-----------------------|
|----------------------|-----------------------|
|----------------------|-----------------------|
|-0-0------------------|-----------------------|
|-0-0------------------|-----------------------|
|
| Q    E   E E  E  E E    E  E E  E  E E  E  E
|----------------------|-----------------------|
|----------------------|-----------------------|
|----------------------|-----------------------|
|-0---15--12-0-15-12-0-|-15-12-0-15-12-0-15-12-|
|----------------------|-----------------------|
|----------------------|-----------------------|


  PM--------------------------------------------
  E E  H.                 Q    E  E  E E  E  E
|----------------------|-----------------------|
|----------------------|-----------------------|
|----------------------|-----------------------|
|----------------------|-----------------------|
|-0-0------------------|-------0--0----0--0----|
|-0-0------------------|-------0--0----0--0----|
|
| Q    E   E E  E  E E    E  E E  E  E E  E  E
|----------------------|-----------------------|
|----------------------|-----------------------|
|----------------------|-----------------------|
|-0---14--12-0-14-12-0-|-14-12-0-14-12-0-14-12-|
|----------------------|-----------------------|
|----------------------|-----------------------|


 -----|
  E E  H.                 W
|----------------------|-----------------------|
|----------------------|-----------------------|
|----------------------|-----------------------|
|----------------------|-----------------------|
|-0-0------------------|-----------------------|
|-0-0------------------|-----------------------|
|
| Q    E   E E  E  E E    E  E E  E  E E  E  E
|----------------------|-----------------------|
|----------------------|-----------------------|
|----------------------|-----------------------|
|-0---15--12-0-15-12-0-|-17-15-0-17-15-0-17-15-|
|----------------------|-----------------------|
|----------------------|-----------------------|


  PM--------------------------------------------
  E E  H.                 Q    E  E  E E  E  E
|----------------------|-----------------------|
|----------------------|-----------------------|
|----------------------|-----------------------|
|----------------------|-----------------------|
|-0-0------------------|-------0--0----0--0----|
|-0-0------------------|-------0--0----0--0----|
|
| Q    E   E E  E  E E    E  E E  E  E E  E  E
|----------------------|-----------------------|
|----------------------|-----------------------|
|----------------------|-----------------------|
|-0---12--10-0-12-10-0-|-12-10-0-12-10-0-12-10-|
|----------------------|-----------------------|
|----------------------|-----------------------|


 ---|
  E E  H.                 W
|----------------------|-----------------------|
|----------------------|-----------------------|
|----------------------|-----------------------|
|----------------------|-----------------------|
|-0-0------------------|-----------------------|
|-0-0------------------|-----------------------|
|
| Q    E   E E  E  E E    E  E E  E  E E  E  E
|----------------------|-----------------------|
|----------------------|-----------------------|
|----------------------|-----------------------|
|-0---15--12-0-15-12-0-|-15-12-0-15-12-0-15-12-|
|----------------------|-----------------------|
|----------------------|-----------------------|


  PM--------------------------------------------
  E E  H.                 Q    E  E  E E  E  E
|----------------------|-----------------------|
|----------------------|-----------------------|
|----------------------|-----------------------|
|----------------------|-----------------------|
|-0-0------------------|-------0--0----0--0----|
|-0-0------------------|-------0--0----0--0----|
|
| Q    E   E E  E  E E    E  E E  E  E E  E  E
|----------------------|-----------------------|
|----------------------|-----------------------|
|----------------------|-----------------------|
|-0---14--12-0-14-12-0-|-14-12-0-14-12-0-14-12-|
|----------------------|-----------------------|
|----------------------|-----------------------|


 -----|
  E E  H.               W
|--------------------|-----------|
|--------------------|-----------|
|--------------------|-----------|
|--------------------|-----------|
|-0-0----------------|-----------|
|-0-0----------------|-----------|
|
| Q    E   E E E E E    W
|--------------------|-----------|
|--------------------|-----------|
|--------------------|-----------|
|-0---15--12-0-0-0-0-|-17b18r====|
|--------------------|-----------|
|--------------------|-----------|


 Bridge
  D5
  PM|       PM|         PM---------|
  E E  Q    E E  Q      E E E  E E E  Q
|--------------------|---------------------|
|--------------------|---------------------|
|------7---------7---|----------------7----|
|------7---------7---|----------------7----|
|-0-0--5----0-0--5---|--0-0-0--0-0-0--5----|
|-0-0-------0-0------|--0-0-0--0-0-0-------|
|
| Gtr III
| E E  E E  E E  E E    E E E  E E E  E  E
|--------------------|---------------------|
|--------------------|---------------------|
|--------------------|---------------------|
|-0-0-15-0-14-0-15-0-|-17-0-0-15-0-0-14h15-|
|--------------------|---------------------|
|--------------------|---------------------|


      F5   D5   F5     D5            F5
  PM|       PM|         PM---------|
  E E  Q    E E  Q      E E E  E E E  Q
|--------------------|-------------------|
|--------------------|-------------------|
|-----10--------10---|---------------10--|
|-----10--------10---|---------------10--|
|-0-0--8----0-0--8---|--0-0-0--0-0-0--8--|
|-0-0-------0-0------|--0-0-0--0-0-0-----|
|
| E E  E E  E E  E E    E E E  E E E  Q
|--------------------|-------------------|
|--------------------|-------------------|
|--------------------|-------------------|
|-0-0-15-0-14-0-15-0-|-17-0-0-15-0-0-12--|
|--------------------|-------------------|
|--------------------|-------------------|


  D5  Bb5  D5   Bb5    D5            Bb5
  PM|       PM|         PM---------|
  E E  Q    E E  Q      E E E  E E E  Q
|--------------------|---------------------|
|--------------------|---------------------|
|--------------------|---------------------|
|------8---------8---|----------------8----|
|-0-0--8----0-0--8---|--0-0-0--0-0-0--8----|
|-0-0--8----0-0--8---|--0-0-0--0-0-0--8----|
|
| E E  E E  E E  E E    E E E  E E E  E  E
|--------------------|---------------------|
|--------------------|---------------------|
|--------------------|---------------------|
|-0-0-15-0-14-0-15-0-|-17-0-0-15-0-0-14h15-|
|--------------------|---------------------|
|--------------------|---------------------|


  D5  G5   D5   G5     D5             G5
  PM|       PM|         PM----------|
  E E  Q    E E  Q      E E  E E  E E  Q
|--------------------|--------------------|
|--------------------|--------------------|
|--------------------|--------------------|
|------5---------5---|-----------------5--|
|-0-0--5----0-0--5---|--0-0--0-0--0-0--5--|
|-0-0--5----0-0--5---|--0-0--0-0--0-0--5--|
|
| E E  E E  E E  E E    E E  E E  E E  Q
|--------------------|--------------------|
|--------------------|--------------------|
|--------------------|--------------------|
|-0-0-15-0-14-0-15-0-|-17-0-15-0-14-0-15--|
|--------------------|--------------------|
|--------------------|--------------------|


  D5
  PM|       PM|         PM---------|
  E E  Q    E E  Q      E E E  E E E  Q
|--------------------|---------------------|
|--------------------|---------------------|
|------7---------7---|----------------7----|
|------7---------7---|----------------7----|
|-0-0--5----0-0--5---|--0-0-0--0-0-0--5----|
|-0-0-------0-0------|--0-0-0--0-0-0-------|
|
| E E  E E  E E  E E    E E E  E E E  E  E
|--------------------|---------------------|
|--------------------|---------------------|
|--------------------|---------------------|
|-0-0-15-0-14-0-15-0-|-17-0-0-15-0-0-14h15-|
|--------------------|---------------------|
|--------------------|---------------------|


      F5   D5   F5     D5            F5
  PM|       PM|         PM---------|
  E E  Q    E E  Q      E E E  E E E  Q
|--------------------|-------------------|
|--------------------|-------------------|
|-----10--------10---|---------------10--|
|-----10--------10---|---------------10--|
|-0-0--8----0-0--8---|--0-0-0--0-0-0--8--|
|-0-0-------0-0------|--0-0-0--0-0-0-----|
|
| E E  E E  E E  E E    E E E  E E E  Q
|--------------------|-------------------|
|--------------------|-------------------|
|--------------------|-------------------|
|-0-0-15-0-14-0-15-0-|-17-0-0-15-0-0-12--|
|--------------------|-------------------|
|--------------------|-------------------|


  D5  Bb5  D5   Bb5    D5            Bb5
  PM|       PM|         PM---------|
  E E  Q    E E  Q      E E E  E E E  Q
|--------------------|---------------------|
|--------------------|---------------------|
|--------------------|---------------------|
|------8---------8---|----------------8----|
|-0-0--8----0-0--8---|--0-0-0--0-0-0--8----|
|-0-0--8----0-0--8---|--0-0-0--0-0-0--8----|
|
| E E  E E  E E  E E    E E E  E E E  E  E
|--------------------|---------------------|
|--------------------|---------------------|
|--------------------|---------------------|
|-0-0-15-0-14-0-15-0-|-17-0-0-15-0-0-14h15-|
|--------------------|---------------------|
|--------------------|---------------------|


  D5  G5   D5   G5     D5
  PM|       PM|         PM---------------|
  E E  Q    E E  Q      E E  E E  E E  E E
|--------------------|---------------------|
|--------------------|---------------------|
|--------------------|---------------------|
|------5---------5---|---------------------|
|-0-0--5----0-0--5---|--0-0--0-0--0-0--0-0-|
|-0-0--5----0-0--5---|--0-0--0-0--0-0--0-0-|
|
| E E  E E  E E  E E    E E  E E  E E  Q
|--------------------|---------------------|
|--------------------|---------------------|
|--------------------|---------------------|
|-0-0-15-0-14-0-15-0-|-17-0-15-0-14-0-15---|
|--------------------|---------------------|
|--------------------|---------------------|


 Chorus
  D5
  PM|
  E E  H         E E    W
|--------------------|-------------------|
|--------------------|-------------------|
|--------------------|-------------------|
|-----12-------------|-12----------------|
|-0-0-12---------x-x-|-12----------------|
|-0-0-12---------x-x-|-12----------------|
|
| Gtr II
| E E  E E  E E  E E    Q.    Q.    E  E
|--------------------|-------------------|
|--------------------|-------------------|
|--------------------|-------------------|
|-0-0-15-0-14-0-15-0-|-17----15----14h15-|
|--------------------|-------------------|
|--------------------|-------------------|


      F5
  PM|
  E E  H         E E    W
|--------------------|-----------------|
|--------------------|-----------------|
|-----10-------------|-10--------------|
|-----10-------------|-10--------------|
|-0-0--8---------x-x-|--8--------------|
|-0-0------------x-x-|-----------------|
|
| E E  E E  E E  E E    Q.    Q.    Q
|--------------------|-----------------|
|--------------------|-----------------|
|--------------------|-----------------|
|-0-0-15-0-14-0-15-0-|-17----15----12--|
|--------------------|-----------------|
|--------------------|-----------------|


  D5  Bb5
  PM|
  E E  H         E E    W
|--------------------|-------------------|
|--------------------|-------------------|
|--------------------|-------------------|
|------8-------------|--8----------------|
|-0-0--8---------x-x-|--8----------------|
|-0-0--8---------x-x-|--8----------------|
|
| E E  E E  E E  E E    Q.    Q.    E  E
|--------------------|-------------------|
|--------------------|-------------------|
|--------------------|-------------------|
|-0-0-15-0-14-0-15-0-|-17----15----14h15-|
|--------------------|-------------------|
|--------------------|-------------------|


  D5  G5
  PM|
  E E  H         E E    W
|--------------------|--------------------|
|--------------------|--------------------|
|--------------------|--------------------|
|------5-------------|--5-----------------|
|-0-0--5---------x-x-|--5-----------------|
|-0-0--5---------x-x-|--5-----------------|
|
| E E  E E  E E  E E    E E  E E  E E  Q
|--------------------|--------------------|
|--------------------|--------------------|
|--------------------|--------------------|
|-0-0-15-0-14-0-15-0-|-17-0-15-0-14-0-15--|
|--------------------|--------------------|
|--------------------|--------------------|


  D5
  PM|
  E E  H         E E    W
|--------------------|-------------------|
|--------------------|-------------------|
|--------------------|-------------------|
|-----12-------------|-12----------------|
|-0-0-12---------x-x-|-12----------------|
|-0-0-12---------x-x-|-12----------------|
|
| E E  E E  E E  E E    Q.    Q.    E  E
|--------------------|-------------------|
|--------------------|-------------------|
|--------------------|-------------------|
|-0-0-15-0-14-0-15-0-|-17----15----14h15-|
|--------------------|-------------------|
|--------------------|-------------------|


      F5
  PM|
  E E  H         E E    W
|--------------------|-----------------|
|--------------------|-----------------|
|-----10-------------|-10--------------|
|-----10-------------|-10--------------|
|-0-0--8---------x-x-|--8--------------|
|-0-0------------x-x-|-----------------|
|
| E E  E E  E E  E E    Q.    Q.    Q
|--------------------|-----------------|
|--------------------|-----------------|
|--------------------|-----------------|
|-0-0-15-0-14-0-15-0-|-17----15----12--|
|--------------------|-----------------|
|--------------------|-----------------|


  D5  Bb5
  PM|
  E E  H         E E    W
|--------------------|-------------------|
|--------------------|-------------------|
|--------------------|-------------------|
|------8-------------|--8----------------|
|-0-0--8---------x-x-|--8----------------|
|-0-0--8---------x-x-|--8----------------|
|
| E E  E E  E E  E E    Q.    Q.    E  E
|--------------------|-------------------|
|--------------------|-------------------|
|--------------------|-------------------|
|-0-0-15-0-14-0-15-0-|-17----15----14h15-|
|--------------------|-------------------|
|--------------------|-------------------|


  D5  G5   D5   G5     D5   G5   D5   G5
  PM|       PM|         PM|       PM|
  E E  Q    E E  Q      E E  Q    E E  Q
|--------------------|--------------------|
|--------------------|--------------------|
|--------------------|--------------------|
|------5---------5---|-------5---------5--|
|-0-0--5----0-0--5---|--0-0--5----0-0--5--|
|-0-0--5----0-0--5---|--0-0--5----0-0--5--|
|
| E E  E E  E E  E E    E E  E E  E E  Q
|--------------------|--------------------|
|--------------------|--------------------|
|--------------------|--------------------|
|-0-0-15-0-14-0-15-0-|-17-0-15-0-14-0-15--|
|--------------------|--------------------|
|--------------------|--------------------|


 Out-Chorus
  D5
  PM|       PM|         PM---------|
  E E  Q    E E  Q      E E E  E E E  Q
|--------------------|---------------------|
|--------------------|---------------------|
|------7---------7---|----------------7----|
|------7---------7---|----------------7----|
|-0-0--5----0-0--5---|--0-0-0--0-0-0--5----|
|-0-0-------0-0------|--0-0-0--0-0-0-------|
|
| E E  E E  E E  E E    E E E  E E E  E  E
|--------------------|---------------------|
|--------------------|---------------------|
|--------------------|---------------------|
|-0-0-15-0-14-0-15-0-|-17-0-0-15-0-0-14h15-|
|--------------------|---------------------|
|--------------------|---------------------|


      F5
  PM|       PM|         PM---------|
  E E  Q    E E  Q      E E E  E E E  Q
|--------------------|-------------------|
|--------------------|-------------------|
|-----10--------10---|---------------10--|
|-----10--------10---|---------------10--|
|-0-0--8----0-0--8---|--0-0-0--0-0-0--8--|
|-0-0-------0-0------|--0-0-0--0-0-0-----|
|
| E E  E E  E E  E E    E E E  E E E  Q
|--------------------|-------------------|
|--------------------|-------------------|
|--------------------|-------------------|
|-0-0-15-0-14-0-15-0-|-17-0-0-15-0-0-12--|
|--------------------|-------------------|
|--------------------|-------------------|


  D5  Bb5  D5   Bb5    D5            Bb5
  PM|       PM|         PM---------|
  E E  Q    E E  Q      E E E  E E E  Q
|--------------------|---------------------|
|--------------------|---------------------|
|--------------------|---------------------|
|------8---------8---|----------------8----|
|-0-0--8----0-0--8---|--0-0-0--0-0-0--8----|
|-0-0--8----0-0--8---|--0-0-0--0-0-0--8----|
|
| E E  E E  E E  E E    E E E  E E E  E  E
|--------------------|---------------------|
|--------------------|---------------------|
|--------------------|---------------------|
|-0-0-15-0-14-0-15-0-|-17-0-0-15-0-0-14h15-|
|--------------------|---------------------|
|--------------------|---------------------|


  D5  G5   D5   G5     D5             G5
  PM|       PM|         PM----------|
  E E  Q    E E  Q      E E  E E  E E  Q
|--------------------|--------------------|
|--------------------|--------------------|
|--------------------|--------------------|
|------5---------5---|-----------------5--|
|-0-0--5----0-0--5---|--0-0--0-0--0-0--5--|
|-0-0--5----0-0--5---|--0-0--0-0--0-0--5--|
|
| E E  E E  E E  E E    E E  E E  E E  Q
|--------------------|--------------------|
|--------------------|--------------------|
|--------------------|--------------------|
|-0-0-15-0-14-0-15-0-|-17-0-15-0-14-0-15--|
|--------------------|--------------------|
|--------------------|--------------------|


  D5
  PM|       PM|         PM---------|
  E E  Q    E E  Q      E E E  E E E  Q
|--------------------|---------------------|
|--------------------|---------------------|
|------7---------7---|----------------7----|
|------7---------7---|----------------7----|
|-0-0--5----0-0--5---|--0-0-0--0-0-0--5----|
|-0-0-------0-0------|--0-0-0--0-0-0-------|
|
| E E  E E  E E  E E    E E E  E E E  E  E
|--------------------|---------------------|
|--------------------|---------------------|
|--------------------|---------------------|
|-0-0-15-0-14-0-15-0-|-17-0-0-15-0-0-14h15-|
|--------------------|---------------------|
|--------------------|---------------------|


      F5   D5   F5     D5            F5
  PM|       PM|         PM---------|
  E E  Q    E E  Q      E E E  E E E  Q
|--------------------|-------------------|
|--------------------|-------------------|
|-----10--------10---|---------------10--|
|-----10--------10---|---------------10--|
|-0-0--8----0-0--8---|--0-0-0--0-0-0--8--|
|-0-0-------0-0------|--0-0-0--0-0-0-----|
|
| E E  E E  E E  E E    E E E  E E E  Q
|--------------------|-------------------|
|--------------------|-------------------|
|--------------------|-------------------|
|-0-0-15-0-14-0-15-0-|-17-0-0-15-0-0-12--|
|--------------------|-------------------|
|--------------------|-------------------|


  D5  Bb5  D5   Bb5    D5            Bb5
  PM|       PM|         PM---------|
  E E  Q    E E  Q      E E E  E E E  Q
|--------------------|---------------------|
|--------------------|---------------------|
|--------------------|---------------------|
|------8---------8---|----------------8----|
|-0-0--8----0-0--8---|--0-0-0--0-0-0--8----|
|-0-0--8----0-0--8---|--0-0-0--0-0-0--8----|
|
| E E  E E  E E  E E    E E E  E E E  E  E
|--------------------|---------------------|
|--------------------|---------------------|
|--------------------|---------------------|
|-0-0-15-0-14-0-15-0-|-17-0-0-15-0-0-14h15-|
|--------------------|---------------------|
|--------------------|---------------------|


  D5  G5   D5   G5     D5             G5    D5
  PM|       PM|         PM----------|        PM|
  E E  Q    E E  Q      E E  E E  E E  Q     E  E H.
|--------------------|--------------------|-------------*|
|--------------------|--------------------|-------------*|
|--------------------|--------------------|-------------*|
|------5---------5---|-----------------5--|-------------*|
|-0-0--5----0-0--5---|--0-0--0-0--0-0--5--|--0--0-------*|
|-0-0--5----0-0--5---|--0-0--0-0--0-0--5--|--0--0-------*|
|
| E E  E E  E E  E E    E E  E E  E E  Q     E  E H.
|--------------------|--------------------|-------------*|
|--------------------|--------------------|-------------*|
|-----17---15---14---|-15---14------------|-------------*|
|-0-0----0----0----0-|----0----0-17-0-15--|-12-12-------*|
|--------------------|--------------------|-------------*|
|--------------------|--------------------|-------------*|
--------------------------------------------------------------------------------
Tablature Legend
----------------
 h   - hammer-on
 p   - pull-off
 b   - bend
 pb  - pre-bend
 r   - bend release (if no number after the r, then release immediately)
 /\  - slide into or out of (from/to "nowhere")
 s   - legato slide
 S   - shift slide
 - natural harmonic
[n]  - artificial harmonic
n(n) - tapped harmonic
 ~   - vibrato
 tr  - trill
 T   - tap
 TP  - trem. picking
 PM  - palm muting
\n/  - tremolo bar dip; n = amount to dip
 \n  - tremolo bar down
 n/  - tremolo bar up
/n\  - tremolo bar inverted dip
 =   - hold bend; also acts as connecting device for hammers/pulls
 <> - volume swell (louder/softer)
 x   - on rhythm slash represents muted slash
 o   - on rhythm slash represents single note slash
comments
print report bad tab
10 comments total. Showing first comments.
0 reply
Pete Griffin wrote on October 1 2006, 11:26 am

Nice tab as usual, saved me plenty of time.

0 reply
raysetsfire wrote on November 15 2006, 10:26 am

Damn right!

0 reply
JL Sevenfold wrote on January 20 2007, 01:53 pm

good tab- 5 stars- one note, album is paramour sessions not paramoir sessions, but it's probably a typo, no biggie

I want to post or [tab]
guest
You may want to rate the tab now too:
select rating
Please do not post tabs as comments. Select "correction" instead!