Oops, an error
Loading. Please wait.

Blood Tab

ver2
ver2

Whole song

More versions @911Tabs.com
3,947 views 1 this week
3 commentsread comments
1 2 3 4 5
accurate
x 5
Autoscroll
+/-
esc
set tempo
stop
Contributor
WARNING: You are trying to view
                                    content from Ultimate-Guitar.com
                                    in an unauthorized application,
                                    which is prohibited.

                                    Please use an official Ultimate
                                    Guitar Tabs application for iPhone,
                                    iPad or Android to access legitimate
                                    chords, guitar, bass, and drum tabs
                                    from Ultimate-Guitar.com database.

                                    Type "ultimate guitar tabs" in Apple
                                    App Store's or Android Market's
                                    search to find the application.
Band- Papa Roach
Song- Blood
Album- Getting Away With Murder
Tuning- Drop D

Intro
    Q=90
    Gtr II
    E E  E E E E  E E   E E E E E E Q
||--------------------|-----6-----------||
||o-----10-------10---|-------------5--o||
||----9----9---9----9-|---5---5---4-----||
||--7--------5--------|-3-------2-------||
||o-------------------|----------------o||
||--------------------|-----------------||


 Pre-Verse
  Gtr I
   W          W           W          H    H
|-----------|----------|-----------|-----------|
|-10--------|----------|-----------|-----------|
|-----------|-9--------|-10--------|-9---------|
|-----------|----------|-----------|-----------|
|-----------|----------|-----------|-----------|
|-----------|----------|-----------|-----------|


   Verse
    S S S S  S  S  S S S S S S S S S S   S S S S  S  S  S S S S S S S S S S
||-------------------------------------|-------------------------------------|
||o------------------------------------|-------------------------------------|
||-----------------------7-7-----9-9---|----------------------7-7-----9-9----|
||--5-7-7-7-10-10-10-7-7-----7-7-----7-|-7-7-7-7-10-10-10-7-7-----7-7-----7--|
||o------------------------------------|-------------------------------------|
||-------------------------------------|-------------------------------------|


  S S S S  S  S  S S S S S S S S S S   S S S S  S  S  S S S S S S S S S S
|------------------------------------|-------------------------------------||
|------------------------------------|------------------------------------o||
|----------------------7-7-----9-9---|----------------------7-7-----9-9----||
|-7-7-7-7-10-10-10-7-7-----7-7-----7-|-7-7-7-7-10-10-10-7-7-----7-7-----7--||
|------------------------------------|------------------------------------o||
|------------------------------------|-------------------------------------||


   Chorus
    S S S S S S S S S S S S S S S S   S S S S S S S S S S S S S  S  S  S
||----------------------------------|--------------------------------------||
||o---------------------------------|-------------------------------------o||
||----------------------------------|--------------------------------------||
||--7-7-7-7-7-7-7-7-5-5-5-5-5-5-5-5-|-3-3-3-3-3-3-3-3-2-2-2-2-2-10-10-10---||
||o-7-7-7-7-7-7-7-7-5-5-5-5-5-5-5-5-|-3-3-3-3-3-3-3-3-2-2-2-2-2-10-10-10--o||
||--7-7-7-7-7-7-7-7-5-5-5-5-5-5-5-5-|-3-3-3-3-3-3-3-3-2-2-2-2-2-10-10-10---||


 Pre-Verse
  E     Q      E     E     Q      E       E     Q      E     E     Q      E
|---------------------------------------|---------------------------------------|
|---------------------------------------|---------------------------------------|
|---------------------------------------|---------------------------------------|
|-7-----7------7-----7-----7------7-----|-7-----7------7-----7-----7------7-----|
|-7-----7------7-----7-----7------7-----|-7-----7------7-----7-----7------7-----|
|-7b7.5-7b7.5--7b7.5-7b7.5-7b7.5--7b7.5-|-7b7.5-7b7.5--7b7.5-7b7.5-7b7.5--7b7.5-|


  E     Q      E     E     Q      E       E     Q      E     H
|---------------------------------------|-------------------------|
|---------------------------------------|-------------------------|
|---------------------------------------|-------------------------|
|-7-----7------7-----7-----7------7-----|-7-----7------7----------|
|-7-----7------7-----7-----7------7-----|-7-----7------7----------|
|-7b7.5-7b7.5--7b7.5-7b7.5-7b7.5--7b7.5-|-7b7.5-7b7.5--7b7.5------|


   Verse
    S S S S  S  S  S S S S S S S S S S   S S S S  S  S  S S S S S S S S S S
||-------------------------------------|-------------------------------------|
||o------------------------------------|-------------------------------------|
||-----------------------7-7-----9-9---|----------------------7-7-----9-9----|
||--5-7-7-7-10-10-10-7-7-----7-7-----7-|-7-7-7-7-10-10-10-7-7-----7-7-----7--|
||o------------------------------------|-------------------------------------|
||-------------------------------------|-------------------------------------|


  S S S S  S  S  S S S S S S S S S S   S S S S  S  S  S S S S S S S S S S
|------------------------------------|-------------------------------------||
|------------------------------------|------------------------------------o||
|----------------------7-7-----9-9---|----------------------7-7-----9-9----||
|-7-7-7-7-10-10-10-7-7-----7-7-----7-|-7-7-7-7-10-10-10-7-7-----7-7-----7--||
|------------------------------------|------------------------------------o||
|------------------------------------|-------------------------------------||


   Chorus
    S S S S S S S S S S S S S S S S   S S S S S S S S S S S S S  S  S  S   4x
||----------------------------------|--------------------------------------||
||o---------------------------------|-------------------------------------o||
||----------------------------------|--------------------------------------||
||--7-7-7-7-7-7-7-7-5-5-5-5-5-5-5-5-|-3-3-3-3-3-3-3-3-2-2-2-2-2-10-10-10---||
||o-7-7-7-7-7-7-7-7-5-5-5-5-5-5-5-5-|-3-3-3-3-3-3-3-3-2-2-2-2-2-10-10-10--o||
||--7-7-7-7-7-7-7-7-5-5-5-5-5-5-5-5-|-3-3-3-3-3-3-3-3-2-2-2-2-2-10-10-10---||


 Bridge
  E     Q      E     E     Q      E       E     Q      E     E     Q      E
|---------------------------------------|---------------------------------------|
|---------------------------------------|---------------------------------------|
|---------------------------------------|---------------------------------------|
|-7-----7------7-----7-----7------7-----|-7-----7------7-----7-----7------7-----|
|-7-----7------7-----7-----7------7-----|-7-----7------7-----7-----7------7-----|
|-7b7.5-7b7.5--7b7.5-7b7.5-7b7.5--7b7.5-|-7b7.5-7b7.5--7b7.5-7b7.5-7b7.5--7b7.5-|


  E     Q      E     E     Q      E       E     Q      E     E     Q      E
|---------------------------------------|---------------------------------------|
|---------------------------------------|---------------------------------------|
|---------------------------------------|---------------------------------------|
|-7-----7------7-----7-----7------7-----|-7-----7------7-----7-----7------7-----|
|-7-----7------7-----7-----7------7-----|-7-----7------7-----7-----7------7-----|
|-7b7.5-7b7.5--7b7.5-7b7.5-7b7.5--7b7.5-|-7b7.5-7b7.5--7b7.5-7b7.5-7b7.5--7b7.5-|


  E E S E S E S E S S..   E E S E S E S E S S..
|-----------------------|-----------------------|
|-----------------------|-----------------------|
|---9---9---7---7---7---|---5---5---4---4---4---|
|-7---7---7---7---7-----|-7---7---7---7---7-----|
|-----------------------|-----------------------|
|-----------------------|-----------------------|


  E E S E S  E S  E S  S.. E   E S E S  E S  E S  S..
|----------------------------|------------------------|
|----------------------------|-8---8---10---10---10---|
|---9---9---10---10---10-----|------------------------|
|-7---7---7----7----7------7-|---7---7----7----7------|
|----------------------------|------------------------|
|----------------------------|------------------------|


 Pre-Chorus
  Gtr II
  E E  E E E E  E E   E E E E E E Q
|-------------------|-----6----------|
|-----10-------10---|-------------5--|
|---9----9---9----9-|---5---5---4----|
|-7--------5--------|-3-------2------|
|-------------------|----------------|
|-------------------|----------------|


    Gtr I
    S S S S S S S S S S S S S S S S   S S S S S S S S S S S S S S S S
||----------------------------------|-----------------------------------||
||o---------------------------------|----------------------------------o||
||----------------------------------|-----------------------------------||
||--7-7-7-7-7-7-7-7-5-5-5-5-5-5-5-5-|-3-3-3-3-3-3-3-3-5-5-5-5-5-5-5-5---||
||o-7-7-7-7-7-7-7-7-5-5-5-5-5-5-5-5-|-3-3-3-3-3-3-3-3-5-5-5-5-5-5-5-5--o||
||--7-7-7-7-7-7-7-7-5-5-5-5-5-5-5-5-|-3-3-3-3-3-3-3-3-5-5-5-5-5-5-5-5---||


   Chorus
    S S S S S S S S S S S S S S S S   S S S S S S S S S S S S S  S  S  S
||----------------------------------|--------------------------------------||
||o---------------------------------|-------------------------------------o||
||----------------------------------|--------------------------------------||
||--7-7-7-7-7-7-7-7-5-5-5-5-5-5-5-5-|-3-3-3-3-3-3-3-3-2-2-2-2-2-10-10-10---||
||o-7-7-7-7-7-7-7-7-5-5-5-5-5-5-5-5-|-3-3-3-3-3-3-3-3-2-2-2-2-2-10-10-10--o||
||--7-7-7-7-7-7-7-7-5-5-5-5-5-5-5-5-|-3-3-3-3-3-3-3-3-2-2-2-2-2-10-10-10---||


 Out-Chorus
  S S S S S S S S S S S S S S S S   S S S S S S S S S S S S S  S  S  S
|---------------------------------|------------------------------------|
|---------------------------------|------------------------------------|
|---------------------------------|------------------------------------|
|-7-7-7-7-7-7-7-7-5-5-5-5-5-5-5-5-|-3-3-3-3-3-3-3-3-2-2-2-2-2-10-10-10-|
|-7-7-7-7-7-7-7-7-5-5-5-5-5-5-5-5-|-3-3-3-3-3-3-3-3-2-2-2-2-2-10-10-10-|
|-7-7-7-7-7-7-7-7-5-5-5-5-5-5-5-5-|-3-3-3-3-3-3-3-3-2-2-2-2-2-10-10-10-|
|
| Gtr III
| S S S S S S S S S S S S S S S S   S S S S S S S S S S S S S  S  S  S
|---------------------------------|------------------------------------|
|---------------------------------|------------------------------------|
|-----------------4-4-4-4-4-4-4-4-|-5-5-5-5-5-5-5-5-7-7-7-7-7--7--7--7-|
|-7-7-7-7-7-7-7-7-x-x-x-x-x-x-x-x-|-x-x-x-x-x-x-x-x-x-x-x-x-x--x--x--x-|
|-x-x-x-x-x-x-x-x-2-2-2-2-2-2-2-2-|-3-3-3-3-3-3-3-3-5-5-5-5-5--5--5--5-|
|-7-7-7-7-7-7-7-7-----------------|------------------------------------|


  S S S S S S S S  S  S  S  S  S  S  S  S
|-----------------------------------------|
|-----------------------------------------|
|-----------------------------------------|
|-7-7-7-7-7-7-7-7--5--5--5--5--5--5--5--5-|
|-7-7-7-7-7-7-7-7--5--5--5--5--5--5--5--5-|
|-7-7-7-7-7-7-7-7--5--5--5--5--5--5--5--5-|
|
| S S S S S S S S  S  S  S  S  S  S  S  S
|-----------------------------------------|
|-----------------------------------------|
|-9-9-9-9-9-9-9-9-12-12-12-12-12-12-12-12-|
|-x-x-x-x-x-x-x-x--x--x--x--x--x--x--x--x-|
|-7-7-7-7-7-7-7-7-10-10-10-10-10-10-10-10-|
|-----------------------------------------|


   S  S  S  S  S  S  S  S  S  S  S  S  S  S  S  S
|-------------------------------------------------|
|-------------------------------------------------|
|-------------------------------------------------|
|--3--3--3--3--3--3--3--3--2--2--2--2--2-10-10-10-|
|--3--3--3--3--3--3--3--3--2--2--2--2--2-10-10-10-|
|--3--3--3--3--3--3--3--3--2--2--2--2--2-10-10-10-|
|
|  S  S  S  S  S  S  S  S  S  S  S  S  S  S  S  S
|-------------------------------------------------|
|-------------------------------------------------|
|-14-14-14-14-14-14-14-14-16-16-16-16-16-16-16-16-|
|--x--x--x--x--x--x--x--x--x--x--x--x--x--x--x--x-|
|-12-12-12-12-12-12-12-12-14-14-14-14-14-14-14-14-|
|-------------------------------------------------|


   S  S  S  S  S  S  S  S  S  S  S  S  S  S  S  S
|-------------------------------------------------|
|-------------------------------------------------|
|-------------------------------------------------|
|--7--7--7--7--7--7--7--7--5--5--5--5--5--5--5--5-|
|--7--7--7--7--7--7--7--7--5--5--5--5--5--5--5--5-|
|--7--7--7--7--7--7--7--7--5--5--5--5--5--5--5--5-|
|
|  S  S  S  S  S  S  S  S  S  S  S  S  S  S  S  S
|-------------------------------------------------|
|-------------------------------------------------|
|-21-21-21-21-19-19-19-19-17-17-17-17-16-16-16-16-|
|--x--x--x--x--x--x--x--x--x--x--x--x--x--x--x--x-|
|-19-19-19-19-17-17-17-17-15-15-15-15-14-14-14-14-|
|-------------------------------------------------|


   S  S  S  S  S  S  S  S  S  S  S  S  S  S  S  S
|-------------------------------------------------|
|-------------------------------------------------|
|-------------------------------------------------|
|--3--3--3--3--3--3--3--3--2--2--2--2--2-10-10-10-|
|--3--3--3--3--3--3--3--3--2--2--2--2--2-10-10-10-|
|--3--3--3--3--3--3--3--3--2--2--2--2--2-10-10-10-|
|
|  S  S  S  S  S  S  S  S  S  S  S  S  S  S  S  S
|-------------------------------------------------|
|-------------------------------------------------|
|-21-21-21-21-19-19-19-19-17-17-17-17-16-16-16-16-|
|--x--x--x--x--x--x--x--x--x--x--x--x--x--x--x--x-|
|-19-19-19-19-17-17-17-17-15-15-15-15-14-14-14-14-|
|-------------------------------------------------|


   S  S  S  S  S  S  S  S  S  S  S  S  S  S  S  S
|-------------------------------------------------|
|-------------------------------------------------|
|-------------------------------------------------|
|--7--7--7--7--7--7--7--7--5--5--5--5--5--5--5--5-|
|--7--7--7--7--7--7--7--7--5--5--5--5--5--5--5--5-|
|--7--7--7--7--7--7--7--7--5--5--5--5--5--5--5--5-|
|
|  S  S  S  S  S  S  S  S  S  S  S  S  S  S  S  S
|-------------------------------------------------|
|-------------------------------------------------|
|-19-19-19-19-19-19-19-19-14-14-14-14-14-14-14-14-|
|--x--x--x--x--x--x--x--x--x--x--x--x--x--x--x--x-|
|-17-17-17-17-17-17-17-17-12-12-12-12-12-12-12-12-|
|-------------------------------------------------|


   S  S  S  S  S  S  S  S  S  S  S  S  S  S  S  S
|-------------------------------------------------|
|-------------------------------------------------|
|-------------------------------------------------|
|--3--3--3--3--3--3--3--3--2--2--2--2--2-10-10-10-|
|--3--3--3--3--3--3--3--3--2--2--2--2--2-10-10-10-|
|--3--3--3--3--3--3--3--3--2--2--2--2--2-10-10-10-|
|
|  S  S  S  S  S  S  S  S  S  S  S  S  S  S  S  S
|-------------------------------------------------|
|-------------------------------------------------|
|-16-16-16-16-16-16-16-16-16-16-16-16-16-16-16-16-|
|--x--x--x--x--x--x--x--x--x--x--x--x--x--x--x--x-|
|-14-14-14-14-14-14-14-14-14-14-14-14-14-14-14-14-|
|-------------------------------------------------|


 Outro
   TP    TP      TP    TP      TP    TP      TP    TP
   H     H       H     H       H     H       H     H
|-------------|-------------|-------------|-------------*|
|-------------|-------------|-------------|-------------*|
|-13----14----|-13----14----|-13----14----|-13----14----*|
|--x-----x----|--x-----x----|--x-----x----|--x-----x----*|
|-12----12----|-12----12----|-12----12----|-12----12----*|
|-------------|-------------|-------------|-------------*|


ENJOY!!!!
comments
print report bad tab
3 comments total.
0 reply
lyrixgirl wrote on October 1 2006, 08:55 am

whadda the letters above stand for??other than that, great tab.

0 reply
JL Sevenfold wrote on March 10 2007, 10:25 pm

the letters stand for eigth notes, quarter notes, etc.

0 reply
silentskills wrote on June 26 2012, 04:38 pm

there something wrong with the key here

I want to post or [tab]
guest
You may want to rate the tab now too:
select rating
Please do not post tabs as comments. Select "correction" instead!