Oops, an error
Loading. Please wait.

Getting Away With Murder Bass Tab

ver1
ver1

Album

Whole song

More versions @911Tabs.com
8,667 views 6 this week
1 commentread comment
1 2 3 4 5
accurate
x 3
Autoscroll
+/-
esc
set tempo
stop
Contributor
WARNING: You are trying to view
                                    content from Ultimate-Guitar.com
                                    in an unauthorized application,
                                    which is prohibited.

                                    Please use an official Ultimate
                                    Guitar Tabs application for iPhone,
                                    iPad or Android to access legitimate
                                    chords, guitar, bass, and drum tabs
                                    from Ultimate-Guitar.com database.

                                    Type "ultimate guitar tabs" in Apple
                                    App Store's or Android Market's
                                    search to find the application.
Band- Papa Roach
Album- Getting Away With Murder

Track Listings:
1.Blood(Empty Promises)
2.Not Listening
3.Stop Looking Start Seeing
4.Take Me
5.Getting Away With Murder
6.Be Free
7.Done With You
8.Scars
9.Sometimes
10.Blanket Of Fear
11.Tranny Of Normality
12.Do Or Die

-------------------------------------------------------------

1.BLOOD(EMPTY PROMISES)

Intro:
G---------------|
D---------------|
A---------------|
E---------------|
B--4/11-11-11/4-|

Verse I:
G-----------------------------------------------------------------------------------|
D-----------------------------------------------------------------------------------|
A-----------------------------------------------------------------------------------|
E--6-6-6-6-6-6-6-6-4-4-4-4-4-4-4-4-2-2-2-2-2-2-2-2-1-1-1-1-1-1-1-1-0-0-0-0-0-0-0-0--|
B-----------------------------------------------------------------------------------|

Verse II:
G-----------------------------------------------------------------------------------|
D-----------------------------------------------------------------------------------|
A-----------------------------------------------------------------------------------|
E-----------------------------------------------------------------------------------|
B-4-4-4-4-4-4-4-4-2-2-2-2-2-2-2-2-0-0-0-0-0-0-0-0---0-0-0-0-0-0-0-0-2-2-2-2-2-2-2-2-|

G-----------------------------------------------------------------------------------|
D-----------------------------------------------------------------------------------|
A-----------------------------------------------------------------------------------|
E------------------0-0-0-0-0-0-0-0-1-1-1-1-1-1-1-1-0-0-0-0-0-0-0-0------------------|
B--4-4-4-4-4-4-4-4-------------------------------------------------4-4-4-4-4-4-4-4--|

G-----------------|
D-----------------|
A-----------------|
E-----------------|
B-2-2-2-2-2-2-2-2-|

Chorus:
G------------------------------------------------------------------|
D------------------------------------------------------------------|
A------------------------------------------------------------------|
E--6-6-6-6-6-6-6-6-4-4-4-4-4-4-4-4-2-2-2-2-2-2-2-2-1-1-1-1-1-1-1-1-|
B------------------------------------------------------------------|

Solo:
G---------------------------------|
D---------------------------------|
A---------------------------------|
E--6-6-6-8-8-8-10-10-10-11--13-16-|
B---------------------------------|

Order:
Intro x 4
Verse I x 2
Chorus x 2
Intro x 4
Verse I x 1
Verse II x 1
Chorus x 4
Intro x 8
--Pause--Guitar Only--
Chorus x 7
Solo x 1
Intro x 4

2.NOT LISTENING

Intro/ Chorus:
G------------------------------------------------------------------|
D------------------------------------------------------------------|
A--6-6-6-6-6-6-6-6-------------------------------------------------|
E------------------4-4-4-4-4-4-4-4-7-7-7-7-7-7-7-7-6-6-6-6-4-4-6-6-|
B------------------------------------------------------------------|

Versus:
G----------------------------------------|
D--------------------------4-------------|
A------6---------6-----2-2---2-------6---|
E--------4---4-4---4-------------6-6---4-|
B--4-4-----------------------------------|

Chorus Outro:
G----------------------------|
D----------------------------|
A----------------------------|
E------3---------2-2-2-2-----|
B--4-4---1-2-0-0---------4---|

Bridge I:
G------------------------------------------------------------------------------|
D------------------------------------------------------------------------------|
A--------------13-13-11-11-----------------------------9-9-8-6-----------------|
E--11-11-11-11-------------9-9-9-8/10-11-12-11-7-7-7-7-------------------------|
B--------------------------------------------------------------0-0-0-0-0-0-0-0-|

Filler:
G----------------------|
D----------------------|
A----------------------|
E------3---------------|
B--4-4---1-2-0-2-0-2-3-|

Bridge II:
G----------------------------------------------------------------------------|
D----------------------------------------------------------------------------|
A--6/13-13-13-13-13-13-13-13-------------------------------------------------|
E--------------------------------------------7-7-7-7-7-7-7-7-9-9-9-9-9-9-9-9-|
B----------------------------6-6-6-6-6-6-6-6---------------------------------|

Solo:
G----------------------------------------------------------|
D----------8-6---------------------------------------------|
A--6-6-6-6-----4-4-4-3/5-6-8-6---------9-8-----------------|
E------------------------------7-7-7-7-----9-9-9-9-9-9-9-9-|
B----------------------------------------------------------|

Outro:
G-------------------------------------------------|
D-------------------------------------------------|
A-------------------------------------------------|
E--6-4-6-----6-4-6-----6-4-6-----6-4-6------------|
B--------1-1-------1-1-------1-1-------1-1—1-1----|

Order:
Intro/ Chorus x 3
Verses x 4
Intro/ Chorus x 2
Chorus Outro x 1
--Pause--Drums & Guitar Only--
Versus x 4
Chorus x 2
Bridge I x 2
Chorus Outro x 2
Filler x 1
Chorus Outro x 1
Bridge II x 2
Chorus x 2
Solo x 1
Chorus x 1
Outro x 1

3.STOP LOOKING START SEEING

Don't Know

4.TAKE ME

Don't Know

5.GETTING AWAY WITH MURDER

INTRO
G|------------------------------|
D|------------------------------|
A|--3---3---3---3---3---3---3---|
D|00-000-000-000-000-000-000-00-|
VERSE
G|--------------------------------|
D|--------------------------------|
A|--------------------------------|
D|00000000555577779999999977775555|

G|--------------------------------|
D|--------------------------------|
A|--------------------------------|
D|00000000555577779999999977775555|
CHORUS
G|----------------------------------|
D|----------------------------------|
A|----------------------------------|
D|0000000005555555553333333333111111|

G|----------------------------------|
D|----------------------------------|
A|----------------------------------|
D|0000000005555555553333333333111111|
BASS PART
G|--------|
D|--------|
A|--3---3-|
D|00-000--|
VERSE
G|--------------------------------|
D|--------------------------------|
A|--------------------------------|
D|00000000555577779999999977775555|

G|--------------------------------|
D|--------------------------------|
A|--------------------------------|
D|00000000555577779999999977775555|
CHORUS
G|----------------------------------|
D|----------------------------------|
A|----------------------------------|
D|0000000005555555553333333333111111|

G|----------------------------------|
D|----------------------------------|
A|----------------------------------|
D|0000000005555555553333333333111111|
BASS PART BUT LONGER AND COOLER
G|------------------------------|
D|------------------------------|
A|--3---3---3---3---3---3---3---|
D|00-000-000-000-000-000-000-00-|
NOW ON THE ELECTRIC GUITARS PART YOU DO THIS
G|--------------------------------------------|
D|--------------------------------------------|
A|--------------------------------------------|
D|00000000045555567777789999998777777666655555|

G|------------------------------------------|
D|------------------------------------------|
A|------------------------------------------|
D|000000045555567777789999999998777-6-5-4-0-|
VERSE
G|--------------------------------|
D|--------------------------------|
A|--------------------------------|
D|00000000555577779999999977775555|

G|--------------------------------|
D|--------------------------------|
A|--------------------------------|
D|00000000555577779999999977775555|
CHORUS
G|----------------------------------|
D|----------------------------------|
A|----------------------------------|
D|0000000005555555553333333333111111|

G|----------------------------------|
D|----------------------------------|
A|----------------------------------|
D|0000000005555555553333333333111111|
REST

CHORUS
G|----------------------------------|
D|----------------------------------|
A|----------------------------------|
D|0000000005555555553333333333111111|

G|----------------------------------|
D|----------------------------------|
A|----------------------------------|
D|0000000005555555553333333333111111|

6.BE FREE

Verses:
G-----------------------|
D-----------------------|
A--------------1-1--0-0-|
E------1-1-3-3----------|
B--3-3------------------|

Chorus Intro:
G----------------------------------------------|
D----------------------------------------------|
A--------------1-1-1-1-1-1-1-1-0-0-0-0-0-0-0-0-|
E------1-1-3-3---------------------------------|
B--3-3-----------------------------------------|

Chorus:
G----------------------------------------------------------------------------|
D--0-0-0-0-0-----------------------0-0-0-0-0-3-3-3-----------------0-0-0-0-0-|
A------------0-0-0-3-3-3-3-3-3-3-3-----------------3-3-3-3-3-3-3-3-----------|
E----------------------------------------------------------------------------|
B----------------------------------------------------------------------------|

G-------------------------------------------------------|
D-------------------------------------------------------|
A-0-0-0-3-3-3-3-3-3-3-3-1-1-1-1-1-1-1-1-0-0-0-0-0-0-0-0-|
E-------------------------------------------------------|
B-------------------------------------------------------|

Bridge:
G----------|
D--0-0-----|
A------1-0-|
E----------|
B----------|

Ending:
G--------------------------------|
D--0-0-0-----------0-0-0---------|
A--------1-1-1-3---------1-1-1-0-|
E--------------------------------|
B--------------------------------|

Order:
Verses x 4
Chorus Intro x 1
Chorus x 1
Verses x 4
Chorus Intro x 1
Chorus x 2
Bridge x 4
--Pause--Drums & Guitar Only--
Chorus x 2
Ending x 1

7.DONE WITH YOU

Verse 1: Bass starts 0.13

G:---------------------------------------------------------------------------------------|
D:---------------------------------------------------------------------------------------|
A:----------66-----------------66--------------------------------------------------------|
E:--66-44-------22-44-66--44-------222-444-666-------------------------------------------|

Chorus:

G:----------------------------------------------------------------------------------------|
D:----------------------------------------------------------------------------------------|
A:----------------------66666666--------------------------------------------666666666666--|
E:-66666666--22222222-----------------44444444--66666666--22222222------------------------|

G:-------------------------------|
D:-------------------------------|
A:--4----------------------------|
E-------------4-----------2------|

Verse 2: bass starts 0:52

G:------------------------------------------------------------------------------|
D:------------------------------------------------------------------------------|
A:---------------66---------------66--------------------------------------------|
E:--22-44-66-44------22-44-66-44------222-444-666-------------------------------|

Chorus:

G:------------------------------------------------------------------------------|
D:------------------------------------------------------------------------------|
A:---------------------66666666----------------------------------666666666666---|
E:-66666666--22222222-------------44444444--66666666--22222222------------------|

G:------------------------------------------------|
D:------------------------------------------------|
A:--4---------------------------------------------|
E-------------4-----------222222222222------------|

Bridge:
 G:-------------------------------------------------|
 D:-------------------------------------------------|
 A:---------------4-----66-4-6-66-4-6-4-------------|     4x
 E:--66-4-6--222----4-------------------------------|

End chorus: bass rest until 2:01

G:---------------------------------------------------------------------------------|
D:---------------------------------------------------------------------------------|
A:---------------------66666666----------------------666666666666------------------|
E:-66666666--22222222-------------44444444--66--22---------------------------------|

G:---------------------------------------------------------------------------------|
D:------------------------------99-88-66------------------------------99-88-66-----|
A:----4--------------66666666--------------66-4----------66666666--------------66--|
E-------------4------------------------------------4-------------------------------|

G:------------------------------------------------------------|
D:------------------------------------------------------------|
A:--4-----------------666666666666--4-------------------------|
E-------------4---------------------------------4----2--------|

8.SCARS

Tuning: Db Ab Db Gb

Intro (play after Jacoby sings "I care too much")

|-----------------------------------------------------------------|
|-----------------------------------------------------------------|
|3---------------2---------------5--------------------------------|
|------------------------------------------------3--------5-------|

Verses

|---------------------------------------------------------|
|---------------------------------------------------------|
|---------------------------------------------------------|
|7---7--7----7--7--7------7----2---2--2--2------2---------|

|----------------------------------------------------------|
|----------------------------------------------------------|
|----------------------------------------------------5---7-|
|3---3--3----3--3--3------3----5---5--5---5--5--5----------|

|-------------------------------------------------------------------|
|-------------------------------------------------------------------|
|--------------------7-------10-----------------------2--------2----|
|7--------7----7--7-------7--------2--------2--2---2--------------2-|

Chorus

|-----------------------------------------------|
|-----------------------------------------------|
|3--3-3--3-3--3-3-3-----------------------------|
|--------------------0--5--5-5--5-5--5-5-5-5--0-|

|-----------------------------------------------------|
|-----------------------------------------------------|
|5--5-5--5-5--5-5--5-5--------------------------------|
|-----------------------3-3-3-3-3-3-3-3-5--5--5-5-5-5-|

Repeat Verse
Repeat Chorus
Repeat Verse

Breakdown ("But you didn't understand")
|------------------------------------|
|------------------------------------|
|3---------------5--------8---10--10-|
|--------5---------------------------|
Bridge("I can't help you fix yourself")
|---5-5--------5-----------------------------------------------|
|----------------5-7-------------------5-7---------------------|
|3------------------------------------------5----5-5-------5---|
|---------------------5---5-5-------5--------------------------|

|----------------------------|
|----10-10-------------------|
|8----------8---0----5-7-5-0-|
|----------------------------|

|----------------------------------------------------------------|
|----------------------------------------------------------------|
|3-3-3-3-3-3-3-3-3-3-3-3-3-3-3-0-2-2-2-2-2-2-2-2-2-2-2-2-2-2-2/5-|
|----------------------------------------------------------------|

|--------------------------------|
|--------------------------------|
|5-5-5-5-5-5-5-5-5-5-5-5-5--5----|
|------------------------------3-|

Repeat Chorus twice

End on

|-
|-
|3
|-

9.SOMETIMES

Don't Know

10.BLANKET OF FEAR

Don't Know

11.TRANNY OF NORMALITY

Don't Know

12.DO OR DIE

(Play 10 times)				
|----------------|----------------|----------------|
|----------------|----------------|----------------|
|0-2-4-4-4-4-4-4-|2-2-2-2-2-2-2-2-|2-2-2-2-2-2-2-2-|
|----------------|----------------|----------------|
 1 & 2 & 3 & 4 &  1 & 2 & 3 & 4 &  1 & 2 & 3 & 4 &


(Play 6 times)
|----------------|
|----------------|
|0-2-4-4-4-4-4-4-|
|----------------|
 1 & 2 & 3 & 4 &


|----------------|----------------|
|----------------|----------------|
|2letitringmanallthewaykeepgoingyo|
|----------------|----------------|
 1 & 2 & 3 & 4 &  1 & 2 & 3 & 4 &


|----------------|----------------|
|----------------|----------------|
|0-0-0-0-0-0-0-0-|2-2-2-2-2-2-2-2-|
|----------------|----------------|
 1 & 2 & 3 & 4 &  1 & 2 & 3 & 4 &


				___________
					   |
| |----------------|----------------|	   |
|.|2-2-2-2-2-2-2-2-|4-4-4-4-4-4-4-4-|	   |
|.|----------------|----------------|      |
| |----------------|----------------|      |
 1 & 2 & 3 & 4 &  1 & 2 & 3 & 4 &          |
					   |---Play 2 times
|----------------|----------------| |	   |
|7—7-7-7-7-7-7-7-|4-4-4-4-4-4-4-4-|.|	   |
|----------------|----------------|.|	   |
|----------------|----------------| |	   |
 1 & 2 & 3 & 4 &  1 & 2 & 3 & 4 &	   |
				___________|


(Play 7 times)		(Play 2 times)			
|----------------|----------------|
|----------------|----------------|
|0-2-4-4-4-4-4-4-|2-2-2-2-2-2-2-2-|
|----------------|----------------|
 1 & 2 & 3 & 4 &  1 & 2 & 3 & 4 &


(Play 6 times)		(Play 2 times)			
|----------------|----------------|
|----------------|----------------|
|0-2-4-4-4-4-4-4-|2---------------|
|----------------|----------------|
 1 & 2 & 3 & 4 &  1 & 2 & 3 & 4 &



|----------------|----------------|
|----------------|----------------|
|0-0-0-0-0-0-0-0-|2-2-2-2-2-2-2-2-|  
|----------------|----------------|
 1 & 2 & 3 & 4 &  1 & 2 & 3 & 4 &

				___________
					   |
| |----------------|----------------|	   |
|.|2-2-2-2-2-2-2-2-|4-4-4-4-4-4-4-4-|	   |
|.|----------------|----------------|      |
| |----------------|----------------|      |
 1 & 2 & 3 & 4 &  1 & 2 & 3 & 4 &          |
					   |---Play 4 times
|----------------|----------------| |	   |
|7—7-7-7-7-7-7-7-|4-4-4-4-4-4-4-4-|.|	   |
|----------------|----------------|.|	   |
|----------------|----------------| |	   |
 1 & 2 & 3 & 4 &  1 & 2 & 3 & 4 &	   |
				___________|

(Play 8 times)
|----------------|
|----2-0---------|
|0-2-----4-2--02-|
|----------------|
 1 & 2 & 3 & 4 &


(Play 8 times)
|----------------|----------------|----------------|
|----------------|----------------|----------------|
|0-2-4-4-4-4-4-4-|2letitringmanallthewaykeepgoingyo|
|----------------|----------------|----------------|
 1 & 2 & 3 & 4 &  1 & 2 & 3 & 4 &  1 & 2 & 3 & 4 &


|----------------|----------------|
|----------------|----------------|
|0-0-0-0-0-0-0-0-|2-2-2-2-2-2-2-2-|
|----------------|----------------|
 1 & 2 & 3 & 4 &  1 & 2 & 3 & 4 &


				___________
			 		   |
| |----------------|----------------|	   |
|.|2-2-2-2-2-2-2-2-|4-4-4-4-4-4-4-4-|	   |
|.|----------------|----------------|      |
| |----------------|----------------|      |
 1 & 2 & 3 & 4 &  1 & 2 & 3 & 4 &	   |
					   |---Play 6 times
|----------------|----------------| |	   |
|7—7-7-7-7-7-7-7-|4-4-4-4-4-4-4-4-|.|	   |
|----------------|----------------|.|	   |
|----------------|----------------| |	   |
 1 & 2 & 3 & 4 &  1 & 2 & 3 & 4 &	   |
				___________|


(Play 8 times)
|----------------|
|----------------|
|0-2-4-4-4-4-4-4-|
|----------------|
 1 & 2 & 3 & 4 &
comments
We did not receive enough feedback on this tab! Please rate:
print report bad tab
1 2 3 4 5
1 comment total.
0 reply
McKillswitch wrote on March 23 2006, 11:40 am

The tabs you done good, but thw don't know's are a bit silly.

I want to post or [tab]
guest
You may want to rate the tab now too:
select rating
Please do not post tabs as comments. Select "correction" instead!