Oops, an error
Loading. Please wait.

Getting Away With Murder Tab

ver1
ver1

Album

Whole song

More versions @911Tabs.com
34,200 views 24 this week
7 commentsread comments
1 2 3 4 5
worth learning
x 7
Autoscroll
+/-
esc
set tempo
stop
Contributor
WARNING: You are trying to view
                                    content from Ultimate-Guitar.com
                                    in an unauthorized application,
                                    which is prohibited.

                                    Please use an official Ultimate
                                    Guitar Tabs application for iPhone,
                                    iPad or Android to access legitimate
                                    chords, guitar, bass, and drum tabs
                                    from Ultimate-Guitar.com database.

                                    Type "ultimate guitar tabs" in Apple
                                    App Store's or Android Market's
                                    search to find the application.
Band- Papa Roach
Album- Getting Away With Murder

Track Listings:
1.Blood
2.Not Listening
3.Stop Looking Start Seeing
4.Take Me
5.Getting Away With Murder
6.Be Free
7.Done With You
8.Scars
9.Sometimes(only got the solo)
10.Blanket Of Fear(don't know yet)
11.Tyranny Of Normality
12.Do Or Die

BLOOD

Tuning for all guitars - D# A# D# G# C E
 
  Intro
    Q=90
    Gtr II
    E E  E E E E  E E   E E E E E E Q
||--------------------|-----6-----------||
||o-----10-------10---|-------------5--o||
||----9----9---9----9-|---5---5---4-----||
||--7--------5--------|-3-------2-------||
||o-------------------|----------------o||
||--------------------|-----------------||


 Pre-Verse
  Gtr I
   W          W           W          H    H
|-----------|----------|-----------|-----------|
|-10--------|----------|-----------|-----------|
|-----------|-9--------|-10--------|-9---------|
|-----------|----------|-----------|-----------|
|-----------|----------|-----------|-----------|
|-----------|----------|-----------|-----------|


   Verse
    S S S S  S  S  S S S S S S S S S S   S S S S  S  S  S S S S S S S S S S
||-------------------------------------|-------------------------------------|
||o------------------------------------|-------------------------------------|
||-----------------------7-7-----9-9---|----------------------7-7-----9-9----|
||--5-7-7-7-10-10-10-7-7-----7-7-----7-|-7-7-7-7-10-10-10-7-7-----7-7-----7--|
||o------------------------------------|-------------------------------------|
||-------------------------------------|-------------------------------------|


  S S S S  S  S  S S S S S S S S S S   S S S S  S  S  S S S S S S S S S S
|------------------------------------|-------------------------------------||
|------------------------------------|------------------------------------o||
|----------------------7-7-----9-9---|----------------------7-7-----9-9----||
|-7-7-7-7-10-10-10-7-7-----7-7-----7-|-7-7-7-7-10-10-10-7-7-----7-7-----7--||
|------------------------------------|------------------------------------o||
|------------------------------------|-------------------------------------||


   Chorus
    S S S S S S S S S S S S S S S S   S S S S S S S S S S S S S  S  S  S
||----------------------------------|--------------------------------------||
||o---------------------------------|-------------------------------------o||
||----------------------------------|--------------------------------------||
||--7-7-7-7-7-7-7-7-5-5-5-5-5-5-5-5-|-3-3-3-3-3-3-3-3-2-2-2-2-2-10-10-10---||
||o-7-7-7-7-7-7-7-7-5-5-5-5-5-5-5-5-|-3-3-3-3-3-3-3-3-2-2-2-2-2-10-10-10--o||
||--7-7-7-7-7-7-7-7-5-5-5-5-5-5-5-5-|-3-3-3-3-3-3-3-3-2-2-2-2-2-10-10-10---||


 Pre-Verse
  E     Q      E     E     Q      E       E     Q      E     E     Q      E
|---------------------------------------|---------------------------------------|
|---------------------------------------|---------------------------------------|
|---------------------------------------|---------------------------------------|
|-7-----7------7-----7-----7------7-----|-7-----7------7-----7-----7------7-----|
|-7-----7------7-----7-----7------7-----|-7-----7------7-----7-----7------7-----|
|-7b7.5-7b7.5--7b7.5-7b7.5-7b7.5--7b7.5-|-7b7.5-7b7.5--7b7.5-7b7.5-7b7.5--7b7.5-|


  E     Q      E     E     Q      E       E     Q      E     H
|---------------------------------------|-------------------------|
|---------------------------------------|-------------------------|
|---------------------------------------|-------------------------|
|-7-----7------7-----7-----7------7-----|-7-----7------7----------|
|-7-----7------7-----7-----7------7-----|-7-----7------7----------|
|-7b7.5-7b7.5--7b7.5-7b7.5-7b7.5--7b7.5-|-7b7.5-7b7.5--7b7.5------|


   Verse
    S S S S  S  S  S S S S S S S S S S   S S S S  S  S  S S S S S S S S S S
||-------------------------------------|-------------------------------------|
||o------------------------------------|-------------------------------------|
||-----------------------7-7-----9-9---|----------------------7-7-----9-9----|
||--5-7-7-7-10-10-10-7-7-----7-7-----7-|-7-7-7-7-10-10-10-7-7-----7-7-----7--|
||o------------------------------------|-------------------------------------|
||-------------------------------------|-------------------------------------|


  S S S S  S  S  S S S S S S S S S S   S S S S  S  S  S S S S S S S S S S
|------------------------------------|-------------------------------------||
|------------------------------------|------------------------------------o||
|----------------------7-7-----9-9---|----------------------7-7-----9-9----||
|-7-7-7-7-10-10-10-7-7-----7-7-----7-|-7-7-7-7-10-10-10-7-7-----7-7-----7--||
|------------------------------------|------------------------------------o||
|------------------------------------|-------------------------------------||


   Chorus
    S S S S S S S S S S S S S S S S   S S S S S S S S S S S S S  S  S  S   4x
||----------------------------------|--------------------------------------||
||o---------------------------------|-------------------------------------o||
||----------------------------------|--------------------------------------||
||--7-7-7-7-7-7-7-7-5-5-5-5-5-5-5-5-|-3-3-3-3-3-3-3-3-2-2-2-2-2-10-10-10---||
||o-7-7-7-7-7-7-7-7-5-5-5-5-5-5-5-5-|-3-3-3-3-3-3-3-3-2-2-2-2-2-10-10-10--o||
||--7-7-7-7-7-7-7-7-5-5-5-5-5-5-5-5-|-3-3-3-3-3-3-3-3-2-2-2-2-2-10-10-10---||


 Bridge
  E     Q      E     E     Q      E       E     Q      E     E     Q      E
|---------------------------------------|---------------------------------------|
|---------------------------------------|---------------------------------------|
|---------------------------------------|---------------------------------------|
|-7-----7------7-----7-----7------7-----|-7-----7------7-----7-----7------7-----|
|-7-----7------7-----7-----7------7-----|-7-----7------7-----7-----7------7-----|
|-7b7.5-7b7.5--7b7.5-7b7.5-7b7.5--7b7.5-|-7b7.5-7b7.5--7b7.5-7b7.5-7b7.5--7b7.5-|


  E     Q      E     E     Q      E       E     Q      E     E     Q      E
|---------------------------------------|---------------------------------------|
|---------------------------------------|---------------------------------------|
|---------------------------------------|---------------------------------------|
|-7-----7------7-----7-----7------7-----|-7-----7------7-----7-----7------7-----|
|-7-----7------7-----7-----7------7-----|-7-----7------7-----7-----7------7-----|
|-7b7.5-7b7.5--7b7.5-7b7.5-7b7.5--7b7.5-|-7b7.5-7b7.5--7b7.5-7b7.5-7b7.5--7b7.5-|


  E E S E S E S E S S..   E E S E S E S E S S..
|-----------------------|-----------------------|
|-----------------------|-----------------------|
|---9---9---7---7---7---|---5---5---4---4---4---|
|-7---7---7---7---7-----|-7---7---7---7---7-----|
|-----------------------|-----------------------|
|-----------------------|-----------------------|


  E E S E S  E S  E S  S.. E   E S E S  E S  E S  S..
|----------------------------|------------------------|
|----------------------------|-8---8---10---10---10---|
|---9---9---10---10---10-----|------------------------|
|-7---7---7----7----7------7-|---7---7----7----7------|
|----------------------------|------------------------|
|----------------------------|------------------------|


 Pre-Chorus
  Gtr II
  E E  E E E E  E E   E E E E E E Q
|-------------------|-----6----------|
|-----10-------10---|-------------5--|
|---9----9---9----9-|---5---5---4----|
|-7--------5--------|-3-------2------|
|-------------------|----------------|
|-------------------|----------------|


    Gtr I
    S S S S S S S S S S S S S S S S   S S S S S S S S S S S S S S S S
||----------------------------------|-----------------------------------||
||o---------------------------------|----------------------------------o||
||----------------------------------|-----------------------------------||
||--7-7-7-7-7-7-7-7-5-5-5-5-5-5-5-5-|-3-3-3-3-3-3-3-3-5-5-5-5-5-5-5-5---||
||o-7-7-7-7-7-7-7-7-5-5-5-5-5-5-5-5-|-3-3-3-3-3-3-3-3-5-5-5-5-5-5-5-5--o||
||--7-7-7-7-7-7-7-7-5-5-5-5-5-5-5-5-|-3-3-3-3-3-3-3-3-5-5-5-5-5-5-5-5---||


   Chorus
    S S S S S S S S S S S S S S S S   S S S S S S S S S S S S S  S  S  S
||----------------------------------|--------------------------------------||
||o---------------------------------|-------------------------------------o||
||----------------------------------|--------------------------------------||
||--7-7-7-7-7-7-7-7-5-5-5-5-5-5-5-5-|-3-3-3-3-3-3-3-3-2-2-2-2-2-10-10-10---||
||o-7-7-7-7-7-7-7-7-5-5-5-5-5-5-5-5-|-3-3-3-3-3-3-3-3-2-2-2-2-2-10-10-10--o||
||--7-7-7-7-7-7-7-7-5-5-5-5-5-5-5-5-|-3-3-3-3-3-3-3-3-2-2-2-2-2-10-10-10---||


 Out-Chorus
  S S S S S S S S S S S S S S S S   S S S S S S S S S S S S S  S  S  S
|---------------------------------|------------------------------------|
|---------------------------------|------------------------------------|
|---------------------------------|------------------------------------|
|-7-7-7-7-7-7-7-7-5-5-5-5-5-5-5-5-|-3-3-3-3-3-3-3-3-2-2-2-2-2-10-10-10-|
|-7-7-7-7-7-7-7-7-5-5-5-5-5-5-5-5-|-3-3-3-3-3-3-3-3-2-2-2-2-2-10-10-10-|
|-7-7-7-7-7-7-7-7-5-5-5-5-5-5-5-5-|-3-3-3-3-3-3-3-3-2-2-2-2-2-10-10-10-|
|
| Gtr III
| S S S S S S S S S S S S S S S S   S S S S S S S S S S S S S  S  S  S
|---------------------------------|------------------------------------|
|---------------------------------|------------------------------------|
|-----------------4-4-4-4-4-4-4-4-|-5-5-5-5-5-5-5-5-7-7-7-7-7--7--7--7-|
|-7-7-7-7-7-7-7-7-x-x-x-x-x-x-x-x-|-x-x-x-x-x-x-x-x-x-x-x-x-x--x--x--x-|
|-x-x-x-x-x-x-x-x-2-2-2-2-2-2-2-2-|-3-3-3-3-3-3-3-3-5-5-5-5-5--5--5--5-|
|-7-7-7-7-7-7-7-7-----------------|------------------------------------|


  S S S S S S S S  S  S  S  S  S  S  S  S
|-----------------------------------------|
|-----------------------------------------|
|-----------------------------------------|
|-7-7-7-7-7-7-7-7--5--5--5--5--5--5--5--5-|
|-7-7-7-7-7-7-7-7--5--5--5--5--5--5--5--5-|
|-7-7-7-7-7-7-7-7--5--5--5--5--5--5--5--5-|
|
| S S S S S S S S  S  S  S  S  S  S  S  S
|-----------------------------------------|
|-----------------------------------------|
|-9-9-9-9-9-9-9-9-12-12-12-12-12-12-12-12-|
|-x-x-x-x-x-x-x-x--x--x--x--x--x--x--x--x-|
|-7-7-7-7-7-7-7-7-10-10-10-10-10-10-10-10-|
|-----------------------------------------|


   S  S  S  S  S  S  S  S  S  S  S  S  S  S  S  S
|-------------------------------------------------|
|-------------------------------------------------|
|-------------------------------------------------|
|--3--3--3--3--3--3--3--3--2--2--2--2--2-10-10-10-|
|--3--3--3--3--3--3--3--3--2--2--2--2--2-10-10-10-|
|--3--3--3--3--3--3--3--3--2--2--2--2--2-10-10-10-|
|
|  S  S  S  S  S  S  S  S  S  S  S  S  S  S  S  S
|-------------------------------------------------|
|-------------------------------------------------|
|-14-14-14-14-14-14-14-14-16-16-16-16-16-16-16-16-|
|--x--x--x--x--x--x--x--x--x--x--x--x--x--x--x--x-|
|-12-12-12-12-12-12-12-12-14-14-14-14-14-14-14-14-|
|-------------------------------------------------|


   S  S  S  S  S  S  S  S  S  S  S  S  S  S  S  S
|-------------------------------------------------|
|-------------------------------------------------|
|-------------------------------------------------|
|--7--7--7--7--7--7--7--7--5--5--5--5--5--5--5--5-|
|--7--7--7--7--7--7--7--7--5--5--5--5--5--5--5--5-|
|--7--7--7--7--7--7--7--7--5--5--5--5--5--5--5--5-|
|
|  S  S  S  S  S  S  S  S  S  S  S  S  S  S  S  S
|-------------------------------------------------|
|-------------------------------------------------|
|-21-21-21-21-19-19-19-19-17-17-17-17-16-16-16-16-|
|--x--x--x--x--x--x--x--x--x--x--x--x--x--x--x--x-|
|-19-19-19-19-17-17-17-17-15-15-15-15-14-14-14-14-|
|-------------------------------------------------|


   S  S  S  S  S  S  S  S  S  S  S  S  S  S  S  S
|-------------------------------------------------|
|-------------------------------------------------|
|-------------------------------------------------|
|--3--3--3--3--3--3--3--3--2--2--2--2--2-10-10-10-|
|--3--3--3--3--3--3--3--3--2--2--2--2--2-10-10-10-|
|--3--3--3--3--3--3--3--3--2--2--2--2--2-10-10-10-|
|
|  S  S  S  S  S  S  S  S  S  S  S  S  S  S  S  S
|-------------------------------------------------|
|-------------------------------------------------|
|-21-21-21-21-19-19-19-19-17-17-17-17-16-16-16-16-|
|--x--x--x--x--x--x--x--x--x--x--x--x--x--x--x--x-|
|-19-19-19-19-17-17-17-17-15-15-15-15-14-14-14-14-|
|-------------------------------------------------|


   S  S  S  S  S  S  S  S  S  S  S  S  S  S  S  S
|-------------------------------------------------|
|-------------------------------------------------|
|-------------------------------------------------|
|--7--7--7--7--7--7--7--7--5--5--5--5--5--5--5--5-|
|--7--7--7--7--7--7--7--7--5--5--5--5--5--5--5--5-|
|--7--7--7--7--7--7--7--7--5--5--5--5--5--5--5--5-|
|
|  S  S  S  S  S  S  S  S  S  S  S  S  S  S  S  S
|-------------------------------------------------|
|-------------------------------------------------|
|-19-19-19-19-19-19-19-19-14-14-14-14-14-14-14-14-|
|--x--x--x--x--x--x--x--x--x--x--x--x--x--x--x--x-|
|-17-17-17-17-17-17-17-17-12-12-12-12-12-12-12-12-|
|-------------------------------------------------|


   S  S  S  S  S  S  S  S  S  S  S  S  S  S  S  S
|-------------------------------------------------|
|-------------------------------------------------|
|-------------------------------------------------|
|--3--3--3--3--3--3--3--3--2--2--2--2--2-10-10-10-|
|--3--3--3--3--3--3--3--3--2--2--2--2--2-10-10-10-|
|--3--3--3--3--3--3--3--3--2--2--2--2--2-10-10-10-|
|
|  S  S  S  S  S  S  S  S  S  S  S  S  S  S  S  S
|-------------------------------------------------|
|-------------------------------------------------|
|-16-16-16-16-16-16-16-16-16-16-16-16-16-16-16-16-|
|--x--x--x--x--x--x--x--x--x--x--x--x--x--x--x--x-|
|-14-14-14-14-14-14-14-14-14-14-14-14-14-14-14-14-|
|-------------------------------------------------|


 Outro
   TP    TP      TP    TP      TP    TP      TP    TP
   H     H       H     H       H     H       H     H
|-------------|-------------|-------------|-------------*|
|-------------|-------------|-------------|-------------*|
|-13----14----|-13----14----|-13----14----|-13----14----*|
|--x-----x----|--x-----x----|--x-----x----|--x-----x----*|
|-12----12----|-12----12----|-12----12----|-12----12----*|
|-------------|-------------|-------------|-------------*|

2.NOT LISTENING

Tuning |D# A# D# G# B E|

Intro
E |-----------------------------------------------------------------------------------|
B |-----------------------------------------------------------------------------------|
G#|---12\10---12---10/12---12\10---12---10/12---12\10---12---10/12---12\10-7-7-7-10-7-|
D#|-0--x--x-0--x-0--x--x-0--x--x-0--x-0--x--x-0--x--x-0--x-0--x--x-0--x--x-x-x-x--x-x-|
A#|-0-10\8--0-10-0--8/10-0-10\8--0-10-0--8/10-0-10\8--0-10-0--8/10-0-10\8--5-5-5--8-5-|
D#|-0-------0----0-------0-------0----0-------0-------0----0-------0------------------|

E |----------------------------------------------------------------------------------|
B |----------------------------------------------------------------------------------|
G#|---12\10---12---10/12---12\10---12---10/12---12\10---12---10/12---12\10-7-7-7-7-7-|
D#|-0--x--x-0--x-0--x--x-0--x--x-0--x-0--x--x-0--x--x-0--x-0--x--x-0--x--x-x-x-x-x-x-|
A#|-0-10\8--0-10-0--8/10-0-10\8--0-10-0--8/10-0-10\8--0-10-0--8/10-0-10\8--5-5-5-5-5-|
D#|-0-------0----0-------0-------0----0-------0-------0----0-------0-----------------|

E |-----------------------------------------------------------------------|
B |-----------------------------------------------------------------------|
G#|-7-7-7-7-7-7-7-7-------------------------------------------------------|
D#|-7-7-7-7-7-7-7-7-5-5-5-5-5-5-5-5-10-10-10-10-10-10-10-10-7-7-7-7-7-3-3-|
A#|-5-5-5-5-5-5-5-5-5-5-5-5-5-5-5-5--8--8--8--8--8--8--8--8-7-7-7-7-7-3-3-|
D#|-----------------5-5-5-5-5-5-5-5--8--8--8--8--8--8--8--8-7-7-7-7-7-3-3-|

E |-----------------------------------------------------------------------|
B |-----------------------------------------------------------------------|
G#|-7-7-7-7-7-7-7-7-------------------------------------------------------|
D#|-7-7-7-7-7-7-7-7-5-5-5-5-5-5-5-5-10-10-10-10-10-10-10-10-7-7-7-3-3-3-3-|
A#|-5-5-5-5-5-5-5-5-5-5-5-5-5-5-5-5--8--8--8--8--8--8--8--8-7-7-7-3-3-3-3-|
D#|-----------------5-5-5-5-5-5-5-5--8--8--8--8--8--8--8--8-7-7-7-3-3-3-3-|

Verse
E |----------------------------------------------------------------------------|
B |----------------------------------------------------------------------------|
G#|---12\10--12--10/12---12\10--12--10/12---12\10--12--10/12---12-10------10---|
D#|---x--x---x----x-x----x--x---x----x-x----x--x---x----x-x----x--x-------x----|
A#|-0-10\8-0-10-0-8/10-0-10\8-0-10-0-8/10-0-10\8-0-10-0-8/10-0-10\8-0-0-0-8----|
D#|-0------0----0------0------0----0------0------0----0------0------0-0-0------|

E |----------------------------------------------------------------------------|
B |----------------------------------------------------------------------------|
G#|---12\10--12--10/12---12\10-----10-10---12\10--12--10/12--12\10------10-----|
D#|---x--x---x----x-x----x--x-------x-x----x--x---x----x-x----x--x-------x-----|
A#|-0-10\8-0-10-0-8/10-0-10\8-0-0-0-8-8----10\8-0-10-0-8/10-0-10\8-0-0-0-8-----|
D#|-0------0----0------0------0-0-0------0------0----0------0------0-0-0-------|

E |----------------------------------------------------------------------------|
B |----------------------------------------------------------------------------|
G#|---12\10--12--10/12---12\10-----10-10---12\10--12--10/12---12/10--12--10/12-|
D#|---x--x---x----x-x----x--x-------x-x----x--x---x----x-x----x--x---x----x-x--|
A#|-0-10\8-0-10-0-8/10-0-10\8-0-0-0-8-8--0-10\8-0-10-0-8/10-0-10\8-0-10-0-8/10-|
D#|-0------0----0------0------0-0-0------0------0----0------0------0----0------|

Pre-Chorus
E |------------------------------------------------------------------------------------------------|
B |------------------------------------------------------------------------------------------------|
G#|---14-14-14-14-10-10-10-10-15-15-15-15-10-10-10-10-14-14-14-14-10-10-10-10/12-12-12-12-10-10-10-|
D#|----x--x--x--x--x--x--x--x--x--x--x--x--x--x--x-x--x--x--x--x--x--x--x--x--x--x--x--x--x--x--x--|
A#|-0-12-12-12-12--8--8--8--8-13-13-13-13--8--8--8-8--12-12-12-12-8--8--8--8-/10-10-10-10-8--8--8--|
D#|-0----------------------------------------------------------------------------------------------|

Chorus
E |-------------------------------------------------------------------------|
B |-------------------------------------------------------------------------|
G#|-7-7-7-7-7-7-7-7-5-5-5-5-5-5-5-5-----------------------------------------|
D#|-7-7-7-7-7-7-7-7-5-5-5-5-5-5-5-5-10-10-10-10-10-10-10-10-7-7-7-7-7-3-3---|
A#|-5-5-5-5-5-5-5-5-3-3-3-3-3-3-3-3-8--8--8--8--8--8--8--8--7-7-7-7-7-3-3---|
D#|---------------------------------8--8--8--8--8--8--8--8--7-7-7-7-7-3-3---|

E |-------------------------------------------------------------------------|
B |-------------------------------------------------------------------------|
G#|-7-7-7-7-7-7-7-7-5-5-5-5-5-5-5-5-----------------------------------------|
D#|-7-7-7-7-7-7-7-7-5-5-5-5-5-5-5-5-7-7-7-7-7-7-7-7-10-10-10-10-10-10-10-10-|
A#|-5-5-5-5-5-5-5-5-3-3-3-3-3-3-3-3-7-7-7-7-7-7-7-7--8--8--8--8--8--8--8--8-|
D#|---------------------------------7-7-7-7-7-7-7-7--8--8--8--8--8--8--8--8-|

Pos-Chorus.01
E |-----------------------------|
B |-----------------------------|
G#|-----10-9--------------------|
D#|-0-0--x-x-10--8-8-0-3-3-3-0~-|
A#|-0-0--8-7-10--8-8-0-3-3-3-0~-|
D#|-0-0------10--8-8-0-3-3-3-0~-|

Bridge
E |--------------------------------------------------------------|
B |--------------------------------------------------------------|
G#|-----10-9------------10\9---------10-9------------12-12-12-10-|
D#|-0-0--x-x--10--8-8-0--x-x-10--0-0--x-x--10--8-8-0--x--x--x--x-|
A#|-0-0--8-7---x--8-8-0--8\7--x--0-0--8-7---x--8-8-0-10-10-10--8-|
D#|-0-0-------10--8-8-0------10--0-0-------10--8-8-0-------------|

E |--------------------------------------------------------------|
B |--------------------------------------------------------------|
G#|-----10-9------------------------10-9------------12-12-12-10--|
D#|-0-0--x-x-0-10-0-10-0-10-12--0-0--x-x--10--8-8-0--x--x--x--x--|
A#|-0-0--8-7-0-10-0-10-0-10-12--0-0--8-7---x--8-8-0-10-10-10--8--|
D#|-0-0------0-10-0-10-0-10-12--0-0-------10--8-8-0--------------|

E |-------------------------------------------------------------------------------------------------|
B |-------------------------------------------------------------------------------------------------|
G#|-14-14-14-14-14-14-14-14-14-14-14-14-14-14-14-14-------------------------------------------------|
D#|-x--x--x--x--x--x--x--x--x--x--x--x--x--x--x--x--10-10-10-10-10-10-10-10-12-12-12-12-12-12-12-12-|
A#|-12-12-12-12-12-12-12-12-12-12-12-12-12-12-12-12--8--8--8--8--8--8--8--8-10-10-10-10-10-10-10-10-|
D#|--------------------------------------------------8--8--8--8--8--8--8--8-10-10-10-10-10-10-10-10-|

Last Chorus
gtr.02
E |-------------------------------------------------|
B |-------------------------------------------------|
G#|-14-14-14-14-14-14-14-14-17-17-17-17-17-17-17-17-|
D#|--x--x--x--x--x--x--x--x--x--x--x--x--x--x--x--x-|
A#|-12-12-12-12-12-12-12-12-15-15-15-15-15-15-15-15-|
D#|-------------------------------------------------|

E |-------------------------------------------------------------------------------------------------|
B |-------------------------------------------------------------------------------------------------|
G#|-14-14-14-14-14-14-14-14-17-17-17-17-17-17-17-17-21-21-21-21-21-21-21-21-22-22-22-22-22-22-22-22-|
D#|--x--x--x--x--x--x--x--x--x--x--x--x--x--x--x--x--x--x--x--x--x--x--x--x--x--x--x--x--x--x--x--x-|
A#|-12-12-12-12-12-12-12-12-15-15-15-15-15-15-15-15-19-19-19-19-19-19-19-19-20-20-20-20-20-20-20-20-|
D#|-------------------------------------------------------------------------------------------------|

Ending...
E |---------------------------|-----------------------------------|
B |---------------------------|-----------------------------------|
G#|-----------7-7-7-7-7-7-7-7-|-----------------------------------|
D#|-7-3-5-0-0-6-6-6-6-6-7-7-7-|-7-3-5-0-0-10-10-10-10-12-12-12-12-|
A#|-7-3-5-0-0-----------------|-7-3-5-0-0--8--8--8--8-10-10-10-10-|
D#|-7-3-5-0-0-----------------|-7-3-5-0-0--8--8--8--8-10-10-10-10-|

E |---------------------------|-----------------------------|
B |---------------------------|-----------------------------|
G#|-----------7-7-7-7-7-7-7-7-|-----------------------------|
D#|-7-3-5-0-0-6-6-6-6-6-7-7-7-|-7-3-5-0-0-13-13-13-10-10-10-|
A#|-7-3-5-0-0-----------------|-7-3-5-0-0-13-13-13--8--8--8-|
D#|-7-3-5-0-0-----------------|-7-3-5-0-0-13-13-13--8--8--8-|

End
E |------|---|
B |------|---|
G#|------|---|
D#|-0-0~-|-0-|
A#|-0-0~-|-0-|
D#|-0-0~-|-0-|
STOP LOOKING START SEEING

tuning:from high to low D#
                        A#
                        G#
                        C#
                        G#
                        C#

first part
1|-----------------------------------------------------------------------|
2|-----------------------------------------------------------------------|
3|-----------------------------------------------------------------------|2x
4|0h2--------0h2---12-14-------------------------------------------------|
5|0h2--------0h2---12-14-------------------------------------------------|
6|0h2--------0h2---12-14-------------------------------------------------|

second part, palm mute some bits
1|----------------------------------------------------------------------|
2|----------------------------------------------------------------------|
3|----------------------------------------------------------------------|4x
4|0h2-5p4---------------------------------------------------------------|
5|0h2----5h7-7-7-7-7-5-5-5-5-------10-10-10-10-9-9-9-9-5-5-5-5----------|
6|0h2-----------------------5-5-5-5-------------------------------------

third part
1|----------------------------------------------------------------------|
2|----------------------------------------------------------------------|
3|12--11-7--9---------12--11-4--7---------------------------------------|1x
4|10--9--5--7---------10--9--2--5-----2-3---2-3-------------------------|
5|10--9--5--7---------10--9--2--5-----2-3---2-3-------------------------|
6|10--9--5--7---------10--9--2--5-----2-3---2-3-------------------------

return to second part 

fourth part, palm mute some bits
1|---------------------------------------------------------------------|
2|---------------------------------------------------------------------|
3|---------------------------------------------------------------------|1x
4|0h2-2-2-------0h2-2-2-0h2-2-2----------------------------------------|
5|0h2-2-2-------0h2-2-2-0h2-2-2----------------------------------------|
6|0h2-2-2-------0h2-2-2-0h2-2-2----------------------------------------

return to third part

little solo
1|---------------------------------------------------------------------|
2|---------------------------------------------------------------------|
3|------5-4----------------------5-4-----------------------------------|2x
4|----5-------5-5-7-7-5--------5-------5-5-7-7-5-7---------------------|
5|5-7-------7-----------7--5-7-------7---------------------------------|
6|---------------------------------------------------------------------|

fifth part, palm mute some bits
1|---------------------------------------------------------------------|
2|---------------------------------------------------------------------|
3|---------------------------------------------------------------------|1x
4|0h2-2-2-2-2-2-2-2-2-2-2-0h2-2-2-0h2-2-2-2-2-2-2-2-2-2-2-0h2-2-2------|
5|0h2-2-2-2-2-2-2-2-2-2-2-0h2-2-2-0h2-2-2-2-2-2-2-2-2-2-2-0h2-2-2------|
6|0h2-2-2-2-2-2-2-2-2-2-2-0h2-2-2-0h2-2-2-2-2-2-2-2-2-2-2-0h2-2-2------|

then the little solo again

sixth part
1|--------------------------------------------------------------------|
2|--------------------------------------------------------------------|
3|--------------------------------------------------------------------|
4|0h2-2-2-2-2---0h2-2-2-0h2-2-2---7-7-7-7-9-9-9-9---------------------|
5|0h2-2-2-2-2---0h2-2-2-0h2-2-2---7-7-7-7-9-9-9-9---------------------|
6|0h2-2-2-2-2---0h2-2-2-0h2-2-2---7-7-7-7-9-9-9-9---------------------|

then the third part again but instead of 2-3, you play:
4|10-10-10-9-5-5
5|10-10-10-9-5-5
6|10-10-10-9-5-5

and after that you play the whole third part
and then the sixth part without the 7-7-7-7-9-9-9-9 at the end, but you could better
listen to the song for that part

TAKE ME

Intro / Chorus
e-------------------------------------
B-------------------------------------
G-6-6-6-xxx-2-2-xxx-7-7-7-xxx---------
D-6-6-6-xxx-2-2-xxx-7-7-7-xxx-4-4-4---
A-4-4-4-xxx-0-0-xxx-4-4-4-xxx-4-4-4---
E-----------------------------2-2-2---

VERSE
e--------------------------
B--------------------------
G--------------------------
D-------6-6-6-------5-5-5--  .... Continued (havent put much time into learning the rest)
A-4-4-4-------7-7-7--------
E--------------------------
 [_______________________]
           *PM*


Pre-Chorus
e-------------------------------------
B-------------------------------------
G-6-6-6-4-------------------4-4-4-4-4-
D-6-6-6-4-7-7-7-7-2-2-2-2-2-4-4-4-4-4-
A-4-4-4-2-7-7-7-7-2-2-2-2-2-2-2-2-2-2-
E---------5-5-5-5-0-0-0-0-0-----------


Intro / Chorus
e-------------------------------------
B-------------------------------------
G-6-6-6-xxx-2-2-xxx-7-7-7-xxx---------
D-6-6-6-xxx-2-2-xxx-7-7-7-xxx-4-4-4---
A-4-4-4-xxx-0-0-xxx-4-4-4-xxx-4-4-4---
E-----------------------------2-2-2---

GETTING AWAY WITH MURDER

Drop C Tuning

The bass and drums come in first

Intro (Main Riff)
D------------------------------------------------------------------------
A------------------------------------------------------------------------
F------------------------------------------------------------------------
C-0-0-0-0-0-0-0-0-7-7-7-7-7-7-7-7-10-7-8-8-8-8-8-8-8-10-7-7-7-7-7-7-5p3-5
G-0-0-0-0-0-0-0-0-7-7-7-7-7-7-7-7-10-7-8-8-8-8-8-8-8-10-7-7-7-7-7-7-5p3-5
C-0-0-0-0-0-0-0-0-7-7-7-7-7-7-7-7-10-7-8-8-8-8-8-8-8-10-7-7-7-7-7-7-5p3-5

Play the intro riffs for the verse

Chorus "I feel irrational, so confrontational..."
D----------------------------------------------------------
A----------------------------------------------------------
F----------------------------------------------------------
C-0-------8-------5-------1-------0-------8-------3-------1
G-0-------8-------5-------1-------0-------8-------3-------1
C-0-------8-------5-------1-------0-------8-------3-------1
*strum chords

Then the verse
Then the chorus

Bridge
D---------------------------------------------------------------
A---------------------------------------------------------------
F---------------------------------------------------------------
C-12-10-10-8-8-7-7-7-8-8-8-10-7--3-3-3-3-3-3-3-3/7-7-7-7-7-7-7-7
G-12-10-10-8-8-7-7-7-8-8-8-10-7--3-3-3-3-3-3-3-3/7-7-7-7-7-7-7-7
C-12-10-10-8-8-7-7-7-8-8-8-10-7--3-3-3-3-3-3-3-3/7-7-7-7-7-7-7-7

Bridge(continued)
D-----------------------------------------------------------------------
A-----------------------------------------------------------------------
F-----------------------------------------------------------------------
C-12-10-10-8-8-7-7-7-8-8-8-10-7--3-3-3-3-3-3-3-3/7-7-7-7-7-7-7-7-8-7-5-3
G-12-10-10-8-8-7-7-7-8-8-8-10-7--3-3-3-3-3-3-3-3/7-7-7-7-7-7-7-7-8-7-5-3
C-12-10-10-8-8-7-7-7-8-8-8-10-7--3-3-3-3-3-3-3-3/7-7-7-7-7-7-7-7-8-7-5-3

BE FREE

Verse
D|-----------------------------------------------------------------------------|
A|-----------------------------------------------------------------------------|
F|-----------------------------------------------------------------------------|
C|-2-2-----5-5--7-7---10-10--9-9-----------------------------------------------|
G|-2-2-----5-5--7-7---10-10--9-9-------~9~-------------------------------------|
C|-2-2-----5-5--7-7---10-10--9-9-----------------------------------------------|

The bend on the middle 9th note is only on the second time (both verses).

Pre-Chorus

D-----------------------------------------------------------------------------|
A-----------------------------------------------------------------------------|
F-----------------------------------------------------------------------------|
C--2-2---xxx----5-5---7-7------10\----10-10--9-9------------------------------|
G--2-2---xxx----5-5---7-7------10\----10-10--9-9------------------------------|
C--2-2---xxx----5-5---7-7------10\----10-10--9-9------------------------------|
 ^play with some harmonics here^

Chorus...No Rythym here just chords...

D|-------------------------------------------------------------------------------|
A|-------------------------------------------------------------------------------|
F|-------------------------------------------------------------------------------|
C|-14--10---12----14---17---12----10---9-----------------------------------------|
G|-14--10---12----14---17---12----10---9-----------------------------------------|
C|-14--10---12----14---17---12----10---9-----------------------------------------|


Bridge:     No Rythym
D-----------------------------------------------------------------------------|
A-----------------------------------------------------------------------------|
F-----------------------------------------------------------------------------|
C-14-10--9--------------------------------------------------------------------|
G-14-10--9--------------------------------------------------------------------|
C-14-10--9--------------------------------------------------------------------|

Then Slide your 6th string and go into the chorus again.  Heres the End....
no rhytym added
D-----------------------------------------------------------------------------|
A-----------------------------------------------------------------------------|
F-----------------------------------------------------------------------------|
C-14-10--12--14--10---9-------------------------------------------------------|
G-14-10--12--14--10---9-------------------------------------------------------|
C-14-10--12--14--10---9-------------------------------------------------------|
         ^ Hold the 12

DONE WITH YOU

Tuning for both guitars - D# A# D# G# B E

 Intro
  Q=140
 4/4
  Gtr I
  PM-------------------------------------------------------------------|
  E E E E E E E E   E E E E E E E  E   E E E E E E E E   E E E E E E E E
|-----------------|------------------|-----------------|------------------|
|-----------------|------------------|-----------------|------------------|
|-----------------|------------------|-----------------|------------------|
|-7-7-7-7-7-7-7-0-|-5-5-5-5-5-5-5-12-|-0-0-0-0-0-0-0-0-|-3-3-3-0-5-5-5-0--|
|-7-7-7-7-7-7-7-0-|-5-5-5-5-5-5-5-12-|-0-0-0-0-0-0-0-0-|-3-3-3-0-5-5-5-0--|
|-7-7-7-7-7-7-7-0-|-5-5-5-5-5-5-5-12-|-0-0-0-0-0-0-0-0-|-3-3-3-0-5-5-5-0--|


  PM-------------------------------------------------------------|
  E E E E E E E E   E E E E E E E  E   E E E E E E E E   E E E E E E Q
|-----------------|------------------|-----------------|----------------|
|-----------------|------------------|-----------------|----------------|
|-----------------|------------------|-----------------|----------------|
|-7-7-7-7-7-7-7-0-|-5-5-5-5-5-5-5-12-|-0-0-0-0-0-0-0-0-|-3-3-3-0-5-5-5--|
|-7-7-7-7-7-7-7-0-|-5-5-5-5-5-5-5-12-|-0-0-0-0-0-0-0-0-|-3-3-3-0-5-5-5--|
|-7-7-7-7-7-7-7-0-|-5-5-5-5-5-5-5-12-|-0-0-0-0-0-0-0-0-|-3-3-3-0-5-5-5--|


 Verse
  E E  E   E   E   E   E  E   E E  E   E   E   E   E   E
|---------------------------|----------------------------|
|---------------------------|----------------------------|
|---------------------------|----------------------------|
|-7-7---------------------0-|-5-5---------------------12-|
|-7-7---------------------0-|-5-5---------------------12-|
|-7-7-<7>-<7>-<7>-<7>-<7>-0-|-5-5-<5>-<5>-<5>-<5>-<5>-12-|
|
| Gtr II
| E E  H.                     E E  H.
|---------------------------|----------------------------|
|---------------------------|----------------------------|
|---------------------------|----------------------------|
|-7-7-----------------------|-5-5------------------------|
|-7-7-----------------------|-5-5------------------------|
|-7-7-----------------------|-5-5------------------------|


  E E  E   E   E   E   E   E    E E  E  E E E E E
|-----------------------------|-------------------|
|-----------------------------|-------------------|
|-----------------------------|-------------------|
|-0-0-------------------------|-3-3--x--0-5-5-x-0-|
|-0-0-<2>-<2>-<3>-<3>-<2>-<3>-|-3-3--x--0-5-5-x-0-|
|-0-0-<2>-<2>-<3>-<3>-<2>-<3>-|-3-3--x--0-5-5-x-0-|
|
| E E  H.                       E E  Q    E E Q
|-----------------------------|-------------------|
|-----------------------------|-------------------|
|-----------------------------|-------------------|
|-0-0-------------------------|-3-3-------5-5-----|
|-0-0-------------------------|-3-3-------5-5-----|
|-0-0-------------------------|-3-3-------5-5-----|


  E E  E   E   E   E   E  E   E E  E   E   E   E   E   E
|---------------------------|----------------------------|
|---------------------------|----------------------------|
|---------------------------|----------------------------|
|-7-7---------------------0-|-5-5---------------------12-|
|-7-7---------------------0-|-5-5---------------------12-|
|-7-7-<7>-<7>-<7>-<7>-<7>-0-|-5-5-<5>-<5>-<5>-<5>-<5>-12-|
|
| E E  H.                     E E  H.
|---------------------------|----------------------------|
|---------------------------|----------------------------|
|---------------------------|----------------------------|
|-7-7-----------------------|-5-5------------------------|
|-7-7-----------------------|-5-5------------------------|
|-7-7-----------------------|-5-5------------------------|


      PM---------|
  E E E  E E E E E   E E E E E E E E
|------------------|-----------------|
|------------------|-----------------|
|------------------|-----------------|
|-0-0--------------|-3-3-3-0-5-5-5-0-|
|-0-0-0--0-0-0-0-0-|-3-3-3-0-5-5-5-0-|
|-0-0-0--0-0-0-0-0-|-3-3-3-0-5-5-5-0-|
|
| E E H.             E E E E E E E E
|------------------|-----------------|
|------------------|-----------------|
|------------------|-----------------|
|-0-0--------------|-3-3-3-0-5-5-5-0-|
|-0-0--------------|-3-3-3-0-5-5-5-0-|
|-0-0--------------|-3-3-3-0-5-5-5-0-|


 Chorus
  Gtrs I, II
  E E E E E E E E   E E E E E E E E   E E E E E E E E   E E E E E E E E
|-----------------|-----------------|-----------------|-----------------|
|-----------------|-----------------|-----------------|-----------------|
|-----------------|-----------------|-----------------|-----------------|
|-7-7-7-7-7-7-7-7-|-3-3-3-3-3-3-3-3-|-0-0-0-0-0-0-0-0-|-5-5-5-5-5-5-5-5-|
|-7-7-7-7-7-7-7-7-|-3-3-3-3-3-3-3-3-|-0-0-0-0-0-0-0-0-|-5-5-5-5-5-5-5-5-|
|-7-7-7-7-7-7-7-7-|-3-3-3-3-3-3-3-3-|-0-0-0-0-0-0-0-0-|-5-5-5-5-5-5-5-5-|


  E E E E E E E E   E E E E E E E E
|-----------------|-----------------|
|-----------------|-----------------|
|-----------------|-----------------|
|-7-7-7-7-7-7-7-7-|-3-3-3-3-3-3-3-3-|
|-7-7-7-7-7-7-7-7-|-3-3-3-3-3-3-3-3-|
|-7-7-7-7-7-7-7-7-|-3-3-3-3-3-3-3-3-|


  E E E E  E  E  E  E    E  E  E  E  E  E  E  E
|---------------------|-------------------------|
|---------------------|-------------------------|
|---------14-14-14-14-|-14-14-14-14-14-14-14-14-|
|-0-0-0-0--x--x--x--x-|--x--x--x--x--x--x--x--x-|
|-0-0-0-0-12-12-12-12-|-12-12-12-12-12-12-12-12-|
|-0-0-0-0--0--0--0--0-|-------------------------|


  W          W          W          +W
|----------|----------|----------|--------|
|----------|----------|----------|--------|
|----------|----------|----------|--------|
|-5--------|-5--------|-3--------|-(3)----|
|-3--------|-5--------|-3--------|-(3)----|
|-5--------|-5--------|-3--------|-(3)----|


 Verse
  Gtr I
  E E  E   E   E   E   E  E   E E  E   E   E   E   E   E
|---------------------------|----------------------------|
|---------------------------|----------------------------|
|---------------------------|----------------------------|
|-7-7---------------------0-|-5-5---------------------12-|
|-7-7---------------------0-|-5-5---------------------12-|
|-7-7-<7>-<7>-<7>-<7>-<7>-0-|-5-5-<5>-<5>-<5>-<5>-<5>-12-|


  E E  E   E   E   E   E   E    E E  E  E E E E E
|-----------------------------|-------------------|
|-----------------------------|-------------------|
|-----------------------------|-------------------|
|-0-0-------------------------|-3-3--x--0-5-5-x-0-|
|-0-0-<2>-<2>-<3>-<3>-<2>-<3>-|-3-3--x--0-5-5-x-0-|
|-0-0-<2>-<2>-<3>-<3>-<2>-<3>-|-3-3--x--0-5-5-x-0-|


  E E  E   E   E   E   E  E   E E  E   E   E   E   E   E
|---------------------------|----------------------------|
|---------------------------|----------------------------|
|---------------------------|----------------------------|
|-7-7---------------------0-|-5-5---------------------12-|
|-7-7---------------------0-|-5-5---------------------12-|
|-7-7-<7>-<7>-<7>-<7>-<7>-0-|-5-5-<5>-<5>-<5>-<5>-<5>-12-|


      PM--------|
  E E E E E E E E   E E  E  E E E E E
|-----------------|-------------------|
|-----------------|-------------------|
|-----------------|-------------------|
|-0-0-------------|-3-3--x--0-5-5-x-0-|
|-0-0-0-0-0-0-0-0-|-3-3--x--0-5-5-x-0-|
|-0-0-0-0-0-0-0-0-|-3-3--x--0-5-5-x-0-|


  E E  E   E   E   E   E  E   E E  E   E   E   E   E   E
|---------------------------|----------------------------|
|---------------------------|----------------------------|
|---------------------------|----------------------------|
|-7-7---------------------0-|-5-5---------------------12-|
|-7-7---------------------0-|-5-5---------------------12-|
|-7-7-<7>-<7>-<7>-<7>-<7>-0-|-5-5-<5>-<5>-<5>-<5>-<5>-12-|
|
| Gtr II
| E E  H.                     E E  H.
|---------------------------|----------------------------|
|---------------------------|----------------------------|
|---------------------------|----------------------------|
|-7-7-----------------------|-5-5------------------------|
|-7-7-----------------------|-5-5------------------------|
|-7-7-----------------------|-5-5------------------------|


  E E  E   E   E   E   E   E    E E  E  E E E E E
|-----------------------------|-------------------|
|-----------------------------|-------------------|
|-----------------------------|-------------------|
|-0-0-------------------------|-3-3--x--0-5-5-x-0-|
|-0-0-<2>-<2>-<3>-<3>-<2>-<3>-|-3-3--x--0-5-5-x-0-|
|-0-0-<2>-<2>-<3>-<3>-<2>-<3>-|-3-3--x--0-5-5-x-0-|
|
| E E  H.                       E E  Q    E E Q
|-----------------------------|-------------------|
|-----------------------------|-------------------|
|-----------------------------|-------------------|
|-0-0-------------------------|-3-3-------5-5-----|
|-0-0-------------------------|-3-3-------5-5-----|
|-0-0-------------------------|-3-3-------5-5-----|


  E E  E   E   E   E   E  E   E E  E   E   E   E   E   E
|---------------------------|----------------------------|
|---------------------------|----------------------------|
|---------------------------|----------------------------|
|-7-7---------------------0-|-5-5---------------------12-|
|-7-7---------------------0-|-5-5---------------------12-|
|-7-7-<7>-<7>-<7>-<7>-<7>-0-|-5-5-<5>-<5>-<5>-<5>-<5>-12-|
|
| E E  H.                     E E  H.
|---------------------------|----------------------------|
|---------------------------|----------------------------|
|---------------------------|----------------------------|
|-7-7-----------------------|-5-5------------------------|
|-7-7-----------------------|-5-5------------------------|
|-7-7-----------------------|-5-5------------------------|


      PM---------|
  E E E  E E E E E   E E E E E E E E
|------------------|-----------------|
|------------------|-----------------|
|------------------|-----------------|
|-0-0--------------|-3-3-3-0-5-5-5-0-|
|-0-0-0--0-0-0-0-0-|-3-3-3-0-5-5-5-0-|
|-0-0-0--0-0-0-0-0-|-3-3-3-0-5-5-5-0-|
|
| E E H.             E E E E E E E E
|------------------|-----------------|
|------------------|-----------------|
|------------------|-----------------|
|-0-0--------------|-3-3-3-0-5-5-5-0-|
|-0-0--------------|-3-3-3-0-5-5-5-0-|
|-0-0--------------|-3-3-3-0-5-5-5-0-|


 Chorus
  Gtrs I, II
  E E E E E E E E   E E E E E E E E   E E E E E E E E   E E E E E E E E
|-----------------|-----------------|-----------------|-----------------|
|-----------------|-----------------|-----------------|-----------------|
|-----------------|-----------------|-----------------|-----------------|
|-7-7-7-7-7-7-7-7-|-3-3-3-3-3-3-3-3-|-0-0-0-0-0-0-0-0-|-5-5-5-5-5-5-5-5-|
|-7-7-7-7-7-7-7-7-|-3-3-3-3-3-3-3-3-|-0-0-0-0-0-0-0-0-|-5-5-5-5-5-5-5-5-|
|-7-7-7-7-7-7-7-7-|-3-3-3-3-3-3-3-3-|-0-0-0-0-0-0-0-0-|-5-5-5-5-5-5-5-5-|


  E E E E E E E E   E E E E E E E E
|-----------------|-----------------|
|-----------------|-----------------|
|-----------------|-----------------|
|-7-7-7-7-7-7-7-7-|-3-3-3-3-3-3-3-3-|
|-7-7-7-7-7-7-7-7-|-3-3-3-3-3-3-3-3-|
|-7-7-7-7-7-7-7-7-|-3-3-3-3-3-3-3-3-|


  E E E E  E  E  E  E    E  E  E  E  E  E  E  E
|---------------------|-------------------------|
|---------------------|-------------------------|
|---------14-14-14-14-|-14-14-14-14-14-14-14-14-|
|-0-0-0-0--x--x--x--x-|--x--x--x--x--x--x--x--x-|
|-0-0-0-0-12-12-12-12-|-12-12-12-12-12-12-12-12-|
|-0-0-0-0--0--0--0--0-|-------------------------|


                        PM------------------------------|
  W          W          E E E E E E E E   E E E E E E E E
|----------|----------|-----------------|-----------------|
|----------|----------|-----------------|-----------------|
|----------|----------|-----------------|-----------------|
|-5--------|-5--------|-3-3-3-3-3-3-3-3-|-3-3-3-3-3-3-3-3-|
|-3--------|-5--------|-3-3-3-3-3-3-3-3-|-3-3-3-3-3-3-3-3-|
|-5--------|-5--------|-3-3-3-3-3-3-3-3-|-3-3-3-3-3-3-3-3-|


   Bridge
    E Q  E H      E Q  E Q  Q    E Q  E H      E Q  E Q  Q    4x
||--------------|--------------|-------------|----------------||
||o-------------|--------------|-------------|---------------o||
||--------------|--------5-----|-------------|----------------||
||--7-7--5-7----|-3-3--3-x--3--|-0-0--5-0----|-0-0--5-0--5----||
||o-7-7--5-7----|-3-3--3-3--3--|-0-0--3-0----|-0-0--3-0--3---o||
||--7-7--5-7----|-3-3--3----3--|-0-0--5-0----|-0-0--5-0--5----||


 Pre-Chorus
  Gtr I
  PM-------------------------------------------------------------------|
  E E E E E E E E   E E E E E E E  E   E E E E E E E E   E E E E E E E E
|-----------------|------------------|-----------------|-----------------|
|-----------------|------------------|-----------------|-----------------|
|-----------------|------------------|-----------------|-----------------|
|-7-7-7-7-7-7-7-0-|-5-5-5-5-5-5-5-12-|-0-0-0-0-0-0-0-0-|-3-3-3-0-5-5-5-0-|
|-7-7-7-7-7-7-7-0-|-5-5-5-5-5-5-5-12-|-0-0-0-0-0-0-0-0-|-3-3-3-0-5-5-5-0-|
|-7-7-7-7-7-7-7-0-|-5-5-5-5-5-5-5-12-|-0-0-0-0-0-0-0-0-|-3-3-3-0-5-5-5-0-|


  PM-------------------------------------------------------------|
  E E E E E E E E   E E E E E E E  E   E E E E E E E E   E E E E E E E E
|-----------------|------------------|-----------------|-----------------|
|-----------------|------------------|-----------------|-----------------|
|-----------------|------------------|-----------------|-----------------|
|-7-7-7-7-7-7-7-0-|-5-5-5-5-5-5-5-12-|-0-0-0-0-0-0-0-0-|-3-3-3-0-5-5-5-0-|
|-7-7-7-7-7-7-7-0-|-5-5-5-5-5-5-5-12-|-0-0-0-0-0-0-0-0-|-3-3-3-0-5-5-5-0-|
|-7-7-7-7-7-7-7-0-|-5-5-5-5-5-5-5-12-|-0-0-0-0-0-0-0-0-|-3-3-3-0-5-5-5-0-|


 Chorus
  Gtrs I, II
  E E E E E E E E   E E E E E E E E   E E E E E E E E   E E E E E E E E
|-----------------|-----------------|-----------------|-----------------|
|-----------------|-----------------|-----------------|-----------------|
|-----------------|-----------------|-----------------|-----------------|
|-7-7-7-7-7-7-7-7-|-3-3-3-3-3-3-3-3-|-0-0-0-0-0-0-0-0-|-5-5-5-5-5-5-5-5-|
|-7-7-7-7-7-7-7-7-|-3-3-3-3-3-3-3-3-|-0-0-0-0-0-0-0-0-|-5-5-5-5-5-5-5-5-|
|-7-7-7-7-7-7-7-7-|-3-3-3-3-3-3-3-3-|-0-0-0-0-0-0-0-0-|-5-5-5-5-5-5-5-5-|


  Q.   Q  E Q    Q.   Q  E Q
|--------------|--------------|
|--------------|--------------|
|--------------|--------------|
|-7----7--7-7--|-3----3--3-3--|
|-7----7--7-7--|-3----3--3-3--|
|-7----7--7-7--|-3----3--3-3--|


  Gtr I
   E  E  E  E  E  E  E  E    E  E  E  E  E  E  E  E
|-------------------------|-------------------------|
|-------------------------|-------------------------|
|-14-14-14-14-14-14-14-14-|-14-14-14-14-14-14-14-14-|
|--x--x--x--x--x--x--x--x-|--x--x--x--x--x--x--x--x-|
|-12-12-12-12-12-12-12-12-|-12-12-12-12-12-12-12-12-|
|-------------------------|-------------------------|


    W          W           E  E  E  E  E  E  E  E    E  E  E  E  E  E  E  E   3x
||-----------|----------|-------------------------|---------------------------||
||o----------|----------|-------------------------|--------------------------o||
||-----------|----------|-14-14-14-14-14-14-14-14-|-14-14-14-14-14-14-14-14---||
||--5--------|-5--------|--x--x--x--x--x--x--x--x-|--x--x--x--x--x--x--x--x---||
||o-3--------|-5--------|-12-12-12-12-12-12-12-12-|-12-12-12-12-12-12-12-12--o||
||--5--------|-5--------|-------------------------|---------------------------||


  W          W          W          +W
|----------|----------|----------|--------*|
|----------|----------|----------|--------*|
|----------|----------|----------|--------*|
|-5--------|-5--------|-3--------|-(3)----*|
|-3--------|-5--------|-3--------|-(3)----*|
|-5--------|-5--------|-3--------|-(3)----*|

SCARS

Chours
|-----------------------|    (1x)
|-----------------------|
|--4-----------6--------|
|--4-----4-----6-----2--|         Listen to the song for the rythem
|--2-----4-----4-----2--|
|--------4-----------2--|
then

|------------------------------------|  (1x)
|------------------------------------|
|--4-----------6---------------------|
|--4-----4-----6-----2-----4-----6---|
|--2-----4-----4-----2-----4-----6---|
|--------4-----------2-----4-----6---|

Verse

|-------------------| (2x)
|-------------------|
|-------------------|
|--6----1----2----4-|
|--6----1----2----4-|
|--6----1----2----4-|

SOMETIMES(ONLY SOLO)

C#|---------------------------------------------------------------------------
A#|-10-10-10-10-10vv10-11p10-------------------------------------653----------
F#|--------------------------9vvv-------5----------10---\7-7vvv------52-------
C#|---------------------------------5h7------10h12----------------------5-----
B |---------------------------------------------------------------------------
C#|---------------------------------------------------------------------------
                                                                              

--5vvvv5vv5vv---8-8b-8--------------------------------------------------------
------------------------------------------------------------------------------
----------------------9-9-x-10-x--12-5--55--x---10975-------------------------
----------------------x-x-x-x--x--x--x--xx--x---x-xxx-------------------------
----------------------7-7-x-8--x--10-3--33--x---8-753-------------------------
------------------------------------------------------------------------------

BLANKET OF FEAR(DON'T KNOW YET)

TYRANNY OF NORMALITY

Intro

E|-2-------------------------------------------------------------------------|
B|-3-------------------------------------------------------------------------|
G|-2-------------------------------------------------------------------------|
D|-0----0--10--12---0-5-10-12--0--15-12-10-0-10-12---------------------------|
A|------0--10--12---0-5-10-12--0--15-12-10-0-10-12---------------------------|
B|------0--10--12---0-5-10-12--0--15-12-10-0-10-12---------------------------|

E|---------------------------------------------------------------------------|
B|---------------------------------------------------------------------------|
G|---------------------------------------------------------------------------|
D|------0--10--12---0-5-10-12--0---3-X-3-X-3---------------------------------|
A|------0--10--12---0-5-10-12--0---3-X-3-X-3---------------------------------|
B|------0--10--12---0-5-10-12--0---3-X-3-X-3---------------------------------|

E|---------------------------------------------------------------------------|
B|---------------------------------------------------------------------------|
G|---------------------------------------------------------------------------|
D|-----0--10--12---0-5-10-12--0--15-12-10-0-10-12----------------------------|
A|-----0--10--12---0-5-10-12--0--15-12-10-0-10-12----------------------------|
B|-----0--10--12---0-5-10-12--0--15-12-10-0-10-12----------------------------|

E|---------------------------------------------------------------------------|
B|---------------------------------------------------------------------------|
G|---------------------------------------------------------------------------|
D|------0--10--12---0-5-10-12--0---7-7-7-7-7-7-7-7---------------------------|
A|------0--10--12---0-5-10-12--0---5-5-5-5-5-5-5-5---------------------------|
B|------0--10--12---0-5-10-12--0---------------------------------------------|

Verse

E|---------------------------------------------------------------------------|
B|---------------------------------------------------------------------------|
G|---------------------------------------------------------------------------|   X3
D|------X-X-9-9-X-X-11--11-----9-9--11-11------------------------------------|
A|------X-X-7-7-X-X--9---9-----7-7---9--9------------------------------------|
B|---------------------------------------------------------------------------|

E|---------------------------------------------------------------------------|
B|---------------------------------------------------------------------------|
G|---------------------------------------------------------------------------|
D|------X-X-9-9-X-X-11--11----X-X-9-9-X-X-11---------------------------------|
A|------X-X-7-7-X-X--9---9----X-X-7-7-X-X--9---------------------------------|
B|---------------------------------------------------------------------------|

Chrorus

E|---------------------------------------------------------------------------|
B|---------------------------------------------------------------------------|
G|---------------------------------------------------------------------------|
D|------0--10--12---0-5-10-12--0--15-12-10-0-10-12---------------------------|
A|------0--10--12---0-5-10-12--0--15-12-10-0-10-12---------------------------|
B|------0--10--12---0-5-10-12--0--15-12-10-0-10-12---------------------------|

E|---------------------------------------------------------------------------|
B|---------------------------------------------------------------------------|
G|---------------------------------------------------------------------------|
D|------0--10--12---0-5-10-12--0---3-X-3-X-3---------------------------------|
A|------0--10--12---0-5-10-12--0---3-X-3-X-3---------------------------------|
B|------0--10--12---0-5-10-12--0---3-X-3-X-3---------------------------------|

E|---------------------------------------------------------------------------|
B|---------------------------------------------------------------------------|
G|---------------------------------------------------------------------------|
D|-----0--10--12---0-5-10-12--0--15-12-10-0-10-12----------------------------|
A|-----0--10--12---0-5-10-12--0--15-12-10-0-10-12----------------------------|
B|-----0--10--12---0-5-10-12--0--15-12-10-0-10-12----------------------------|

E|---------------------------------------------------------------------------|
B|---------------------------------------------------------------------------|
G|---------------------------------------------------------------------------|
D|------0--10--12---0-5-10-12--0---7-7-7-7-7-7-7-7---------------------------|
A|------0--10--12---0-5-10-12--0---5-5-5-5-5-5-5-5---------------------------|
B|------0--10--12---0-5-10-12--0---------------------------------------------|

Verse

E|---------------------------------------------------------------------------|
B|---------------------------------------------------------------------------|
G|---------------------------------------------------------------------------|   X3
D|------X-X-9-9-X-X-11--11-----9-9--11-11------------------------------------|
A|------X-X-7-7-X-X--9---9-----7-7---9--9------------------------------------|
B|---------------------------------------------------------------------------|

E|---------------------------------------------------------------------------|
B|---------------------------------------------------------------------------|
G|---------------------------------------------------------------------------|
D|------X-X-9-9-X-X-11--11----X-X-9-9-X-X-11---------------------------------|
A|------X-X-7-7-X-X--9---9----X-X-7-7-X-X--9---------------------------------|
B|---------------------------------------------------------------------------|

Second Chrorus (a little bit different)

E|---------------------------------------------------------------------------|
B|---------------------------------------------------------------------------|
G|---------------------------------------------------------------------------|
D|------0--10--12---0-5-10-12--0--15-12-10-0-10-12---------------------------|
A|------0--10--12---0-5-10-12--0--15-12-10-0-10-12---------------------------|
B|------0--10--12---0-5-10-12--0--15-12-10-0-10-12---------------------------|

E|---------------------------------------------------------------------------|
B|---------------------------------------------------------------------------|
G|---------------------------------------------------------------------------|
D|------0--10--12---0-5-10-12--0---3-X-3-X-3---------------------------------|
A|------0--10--12---0-5-10-12--0---3-X-3-X-3---------------------------------|
B|------0--10--12---0-5-10-12--0---3-X-3-X-3---------------------------------|

E|---------------------------------------------------------------------------|
B|---------------------------------------------------------------------------|
G|---------------------------------------------------------------------------|
D|-----0--10--12---0-5-10-12--0--15-12-10-0-10-12----------------------------|
A|-----0--10--12---0-5-10-12--0--15-12-10-0-10-12----------------------------|
B|-----0--10--12---0-5-10-12--0--15-12-10-0-10-12----------------------------|

E|---------------------------------------------------------------------------|
B|---------------------------------------------------------------------------|
G|---------------------------------------------------------------------------|
D|------0--10--12---0-5-10-12--0---3-X-3-X-3---------------------------------|
A|------0--10--12---0-5-10-12--0---3-X-3-X-3---------------------------------|
B|------0--10--12---0-5-10-12--0---3-X-3-X-3---------------------------------|

Bridge

E|---------------------------------------------------------------------------| 
B|---------------------------------------------------------------------------|  
G|---------------------------------------------------------------------------|   
D|------7-7-7-7-7-7-7-7-7-7-7-7-7-7-7-7--5-5-5-5-5-5-5-5-5-5-5-5-5-5-5-5-----|    
A|------5-5-5-5-5-5-5-5-7-7-7-7-7-7-7-7--3-3-3-3-3-3-3-3-3-3-3-3-3-3-3-3-----|     
B|---------------------------------------------------------------------------|      
                                                                                      x3
E|---------------------------------------------------------------------------|      /
B|---------------------------------------------------------------------------|     /
G|---------------------------------------------------------------------------|    /
D|-----0--10--12---0-5-10-12--0--15-12-10-0-10-12----------------------------|   /
A|-----0--10--12---0-5-10-12--0--15-12-10-0-10-12----------------------------|  /
B|-----0--10--12---0-5-10-12--0--15-12-10-0-10-12----------------------------| /

End Chorus

E|---------------------------------------------------------------------------|
B|---------------------------------------------------------------------------|
G|---------------------------------------------------------------------------|
D|------0--10--12---0-5-10-12--0--15-12-10-0-10-12---------------------------|
A|------0--10--12---0-5-10-12--0--15-12-10-0-10-12---------------------------|
B|------0--10--12---0-5-10-12--0--15-12-10-0-10-12---------------------------|

E|---------------------------------------------------------------------------|
B|---------------------------------------------------------------------------|
G|---------------------------------------------------------------------------|
D|------0--10--12---0-5-10-12--0---3-X-3-X-3---------------------------------|
A|------0--10--12---0-5-10-12--0---3-X-3-X-3---------------------------------|
B|------0--10--12---0-5-10-12--0---3-X-3-X-3---------------------------------|

E|---------------------------------------------------------------------------|
B|---------------------------------------------------------------------------|
G|---------------------------------------------------------------------------|
D|-----0--10--12---0-5-10-12--0--15-12-10-0-10-12----------------------------|
A|-----0--10--12---0-5-10-12--0--15-12-10-0-10-12----------------------------|
B|-----0--10--12---0-5-10-12--0--15-12-10-0-10-12----------------------------|

E|---------------------------------------------------------------------------|
B|---------------------------------------------------------------------------|
G|---------------------------------------------------------------------------|
D|------0--10--12---0-5-10-12--0---3-X-3-X-3---------------------------------|
A|------0--10--12---0-5-10-12--0---3-X-3-X-3---------------------------------|
B|------0--10--12---0-5-10-12--0---3-X-3-X-3---------------------------------|

E|---------------------------------------------------------------------------|
B|---------------------------------------------------------------------------|
G|---------------------------------------------------------------------------|
D|-----0--10--12---0-5-10-12-----15-12-10-0-10-12----------------------------|
A|-----0--10--12---0-5-10-12-----15-12-10-0-10-12----------------------------|
B|-----0--10--12---0-5-10-12-----15-12-10-0-10-12----------------------------| 

E|---------------------------------------------------------------------------|
B|---------------------------------------------------------------------------|
G|---------------------------------------------------------------------------|
D|------0--10--12---0-5-10-12--0-----X-3-X-3---------------------------------|
A|------0--10--12---0-5-10-12--0-----X-3-X-3---------------------------------|
B|------0--10--12---0-5-10-12--0-----X-3-X-3---------------------------------|

DO OR DIE

TUNING - Drop Db (Db,Ab,Db,Gb,Bb,Eb)

Time sig : 4/4
Key sig : E maj for the Chorus, Db min for the rest of the song

INTRO

|----------------|----------------|
|----------------|----------------|
|----------------|----------------|
|----15--14----12|----15--14------|
|--12--------13--|--12--------1512|
|12----12--12----|12----12--12----|

VERSE

|----------------|----------------|     |----------------|----------------|
|----------------|----------------|     |----------------|----------------|
|----------------|----------------|     |----------------|----------------|
|----15--14----12|----15--14------|     |----15--14----12|----15--14------|
|--12--------15--|--12--------1512|     |--10--------15--|--10--------1512|
|12----12--12----|12----12--12----|  X3 |10----10--10----|10----10--10----|

|----------------|----------------|     |----------------|----------------|
|----------------|----------------|     |----------------|----------------|
|----------------|----------------|     |----------------|----------------|
|----15--14----12|----15--14------|     |10--------------|----------------|
|--12--------15--|--12--------1512|     |10--------------|----------------|
|12----12--12----|12----12--12----|  x3 |10--------------|----------------|

PRE-CHORUS

( in the second bar all the notes are 10s 15s or 14s ( no 1s or 0s ))

|----------------|----------------|
|----------------|----------------|
|----10---9------|----15--14------|
|8-8-8-8-8-8-108-|1010101010101510|
|8-8-8-8-8-8-8-8-|1010101010101010|
|8-8-8-8-8-8-8-8-|1010101010101010|

CHORUS

( in the second bar all the notes are 12s not 1s and 2s )

|----------------|----------------|----------------|----------------|
|----------------|----------------|----------------|----------------|
|1010101010101010|----------------|----------------|----------------|
|1010101010101010|1212121212121212|1010101010101010|9-9-9-9-9-9-9-9-|
|8-8-8-8-8-8-8-8-|1212121212121212|1010101010101010|9-9-9-9-9-9-9-9-|
|----------------|1212121212121212|1010101010101010|9-9-9-9-9-9-9-9-|

LINK

|----------------|----------------|
|----------------|----------------|
|----15--14------|----------------|
|------------1512|----15--14------|
|--12------------|--12--------1512|
|12----12--12----|12----12--12----|

INTERLUDE

|----------------|
|----------------|
|----------------|
|----3---2-----0-|
|--0---------3---|
|0-----0---0-----|

ENJOY!!!
comments
print report bad tab
7 comments total. Showing first comments.
0 reply
Silum wrote on April 5 2005, 12:00 am

at least give credit to those you stole all this from

0 reply
bgman wrote on January 31 2006, 01:24 pm

i didnt really look through it but i can tell u its wrong! good try but papa roach tuning is like this: d a d g b e. i saw it on the tab book

-1 reply
avenged7foldrox wrote on March 11 2006, 01:01 pm

the tab books arent always right

I want to post or [tab]
guest
You may want to rate the tab now too:
select rating
Please do not post tabs as comments. Select "correction" instead!