Oops, an error
Loading. Please wait.

Infest Bass Tab

ver1
ver1

Album

Whole song

Interactive

More versions @911Tabs.com
3,268 views 3 this week
no commentswrite comment
1 2 3 4 5
excellent!
x 1
Autoscroll
+/-
esc
set tempo
stop
Contributor
Hey! There's an official Ultimate Guitar app which is ideal
for learning songs when you're away from computer. Get the app
WARNING: You are trying to view
                                    content from Ultimate-Guitar.com
                                    in an unauthorized application,
                                    which is prohibited.

                                    Please use an official Ultimate
                                    Guitar Tabs application for iPhone,
                                    iPad or Android to access legitimate
                                    chords, guitar, bass, and drum tabs
                                    from Ultimate-Guitar.com database.

                                    Type "ultimate guitar tabs" in Apple
                                    App Store's or Android Market's
                                    search to find the application.
Band- Papa Roach
Album- Infest

1.INFEST

Intro:
G|----------------------------------------|
D|----------7-7---------------------------|   X2
A|----5-5--------8-8--0-0---7-7--3-3------|
E|----------------------------------------|

G|---------------------------------------------------|
D|---------------------------------------------------|   X1
A|---------------------------------------------------|
E|--5-5-5---0-5-5-5-5---0-5-5-5---0-5-5-5-5----------|


Vers:
G|---------------------------------------------------|
D|---------------------------------------------------|    X2
A|---------------------------------------------------|
E|--5-5---5-5-5-5---5-5-5-5---5-5-5-5---5-3-3--------|

G|--------------------------------------------------|
D|--------------------------------------------------|   X1
A|--5-5---5-5-5-5---5-5-5-5---5-5-5-5---5-3---------|
E|--------------------------------------------------|

G|-------------------------------------------------------|
D|-------------------------------------------------------|   X1
A|--5-5---5-5-5-5---5-5-5-5---5-5-5-5---5-3-3-3-3-3-5-5--|
E|-------------------------------------------------------|

G|--------------------------------------------------|
D|--------------------------------------------------|   X2
A|--5-5---5-5-5-5---5-5-5-5---5-5-5-5---5-3---------|
E|--------------------------------------------------|


Pre Chorus:
G|-----------------------------------|
D|-----------------------------------|   X4
A|--0-0-0-0-0-0-0-0-2-2-2-2-3-3-3-3--|
E|-----------------------------------|


Chorus:
G|------------------------------------------------------------------|
D|------------------------------------------------------------------|   X2
A|--5-5---5-5---5-5---5-5-8-5-3-0-3-3---3-3-3-3---3-3---3-3-5-3-0---|
E|------------------------------------------------------------------|


2nd Vers:
G|---------------------------------------------------|
D|---------------------------------------------------|
A|---------------------------------------------------|   X1
E|--5-5---5-5-5-5---5-5-5-5---5-5-5-5---5-3-3--------|

G|-----------------------------------------------------|
D|-----------------------------------------------------|   X1
A|--------------------------------------------5-5-5-5--|
E|--5-5---5-5-5-5---5-5-5-5---5-5-5-5---5-3-3----------|


G|--------------------------------------------------|
D|--------------------------------------------------|   X1
A|--5-5---5-5-5-5---5-5-5-5---5-5-5-5---5-3---------|
E|--------------------------------------------------|

G|-------------------------------------------------------|
D|-------------------------------------------------------|   X1
A|--5-5---5-5-5-5---5-5-5-5---5-5-5-5---5-3--5-5--5-5----|
E|-------------------------------------------------------|

G|--------------------------------------------------|
D|--------------------------------------------------|   X2
A|--5-5---5-5-5-5---5-5-5-5---5-5-5-5---5-3---------|
E|--------------------------------------------------|


Pre Chorus: X4

Chorus: X2


During Guitar Solo:
G|----------------------|
D|----------------------|
A|----71----------------|
E|--5-----3-3-2-2-------|

G|-------------|
D|-------------|   X4
A|-------------|
E|--0---3-3----|

G|----------------------|
D|----------------------|   X3
A|----------------------|
E|--3-2-3-2---3-0--3-3--|

G|-----------------|
D|-----------------|
A|-----------------|
E|--3-2-3-2---3-3--|


Then Play This:
G|-----------------------------------------|
D|-----------------------------------------|   X3
A|--5-5---5-5--5-8-5-0-3-3---3-3--3-5-3-0--|
E|-----------------------------------------|

G|---------------------------------------------|
D|---------------------------------------------|
A|--5-5---5-5--5-8-5-0-3-3---/8-8-8-8-5-5-5-5--|
E|---------------------------------------------|


Chorus: X2


End:
G|-------------------------------|
D|-------------------------------|
A|---------------------/8-8-8-8--|
E|--3-3--3-3--3-3--3-3-----------|

2.LAST RESORT

Verse :
e|-------------------------------------------------------------|
G|-------------------------------------------------------------|
D|-------------------------------------------------------------|
A|-7-7--5-5--3-3--2-2--5-5--7-7--------------------------------|
E|-------------------------------------------------------------|

Lead Guitar 1 :
e|-----------------------------------------------------------------------|
B|-----------------------------------------------------------------------|
G|-----------------------------------------------------------------------|
D|----------7----------------7---------------7---------------7-----------|
A|-7-10-9-10-10-9-10--10-9-10-10-9-10-10-9-10-10-9-10-10-9-10-10-9-10-7--|
E|------------------10---------------8---------------7-------------------|

Lead Guitar 2 :
e|--------------------------------------------------------------|
B|--------------------------------------------------------------|
G|--------------------------------------------------------------|
D|----------7---------------------------------------------------|
A|-7-10-9-10-10-9-10-9-9-9-9-12-12-12-12------------------------|
E|-------------------7-7-7-7-10-10-10-10------------------------|

Chorus 1 :
|--------------------------------------------------------------|
|--------------------------------------------------------------|
|----------------------------------4-5-7-4---------------------|
|-2-2-2-2-3-3-3-3--7-7-7-7-3-3-3-3-----------------------------|
|--------------------------------------------------------------|

Chorus 2 :
|--------------------------------------------------------------|
|--------------------------------------------------------------|
|--------------------------------------------------------------|
|-7-7-7-7-3-3-3-3---------2-2-2-2------------------------------|
|----------------3-3-3-3-3-------------------------------------|

Chorus 3 :
|--------------------------------------------------------------|
|--------------------------------------------------------------|
|--------------------------------------------------------------|
|-7-7-7-7-7-----------3-3-3-3-3-2-2-2-2------------------------|
|----------3-3-3-3-3-3-----------------------------------------|

3.BROKEN HOME

Intro -rest 0:00

CHORUS (PLAY 1X) (TIME 0:10)
G------------------------------------------------------|
D----4---------4---------4---------4---------4---------|
A------4---------4---------4---------4---------4-------|
E-2------2--2------2--2------2--2------2--2------2-----|
B------------------------------------------------------|

G------------------------------------------------------|
D-----------------------------4------------------------|
A-------------------------------4----------------------|
E-0-2-2----0-2-2----0-2-2--2------2--0-2-2---0-2-------|
B------------------------------------------------------|

1 VERSE (PLAY 12X) (TIME 0:30)
G---------------------------|
D---------------------------|
A---------------------------|
E--2-2----------------0-0-0-|
B-------0-2-2--2-3-3--------|

(PLAY 2X) (TIME 1:01)
G------------------------------------------------------|
D------------------------------------------------------|
A------------------------------5-5-5-5-4-4-4-4-2-2-2-2-|
E-2-2-0--2-2-0--2-2-0--2-2-2-2-------------------------|
B------------------------------------------------------|

G---------|
D---------|
A---------|
E-5-5-5-5-|
B---------|

BRIDGE (PLAY 1X) (TIME 1:11)
G--------------------------------------|
D--------------------------------4-----|
A----------------------------------4---|
E-0-2-2--0-2-2--0-2-2--0-2-2--2------2-|
B--------------------------------------|

G---------------------|
D---------------------|
A---------------------|
E-0-2-2--0-2-2--0-2-2-|
B---------------------|


2 VERSE (PLAY 8X) (TIME 1:21)
G---------------------------|
D---------------------------|
A---------------------------|
E--2-2----------------0-0-0-|
B-------0-2-2--2-3-3--------|

(PLAY 2X) (TIME 1:41)
G------------------------------------------------------|
D------------------------------------------------------|
A------------------------------5-5-5-5-4-4-4-4-2-2-2-2-|
E-2-2-0--2-2-0--2-2-0--2-2-2-2-------------------------|
B------------------------------------------------------|

G---------|
D---------|
A---------|
E-5-5-5-5-|
B---------|

(PLAY 4X) (TIME 1:51)
G------------------------------------------------------|
D------------------------------------------------------|
A-----------------5-5-5-5-4-4-4-4-2-2-2-2--------------|
E-2-2-2-2-2-2-2-2-------------------------5-5-5-5------|
B------------------------------------------------------|


INTERLUDE (PLAY 1X)(TIME 2:12)
G--------------------------------------------|
D--------------------------------------------|
A--------------------------------------------|
E-2-2--2-2-0-0-2-2--2-2-0-0-2-2--2-2-0-0-2-2-|
B--------------------------------------------|

G-------------|
D-------------|
A-------------|
E-2-2-0-0-2-2-|
B-------------|

CHORUS (PLAY 1X)(TIME 2:24)
G------------------------------------------------------|
D----4---------4---------4---------4---------4--2------|
A------4---------4---------4---------4-----------------|
E-2------2--2------2--2------2--2------2--2------------|
B------------------------------------------------------|

G----------------------------------------|
D----4---------4---------4---------4-----|
A------4---------4---------4---------4---|
E-2------2--2------2--2------2--2------2-|
B----------------------------------------|

2 BRIDGE (PLAY 1X) (TIME 2:44)
G------------------------------------------------|
D------------------------------------------------|
A------------------------------------------------|
E-2-2--2--2-2--2--2-2--2--2-2--2--2-2--2--2-2--2-|
B------------------------------------------------|

G------------------------------------------------------|
D------------------------------------------------------|
A------------------------------------------------------|
E-2-2--2--2-2--2---2-----------------------------------|
B------------------------------------------------------|

1 OUTRO (PLAY 12X) (TIME 2:57)
G---------------------------|
D---------------------------|
A---------------------------|
E--2-2----------------0-0-0-|
B-------0-2-2--2-3-3--------|

2 OUTRO (PLAY 1X) (TIME 3:28)
G------------------------------------------------------|
D------------------------------------------------------|
A------------------------------------------------------|
E-2-2-2-2---2-2-2-2---2-2-2-2---2-2-2-2---------2------|
B------------------------------------------------------|
                                               /\
             PLAY LAST NOTE 5 TIMES AS A HOLE NOTE

4.DEAD CELL

Guitar Intro

Verse Part I (x2)
G-------------------------------------------------------------------|
D-------------------------------------------------------------------|
A-------------------------------------------------------------------|
D-2-0-2-0-2-2--0---2-0-2-0-2-2--0---2-0-2-0-2-2--0---2-0-4-4-5p4----|

G-------------------------------------------------------------------|
D-------------------------------------------------------------------|
A--------------------------------------------------------2-2-2------|
D-2-2-0-2-0-2-2--0---2-0-2-0-2-2--0---2-0-2-0-2-2--0----2-----5-5---|

Verse Part II (x2)
G------------------------------------------------------------------|
D------------------------------------------------------------------|
A------------------------------------------------------------------|
D--2-0-2-0-2-0-2-0---2-2-2--2-0---2-0-2-0-2-0-2-0---2-2-4-4-5p4----|

G------------------------------------------------------------------|
D------------------------------------------------------------------|
A-----------------------------------------------------2-2-2--------|
D--2-0-2-0-2-0-2-0---2-2-2--2-0------2-0-2-0-2-0-2-0---------5-5-5-|

Chorus Part I (x8)
G-----------------|
D-----------------|
A-----------------|
D--2/0-0-0-0------|

Verse Part II (x2)
G-----------------------------------------------------------------|
D-----------------------------------------------------------------|
A-----------------------------------------------------------------|
D--2-0-2-0-2-0-2-0---2-2-2--2-0------2-0-2-0-2-0-2-0--2-2-4-4-5p4-|

G------------------------------------------------------------------|
D------------------------------------------------------------------|
A-----------------------------------------------------2-2-2--------|
D--2-0-2-0-2-0-2-0---2-2-2--2-0------2-0-2-0-2-0-2-0---------5-5-5-|

Chorus Part I (x7)
G-----------------|
D-----------------|
A-----------------|
D--2/0-0-0-0------|

Chorus Part II (x1)
G-----------------|
D-2-2-2-2-2-2-2-2-|
A-----------------|
D-----------------|

Verse Part I (x4)
G-------------------------------------------------------------------|
D-------------------------------------------------------------------|
A-------------------------------------------------------------------|
D-2-0-2-0-2-2--0---2-0-2-0-2-2--0---2-0-2-0-2-2--0---2-0-4-4-5p4----|

G-------------------------------------------------------------------|
D-------------------------------------------------------------------|
A--------------------------------------------------------2-2-2------|
D-2-2-0-2-0-2-2--0---2-0-2-0-2-2--0---2-0-2-0-2-2--0----2-----5-5---|

Verse Part II (x1)
G------------------------------------------------------------------|
D------------------------------------------------------------------|
A------------------------------------------------------------------|
D--2-0-2-0-2-0-2-0--2-2-2--2-0-----2-0-2-0-2-0-2-0--2-2-4-4-5p4----|

G------------------------------------------------------------------|
D------------------------------------------------------------------|
A-----------------------------------------------------2-2-2--------|
D--2-0-2-0-2-0-2-0---2-2-2--2-0------2-0-2-0-2-0-2-0---------5-5-5-|

Chorus (x8)
G-----------------|
D-----------------|
A-----------------|
D--2/0-0-0-0------|

Verse Part I (x2)
G-------------------------------------------------------------------|
D-------------------------------------------------------------------|
A-------------------------------------------------------------------|
D-2-0-2-0-2-2--0---2-0-2-0-2-2--0---2-0-2-0-2-2--0---2-0-4-4-5p4----|

G-------------------------------------------------------------------|
D-------------------------------------------------------------------|
A--------------------------------------------------------2-2-2------|
D-2-2-0-2-0-2-2--0---2-0-2-0-2-2--0---2-0-2-0-2-2--0----2-----5-5---|

Chorus Part I (x4)
G-----------------|
D-----------------|
A-----------------|
D--2/0-0-0-0------|

Chorus Part III (x1)
G---------------------|
D---------------------|
A---------------------|
D--2-2--2-2--2-2--2-2-|

Verse Part I (x1)
G-------------------------------------------------------------------|
D-------------------------------------------------------------------|
A-------------------------------------------------------------------|
D-2-0-2-0-2-2--0---2-0-2-0-2-2--0---2-0-2-0-2-2--0---2-0-4-4-5p4----|

G-------------------------------------------------------------------|
D-------------------------------------------------------------------|
A--------------------------------------------------------2-2-2------|
D-2-2-0-2-0-2-2--0---2-0-2-0-2-2--0---2-0-2-0-2-2--0----2-----5-5---|

Chorus Part I (x4)
G-----------------|
D-----------------|
A-----------------|
D--2/0-0-0-0------|

Chorus Part IV (x1)
G--------------------|
D--------------------|
A--------------------|
D--2-2---------------|

5.BETWEEN ANGELS AND INSECTS

2x
G--------------------------|
D--------------------------|
A--------------------------|
D---0-0-0-0-0-h10-10-10-10-|

2x
G--------------------------|
D--------------------------|
A--------------------------|
D---7-7-7-7-7-h10-10-10-10-|

2x
G--------------------------|
D--------------------------|
A--------------------------|
D---0-0-0-0-0-h10-10-10-10-|

G----------------------------------------|
D----------------------------------------|
A----------------------------------------|
D---7-7-7-7-7-h8-8-8-8-3-3-3-3-3-1-1-1-1-|

Then it goes to the verse
Verse: 3x
G-----------------------------------------|
D-----------------------------------------|
A---------------0-0-0-1-1-1-1-h3-3-1-h3-3-|
D---0-0-0-3-3-3---------------------------|

Then the chorus
Chorus:2x
2x                            2x
G-------------------------    G--------------------------|
D-------------------------    D--------------------------|
A-------------------------    A--------------------------|
D---0-0-0-0-0-h10-10-10-10    D---7-7-7-7-7-h10-10-10-10-|

Then to the Verse Again: 2x

Then the chorus again: 2z

Then after that there is a different part when you just let some notes ring
Here are the notes:
G--------------------------|
D--------------------------|
A----------1------0------3-|
D---0----------------------|

Here's the bass solo, you gotta figure out the rythym yourself though:
G------------------------------------------------------------------|
D-----------5-3-2-3---------5-3-2-3-----------5-3-2-3------3---3-3-|
A---0-0-0-3---------1-1-1-3-----------0-0-0-3---------3-3-3---3-3--|
D------------------------------------------------------------------|

Then You go back to the notes above the solo but hit them a bunch of times instead of just once: 2x

Then it goes back to the chorus:3x

Then at the end of the song there is a little bass part that goes like this:
G-----------------|
D-----3-2-5-3-2-3-|
A-----------------|
D---0-------------|

Play that a couple of times and the song is over.

6.BLOOD BROTHERS

[intro]
G:-------------|
D:-------------|
A:---5-5-------|
D:--------0-0--|

G:--------10----9-------------10--------------------|
D:--12-12----12---12-10-12-12----12-12-10-10-12-10--|
A:--------------------------------------------------|
D:--------------------------------------------------|

G:--------10----9-------------10--------------------|
D:--12-12----12---12-10-12-12----12-10--------------|
A:-------------------------------------12-12-13-12--|
D:--------------------------------------------------|


[chorus (heavy beginning riff)]
G:-----------------------------------|
D:-----------------------------------|
A:------8---7-3-------8-----3-3-3-3--|
D:--0-0---0-----0-0-0---0-0----------|


G:-----------------------------------|
D:-----------------------------------|
A:------8---7-3-------8--------------|
D:--0-0---0-----0-0-0---0-0-3-3-3-3--|


[verse (words start here)]
G:-----------------------------------|
D:-----------------------------------|
A:------8---7-3-0-----8-----7-3-0-0--|
D:--0-0---0-------0-0---0-0----------|

[pre-chorus]
G:---------------------------------------|
D:---------------------------------------|
A:---------------------------------------|
D:--0-0-------------------------0---0-0--|

[chorus (2nd time)]
G:-----------------------------------|
D:-----------------------------------|
A:------8---7-3-------8-------3------|
D:--0-0---0-----0-0-0---0-0-0--------|

G:-----------------------------------|
D:-----------------------------------|
A:------8---7-3-------8--------------|
D:--0-0---0-----0-0-0---0-0-0-3------|

[very last part looks like this]
G:-----------------------------------|
D:-----------------------------------|
A:------8---7-3-------8--------------|
D:--0-0---0-----0-0-0---0-0-3----/8--|


[post-chorus]
G:-----------------------------------|
D:-----------------------------------|
A:-----------------------------------|
D:--0-0------0-0------0-0------0-0---|


[verse]
[pre chorus]

[extended chorus (3rd time)]
G:-----------------------------------|
D:-----------------------------------|
A:------8---7-3-------8-------3------|
D:--0-0---0-----0-0-0---0-0-0--------|

G:-----------------------------------|
D:-----------------------------------|
A:------8---7-3-------8--------------|
D:--0-0---0-----0-0-0---0-0-0-3------|

[change in the middle and end of chorus]
G:-----------------------------------|
D:-----------------------------------|
A:------8---7-3-------8--------------|
D:--0-0---0-----0-0-0---0-0-3--3--3--|

[transition into bridge]
G:-------------------------------------------------------------|
D:-------------------------------------------------------------|
A:-------------------------------------------------------------|
D:--8--8-----7-8-7-8-8----7-8-7-8-8----8--8-8-8-8-10-10-10-10--|

[bridge]
G:-------------------------------------------------------------|
D:-------------------------------------------------------------|
A:--3-h5-----8-8-8-3-3-3--------5--------5---------5--------5--|
D:-------0-0--------------0-0-0----0-0-0-----0-0-0----0-0-0----|


[changed pre-chorus]
G:---------------------------------------|
D:---------------------------------------|
A:---------------------------------------|
D:--0-0-------------------------0---0-0--|

G:---------------------------------------|
D:---------------------------------------|
A:--3-0----3-0-----3-0-----3-0----3-0----|
D:------0------0-------0-------0------0--|


[3nd chorus 2 times]
[1st chorus 2 times]
[pre chorus]

7.REVENGE

G:---------------------------------------------------------|
D:---------------------------------------------------------|
A:---------------------------------------------------------|
D:--5-5-0--1-1-0--5-5-0--1-1-0--5-5-0--1-1-0--5-5-0--1-1-0-|

G:---------------------|
D:---------------------|
A:---------------------|
D:--1-0--1-0--1-0--1-0-|

G:---------------------------------------------------------------------------------|
D:--2--2-2---2--2-2---2--2-2---2--2-2---------2--2-2----2--2-2---------------------|
A:-----------2--------2---------2----------2-5-2-5--------2-2------2---------------|
D:-------------------------------------------------------------------------0--0-0--|

G:------------------------------|
D:------------------------------|
A:----2-0-2-0----2-0-2-0--------|
D:--2-----------2-------------2-|


G:------------------------------|
D:------------------------------|
A:------------------------------|
D:--5-5-0--1-1-0--5-5-0--1-1-0--|

G:-----------------------------------------------------------|
D:-----------------------------------------------------------|
A:----2--2-2----------------5--5-5--4-5-7-7-7-7-7-7-7-7-7-9--|
D:--2--------2-3--3-3--2-3-----------------------------------|

G:----------------------------------------------------------------------|
D:--2--2-2---2--2-2---2--2-2---2--2-2---------2--2-2----2--2-2----------|
A:---------2--------2--------2--------2-5-2-5--------2--2------2--------|
D:---------------------------------------------------------------0--0-0-|

G:-------------------------|
D:-------------------------|
A:----2-0-2-0----2-0-2-0---|
D:--2---------2----------2-|

G:---------------------------------------------------------|
D:---------------------------------------------------------|
A:---------------------------------------------------------|
D:--5-5-0--1-1-0--5-5-0--1-1-0--5-5-0--1-1-0--5-5-0--1-1-0-|

G:------------------------------------------|
D:------------------------------------------|
A:------------------------------------------|
D:--1-0-0-0-0-1-0-0-0-0-1-0-0-0-0-0-1-0-0-0-|

********************************************************************
IM NOT SURE THIS IS THE BASS IT SOUNDS MORE LIKE THE DJ
G:-----------------------------------------------------------------|
D:-----------------------------------------------------------------|
A:--7--0-x-10--14-----9-10--7-----10-9--7--0-x-10--14-----9-10-----|
D:--------------------7-x---------7-x-------------------7-x--------|

G:----------------------------------------------------------------------|
D:----------------------------------------------------------------------|
A:--7--0-x-10------7--\0/-10-------10--9----7--0-x-10--14------9-10-----|
D:---------------8-7------------7-7-7-------10----------------7-x-------|
*********************************************************************

G:-------------------|
D:-------------------|
A:----2--0-2---2-----|
D:--0--------3---2-3-|

G:--------------------------------|-----------------------------------|
D:----2-2-2-0-0-0-0-------0---|---2-2-2-0-0-0-0-----------------------|
A:--------------------2-0-2------|--------------------2--0-2---2------|
D:--0---------------0----------0-|-0----------------0--------3---2----|

G:--------------------------------------------------|
D:--------------------------------------------------|
A:--------------------------------------------------|
D:--5-5-0--1-1-0--5-5-0--1-1-0---1-0--1-0--1-0--1-0-|

8.SNAKES

Verse: x3          x2                        x2
G:-----------------|         |-----------------|
D:-----------------|         |-----------------|
A:-----------------|         |-----------------|
D:-7-7-7-5-7-0-5-0-|         |-8-8-8-8-8-0-5-0-|

Fill 1:            x2                        x2
G:-----------------|         |----------------|
D:-----------------|         |----------------|
A:-----------------|         |----------------|
D:-7-7-7-5-7-0-5-0-|         |-7-8-8-8-8\-R---|

Verse x3
Fill 1
Chorus: x4
G:---------------------------------------------------|
D:---------------------------------------------------|
A:---------------------------------------------------|
D:-7-7-7--7-7-7-7---3-3-3--3---0--0--0-3\-2-2-3\-2-2-|

Pre-Verse:
G:----------------------------------------------------------|
D:----------------------------------------------------------|
A:----------------------------------------------------------|
D:-7\----2-5-2-8\----2-5-2-7\----2-5-2-8\--2-5-2-7-8--2-7-8-|

Verse
Fill 1
Verse
Fill 2:             x2
G:-----------------|         |-----------------|
D:-----------------|         |-----------------|
A:-----------------|         |-----------------|
D:-7-7-7-5-7-0-5-0-|         |-8-8-8-8-8-0-5-0-|

G:---------------------------------------|
D:---------------------------------------|
A:---------------------------------------|
D:-8-8-8-8-8-5--7\-R---5-7--8\-R---5--5--|

Fill 3:            x2                          x4
G:-----------------|         |----------------|
D:-----------------|         |----------------|
A:-----------------|         |----------------|
D:-7-7-7-5-7-0-5-0-|         |-7-8-8-8-8\-R---|

Chorus x4
Outro: x4
G:---------------------------------------------------|
D:---------------------------------------------------|
A:--------------------------8-8-8-8-8-8--------------|
D:-3-3-3-3-3-3-2-2-2-2-2-2---------------3-3-3-3-3-3-|

                                   x6                           x9
G:--------------------------------|      |-----------------------|
D:--------------------------------|      |-----------------------|
A:--------------------------------|      |-----------------------|
D:-77--77--00--00--88--88--32--32-|      |-3-2--2-3-2-2-/7*--7-7-|

9.NEVER ENOUGH

Intro:
G|-----------------------|
D|-----------------------|
A|-----------------------|
D|----0~----6-2--0~------|

Fill in intro:
G|--------------------------------|
D|--------------------------------|
A|--10--(10)-/12-(12)-\-----------|
D|--------------------------------|

Verse:
G|-------------------------------------------------------------|
D|-------------------------------------------------------------|
A|-------------------------------------------------------------|
D|--4-4-4--x-4---4-4-4--x-4---4-4-4--x-4---4-4-4---x-0---------|

Verse: continued
G|------------------------------------------------------------|
D|------------------------------------------------------------|
A|--2-2-2---x-2---2-2-2---x-2---2-2-2---x-2---2-2-2---x-2-----|
D|------------------------------------------------------------|

Chorus:
G|-----------------|
D|-----------------|
A|-----------------|or
D|--4h7-4h6-4p0----|

G|-----------------|
D|-----------------|
A|-----------------|
D|--4h6-4h5-4p0----|

Bridge:
G|----------------------------------|
D|----------------------------------|
A|----------------------------------|
D|----0~---0~~-6-2--0/---6/---2/----|

Bridge 2:
G|-----------------------------------|
D|-----------------------------------|
A|-----------------------------------|
D|--4-4-4-7-7-7-6-6-6-7-7-7-9-9-7-6--|

Bridge 3:
G|-----------------------------------------------------|
D|-----------------------------------------------------|
A|-----------------------------------------------------|
D|-11-11-11-11-11-11-11-11-11-11-11-11-11-11-11-11/----|

G|------------------|
D|-2-2-2-2-2-2-2-2--|
A|-2-2-2-2-2-2-2-2--|
D|-2-2-2-2-2-2-2-2--|

Then to Chorus

Then
G|---------------------|
D|---------------------|
A|---------------------|
D|--0-(0)---0-6--(6)---|

10.BINGE

Intro  (0:00)   x2               x2
G ----------------|----------------|
D ----------------|----------------|
A ----------------|----------------|
D -5-5-5-5--------|-1-1-1-1--------|

Verse  (0:20)            x4                        x4
G -------------------------|-------------------------|
D -------------------------|-------------------------|
A -------------------------|-------------------------|
D -5-5-5-5-5-5-5-5--0-h1-1-|-1-1-1-1-1-1-1-1--0-h1-1-|

Chorus  (1:01)                   x2                               x2
G ---------------------------------|---------------------------------|
D ---------------------------------|-----------------3-3-3-3-3-3-3-3-|
A ---------------------------------|-5-5-5-5-5-5-5-5-----------------|
D -5-5-5-5-5-5-5-5-3-3-3-3-3-3-3-3-|---------------------------------|

Verse again  (1:22)

Chorus again  (1:47)

Bridge  (2:08)  x2               x2
G ----------------|----------------|
D ----------------|----------------|
A ----------------|----------------|
D -5-5-5-5--------|-1-1-1-1--------|
  (2:17)                      x2                              x2
G ----|-------------------------|--------------------------------|
D ----|-------------------------|--------------------------------|
A ----|-----------------------3-|----------8-8-8-8\6-6-6-6\5-5-5-|
D -/5-|-5-5-5-5--3-3-3-3--3-3---|-1-1-1-1------------------------|
  (2:28)                                         x2
G -------------------------------------------------|
D -------------------------------------------------|
A -------------------------------------------------|
D -5-5-5-5-5-5-5-5-5-5-5-5-8-8-8-8-8-8-8-8-8-8-8-8-|
cont.
G ------------------------------------------------------------------|
D ------------------------------------------------------------------|
A ------------------------------------------------------------------|
D -1-1-1-1-1-1-1-1-1-1-1-1--0-0-0-0-0-0-0-0-0-0-3-3-3-3-3-3-3-3-3-3-|

Chorus again (2:44)

  (3:04)                                                                        x2
G -----------------------------------------------------------------------------------------|
D -----------------------------------------------------------------------------------------|
A -------------------------------------------------5-5-5-5-5-5-5-5-5-5---------------------|
D -5-5-5-5-5-5-5-5-5-5-5-5-8-8-8-8-8-8-8-8-8-8-8-8---------------------3-3-3-3-3-3-3-3-3-3-|

  (3:25)
G ---------------------------------------------------------------------|
D ---------------------------------------------------------------------|
A -------------------------------------------------5-5-5-5-5-5-5-5-5-5-|
D -5-5-5-5-5-5-5-5-5-5-5-5-8-8-8-8-8-8-8-8-8-8-8-8---------------------|

G ------------------------------------|
D -0-2-3--0-2-3--0-2-3--0-2-3-3-------|
A ------------------------------1-3-1-|
D ------------------------------------|

Outro  (3:35)            x3
G -------------------------|-------------------------|
D -------------------------|-------------------------|
A -------------------------|-------------------------|
D -5-5-5-5-5-5-5-5--0-h1-1-|-5-5-5-5-5-5-5-5---------|

11.THROWN AWAY

Riff 1:
G|-------------------------------------------|
D|-------------------------------------------|
A|-------------------------------------------|
D|-2-2--2--x-2-2-0--3-3--3--x-3-3--3--x-3-3-0|

Riff 2:
G|---------------------------------------------------|
D|---------------------------------------------------|
A|---------------------------------------------------|
D|-2--2--2--2-0--3--3--3--3-0-2--2--2--2-0-3--3--3--3|

Riff 3 (Chorus) x2:
G|---------------------------------------------------------|
D|---------------------------------------------------------|
A|-2-2-2-2-22-2-3-3-3-3-3//5-5-5--2-2-2-2-22-2-------------|
D|---------------------------------------------6-6-66-6-6-6|

Riff 4:
G|--------------------------------------------------------|
D|--------------------------------------------------------|
A|--------------------------------------------------------|
D|-22-22-22-22-0-33-33-33-33-0-22-22-22-22-0-33-33-33-33-0|

Riff 5 (Outro):
G|---------------------------------------------------------------------------------------------|
D|---------------------------------------------------------------------------------------------|
A|-8-8-88-8-8-88-8-8-8-4-4-44-4-4-44-4-4-----------------------6-6-6-6-6-6---------------------|
D|----------------------------------------8-8--88-8-8-88-8-8-8---------------------------------|
comments
We did not receive enough feedback on this tab! Please rate:
print report bad tab
1 2 3 4 5
I want to post or [tab]
guest
You may want to rate the tab now too:
select rating
Please do not post tabs as comments. Select "correction" instead!