Oops, an error
Loading. Please wait.

Infest Tab

ver2
ver2

Album

Whole song

Interactive

More versions @911Tabs.com
10,663 views 18 this week
3 commentsread comments
1 2 3 4 5
excellent!
x 7
Autoscroll
+/-
esc
set tempo
stop
Contributor
WARNING: You are trying to view
                                    content from Ultimate-Guitar.com
                                    in an unauthorized application,
                                    which is prohibited.

                                    Please use an official Ultimate
                                    Guitar Tabs application for iPhone,
                                    iPad or Android to access legitimate
                                    chords, guitar, bass, and drum tabs
                                    from Ultimate-Guitar.com database.

                                    Type "ultimate guitar tabs" in Apple
                                    App Store's or Android Market's
                                    search to find the application.
Author/Artist: Papa Roach
Title: Infest
Album: Infest
Dropped-D tuning (DADGBE) low-to-high

------------------------------------------------------------------------------
------------------------------------------------------------------------------
------------------------------------------------------------------------------
-0-0--7-7--10-10--7-7--9-9--5-5--0-0--7-7--10-10--7-7--9-9--5-5---------------
-0-0--7-7--8--8---7-7--7-7--3-3--0-0--7-7--8--8---7-7--7-7--3-3---------------
-0-0--7-7--10-10--7-7--9-9--5-5--0-0--7-7--10-10--7-7--9-9--5-5---------------
  "Welcome, to the original Papa Roach soundfire!"                            

------------------------------------------------------------------------------
------------------------------------------------------------------------------
------------------------------------------------------------------------------
-------15----15-------15---10---10-----10-------------------------------------
----------------12-----------------7------------------------------------------
-12-12----12-------12----7----7------7----------------------------------------
 "My name's Coby Dick, Mr. Dick if you're nasty. . . "    Slight PM           

------------------------------------------------------------------------------
------------------------------------------------------------------------------
------------------------------------------------------------------------------
-12-12-15-15-12-12-12-12-15-15-12-12-12-15-15---------------------------------
-12-12-12-12-12-12-12-12-12-12-12-12-12-12-12---------------------------------
-12-12-12-12-12-12-12-12-12-12-12-12-12-12-12---------------------------------
 "We're going to infest"                                                      

------------------------------------------------------------------------------
------------------------------------------------------------------------------
------------------------------------------------------10----------------------
-0-0-0--15-15-0-0-0-0--15-15-0-0-0--15-15--0-0-15-0-0-9-----------------------
-0-0-0--12-12-0-0-0-0--12-12-0-0-0--12-12--0-0-12-0-0-0-----------------------
-0-0-0--12-12-0-0-0-0--12-12-0-0-0--12-12--0-0-12-0-0-------------------------
 p.m.-        p.m.---        p.m.-         p.m.   p.m. (verse)                

------------------------------------------------------------------------------
------------------------------------------------------------------------------
------------------------------------------------------------------------------
-7-7-7-7-7-7-7-7-9-9-9-9-10-10-10-10------------------------------------------
-7-7-7-7-7-7-7-7-7-7-7-7-7--7--7--7-------------------------------------------
-7-7-7-7-7-7-7-7-7-7-7-7-7--7--7--7-------------------------------------------
 Interlude                4x                                                  

------------------------------------------------------------------------------
------------------------------------------------------------------------------
-----10-10-10-10-----10----10-10-10-----10-10-10-10-----12--10/12\------------
-0-0-x--x--x--x--0-0-x-----x--x--x--0-0-x--x--x--x--0-0-x---x--x---7-7-10-10--
-0-0-8--8--8--8--0-0-8-----8--8--8--0-0-8--8--8--8--0-0-10--8-/10\-7-7-x--x---
-0-0-------------0-0----------------0-0-------------0-0------------7-7-10-10--
 Chorus                                                                       

------------------------------------------------------------------------------
------------------------------------------------------------------------------
---------------------------------------------10---9-10------------------------
-10-10-7-7-10---10-10-10-7-7-10-10-10-10-7-7-x----x-x-------------------------
-x--x--7-7-x----x--x--x--7-7-x--x--x--x--7-7-8----7-8-------------------------
-10-10-7-7-10---10-10-10-7-7-10-10-10-10-7-7----------------------------------

    Author/Artist: Papa Roach
Title: Last Resort

Dropped-D tuning (DADGBE) low-to-high

------------------------------------------------------------------------------
------------------------------------------------------------------------------
------------------------------------------------------------------------------
-9-9---7-7---5-5---4-4---7-7--------------------------------------------------
-7-7---5-5---3-3---2-2---5-5--------------------------------------------------
-9-9---7-7---5-5---4-4---7-7--------------------------------------------------
 Intro                                                                        

------------------------------------------------------------------------------
------------------------------------------------------------------------------
------------------------------------------------------------------------------
-----------9--------------------9--------------------9-------------------9----
-7-10-9-10---10-9-10----10-9-10---10-9-10----10-9-10---10-9-10---10-9-10------
---------------------12-------------------10-------------------9--------------
                                                                              

------------------------------------------------------------------------------
------------------------------------------------------------------------------
------------------------------------------------------------------------------
------------------------------------------------------------------------------
-10-9-10----------------------------------------------------------------------
------------------------------------------------------------------------------
 Next Part, PM during verses                                                  

------------------------------------------------------------------------------
------------------------------------------------------------------------------
------------------------------------------------------------------------------
-9-9-9-9-12-12-12-12----------------------------------------------------------
-9-9-9-9-12-12-12-12----------------------------------------------------------
-9-9-9-9-12-12-12-12----------------------------------------------------------
 Intro to Chorus                                                              

------------------------------------------------------------------------------
------------------------------------------------------------------------------
------------------------------------------------11111111-12-12-12-12-14-14-14-
-14-14-14-14-14-14-14-14-10-10-10-10-10-10-10-10------------------------------
-14-14-14-14-14-14-14-14-10-10-10-10-10-10-10-10-9-9-9-9-10-10-10-10-12-12-12-
-14-14-14-14-14-14-14-14-10-10-10-10-10-10-10-10------------------------------
 Chorus                                        (11's not 1's)                 

------------------------------------------------------------------------------
------------------------------------------------------------------------------
--14-11111111----14-14-14-14--------------------------------------------------
------------------------------------------------------------------------------
--12-9-9-9-9-----12-12-12-12--------------------------------------------------
------------------------------------------------------------------------------
    1st-----l    2nd--------l                                                 

------------------------------------------------------------------------------
------------------------------------------------------------------------------
------------------------------------------------------------------------------
-14-14-14-14-14-14-14-14-10-10-10-10-10-10-10-10-5-5-5-5-5-5-5-5-9-9-9-9-9-9--
-14-14-14-14-14-14-14-14-10-10-10-10-10-10-10-10-5-5-5-5-5-5-5-5-9-9-9-9-9-9--
-14-14-14-14-14-14-14-14-10-10-10-10-10-10-10-10-5-5-5-5-5-5-5-5-9-9-9-9-9-9--
 Bridge                                                                       

----|-------------------------------------------------------------------------
----|-------------------------------------------------------------------------
----|-------------------------------------------------------------------------
-9--|-9-9-9-9-9-9-9---5-5-5-5-5-5-5-5-10-10-10-10-10-10-10-9-9-9-9-9-9-9------
-9--|-7-7-7-7-7-7-7---5-5-5-5-5-5-5-5-10-10-10-10-10-10-10-9-9-9-9-9-9-9------
-9--|-9-9-9-9-9-9-9---5-5-5-5-5-5-5-5-10-10-10-10-10-10-10-9-9-9-9-9-9-9------
 repeat 2x then this                                                          

------------------------------------------------------------------------------
------------------------------------------------------------------------------
------------------------------------------------------------------------------
-2-2-2-2-2-2-2-2-10-10-10-10-10-10-10-10--------------------------------------
-2-2-2-2-2-2-2-2-10-10-10-10-10-10-10-10--------------------------------------
-2-2-2-2-2-2-2-2-10-10-10-10-10-10-10-10--------------------------------------
 Ending chorus play beginning of it like this,his PMed part is open on top D  


Author/Artist: Papa Roach
Title: Broken Home


Dropped D tuning, DADGBE (low-to-high)

------------------------------------------------------------------------------
------------------------------------------------------------------------------
------------------------------------------------------------------------------
-4-4-4-4-0-6-6-6-6-0-7-7-7-7-0-6-6-6-6--7-7-7-7-7-7-7-7-----------------------
-4-4-4-4-0-4-4-4-4-0-4-4-4-4-0-4-4-4-4--4-4-4-4-4-4-4-4-----------------------
-4-4-4-4-0-4-4-4-4-0-4-4-4-4-0-4-4-4-4--4-4-4-4-4-4-4-4-----------------------
 Intro  1st---------------------------1 2nd------------l                      

------------------------------------------------------------------------------
------------------------------------------------------------------------------
------------------------------------------------------------------------------
-4-4--4-6-6--6-7-7--7-9-9-----------------------------------------------------
-4-4--4-4-4--4-5-5--5-7-7-----------------------------------------------------
-4-4--4-6-6--6-7-7--7-9-9-----------------------------------------------------
 Heavy Intro                                                                  

------------------------------------------------------------------------------
------------------------------------------------------------------------------
---------6/7-x-7-7/9----------------------------------------------------------
-4-4-x-x-x-x-x-x-x-x---2-2-2--------------------------------------------------
-4-4-x-x-4/5-x-5-5-7---2-2-2--------------------------------------------------
-4-4-x-x-------------0-2-2-2-0------------------------------------------------
 Verses                                                                       

------------------------------------------------------------------------------
------------------------------------------------------------------------------
-----------------------------7-7-7-7-6-6-6-6-5-5-5-5--------------------------
-4-4-x-x-4-4-x-x-4-4-x-x-4-4-x-x-x-x-x-x-x-x-x-x-x-x-2-2-2-2------------------
-4-4-x-x-4-4-x-x-4-4-x-x-4-4-5-5-5-5-4-4-4-4-3-3-3-3-0-0-0-0------------------
-4-4-x-x-4-4-x-x-4-4-x-x-4-4--------------------------------------------------
     Chorus                                                                   

------------------|-----------------------------------------------------------
------------------|-----------------------------------------------------------
------------------|-----------------------------------------------------------
-4-4---x-2-2--4-4-|-4-4-x-4--6-6-x-6--7-7-x-7---------------------------------
-4-4---x-2-2--4-4-|-4-4-x-4--4-4-x-4--4-4-x-4--\\\\\\\\\\\\\\\\\\\\\\\\-------
-4-4---x-2-2--4-4-|-4-4-x-4--4-4-x-4--4-4-x-4--\\\\\\\\\\\\\\\\\\\\\\\\-------
 Fill, then intro   ^then this.  Pick Slide Down^ then back to Heavy Intro    

------------|-----------------------------------------------------------------
------------|-----------------------------------------------------------------
------------|-----------------------------------------------------------------
-7-7-7-7----|------------------------------7----------------------------------
-4-4-4-4----|------------------------------4----------------------------------
-4-4-4-4----|------------------------------4----------------------------------
 Next fill          Outro   Repeat this note                                  


Author/Artist: Papa Roach
Title: Dead Cell


Dropped-D tuning (DADGBE) low-to-high

-----------------|-------------|----------------------------------------------
-----------------|-------------|----------------------------------------------
-----------------|-------------|----------------------------------------------
-2-0-2-0-2-2-0-2-|-4-0-4-5-4-2-|-4-4-4-4-5-5-2--------------------------------
-2-0-2-0-2-2-0-2-|-4-0-4-5-4-2-|-2-2-2-2-5-5-2--------------------------------
-2-0-2-0-2-2-0-2-|-4-0-4-5-4-2-|---------5-5-2--------------------------------
 Play 3x           1st--------l  2nd----------l  PM during Verse              

-------------|-------|--------------------------------------------------------
-------------|-------|--------------------------------------------------------
-------------|-------|-4-4-4-4-4-4-6-6/7\6-7-7-7-7-7-9-9-9-9-9-911-1111111111-
-0-2-4/5-----|-2-2---|-x-x-x-x-x-x-x-x-x-x-x-x-x-x-x-x-x-x-x-x-x-x-x-x-x-x-x--
-0-2---------|-2-2---|-2-2-2-2-2-2-4-4/5\4-5-5-5-5-5-7-7-7-7-7-7-9-9-9-9-9-9--
-0-2---------|-2-2---|--------------------------------------------------------
 Chorus (4x)   Fill                                                           


Author/Artist: Papa Roach
Title: Between Angels and Insects


Dropped D Tuning DADGBE (low-to-high)

------------------------------------------------------------------------------
------------------------------------------------------------------------------
------------------------------------------------------------------------------
------------------------------------------------------------------------------
---8---7---10---8---7/8---8---7---10---8---7/8---8---7---10--8---7/8----8-----
-0---0---0----0---0-----8---8---8----8---8-----7---7---7---7---7-----10---10--
                                                                              

------------------------------------------------------------------------------
------------------------------------------------------------------------------
------------------------------------------------------------------------------
------------------------------------------------------------------------------
-7---10----8----8\7-----------------------------------------------------------
--10----10---10---------------------------------------------------------------
                                                                              

----------------------------|---------------------------|---------------------
----------------------------|---------------------------|---------------------
----------------------------|---------------------------|---------------------
-0-0-0-0-10-10-10-10-10-10--|-7-7-7-7-10-10-10-10-10-10-|-7-7-7-7-8-8-8-8-8---
-0-0-0-0-10-10-10-10-10-10--|-7-7-7-7-10-10-10-10-10-10-|-7-7-7-7-8-8-8-8-8---
-0-0-0-0-10-10-10-10-10-10--|-7-7-7-7-10-10-10-10-10-10-|-7-7-7-7-8-8-8-8-8---
 listen for rythm   2x                       2x             ONLY IN INTRO     

------------------------------------------------------------------------------
------------------------------------------------------------------------------
------------------------------------------------------------------------------
-8-----3-3-3-3-1-1-1-1-1-1-1-1------------------------------------------------
-8-----3-3-3-3-1-1-1-1-1-1-1-1------------------------------------------------
-8-----3-3-3-3-1-1-1-1-1-1-1-1------------------------------------------------
                                                                              

-------------------------------|-----------|------------|---------------------
-------------------------------|-----------|------------|---------------------
-------------7--10/12-12-12-10-|-----------|------------|---------------------
-------------x---x--x--x--x-x--|-----------|------------|---------------------
-------------5---8/10-10-10-8--|-----------|------------|---------------------
-0-0-0-0-0-0-------------------|3-3-3-3-3-3|-7-7-7-7-7-7|-8-8-8-8-8-8-8h10----
 PM---------l                   PM---------l                                  

-|----------------------------------------------------------------------------
-|----------------------------------------------------------------------------
-|---------------10-/12-12-12-12-10-------------------------------------------
-|-------------8--x---x--x--x--x--x-10----------------------------------------
-|-------------8--8-/10-10-10-10--8-10----------------------------------------
-|-8-8-8-8-8-8-8--------------------10----------------------------------------
 Only Played at End of Verse                                                  

----------|-------------------------------------------------------------------
----------|-------------------------------------------------------------------
----------|-10----10----------------------------------------------------------
----------|--x-----x----7-----10----------------------------------------------
----------|--8-----8----8------8----------------------------------------------
-8h10-8h10|--------8----7-----10----------------------------------------------
                                                                              


Author/Artist: Papa Roach
Title: Blood Brothers


Dropped-D tuning (DADGBE) low-to-high

------------------------------------------------------------------------------
------------------------------------------------------------------------------
-7-7-10-7-9------7-7-10-7-7-------7----7-7-10-7-9------7-7-10-7-7-------------
------------10-7------------10-10---10------------10-7------------7-7-8-7-----
------------------------------------------------------------------------------
------------------------------------------------------------------------------
 Slight PM (Intro and Fill)----------------------------------------------l    

--------------------------------------|---------|-----------------------------
--------------------------------------|---------|-----------------------------
----10---9---------10-----------------|---------|-----------------------------
-0-0-x-0-x-10-7-0-0-x-0-0-10-10-10-10-|-3-3-3-3-|-10-10-10--------------------
-0-0-8-0-7-10-7-0-0-8-0-0-10-10-10-10-|-3-3-3-3-|-8--8--8---------------------
-0-0---0---10-7-0-0---0-0-10-10-10-10-|-3-3-3-3-|-8--8--8---------------------
 Heavy Intro (Also "Kill, Kill,Kill . . .  .")    "And Again and again . . ." 

---------------------------------|-----------------|--------------------------
---------------------------------|-----------------|--------------------------
---------------------------------|-----------------|--------------------------
---------------------------------|-0-0----0---0-0--|-10-7-0----10-7-0---------
-----8---7----------8---7--------|-0-0----0---0-0--|-10-7-0----10-7-0---------
-0-0---0---10-7-0-0---0---10-7-7-|-0-0----0---0-0--|-10-7-0----10-7-0---------
  Verse (PM top string only)       (Corruption and Abuse)       outro chorus  


Author/Artist: Papa Roach
Title: Revenge


Dropped-D tuning (DADGBE) low-to-high

------------------------------------------------------------------------------
------------------------------------------------------------------------------
------------------------------------------------------------------------------
-2-2-4---5-5-4-----------5-4--------------------------------------------------
-2-2-2---3-3-2-----------3-2--------------------------------------------------
-2-2-4---5-5-4-----------5-4--------------------------------------------------
 play this 4 times       then this 4 times                                    

------------------------------------------------------------------------------
------------------------------------------------------------------------------
------------------------------------------------------------------------------
---4-2-4---4------------------------------------------------------------------
-2-------5---4-5--------------------------------------------------------------
------------------------------------------------------------------------------
 Verses                                                                       

------------------------------------------------------------------------------
------------------------------------------------------------------------------
------------------------------------------------------------------------------
-2-2-4--5-5-4-----------------------------------------------------------------
-2-2-2--3-3-2-----------------------------------------------------------------
-2-2-4--5-5-4-----------------------------------------------------------------
 Chorus                                                                       

-------------------------------------|----------------------------------------
-------------------------------------|----------------------------------------
-------------------------------------|----------------------------------------
-5-4-x-4-x-4-x-4-x-x-----------------|-5-5-7-7--------------------------------
-3-2-x-2-x-2-x-2-x-x-----------------|-3-3-5-5--------------------------------
-5-4-x-4-x-4-x-4-x-x-----------------|-5-5-7-7--------------------------------
 Fill                 Repeat 4 times with this after the second time          

---------------------------------------------------------------|--------------
---------------12------------------------------12--------------|-12-12-12-----
-9---------7-----------10------9-7-9-------7------------9------|-10-10-10-----
---------------------------------------------------------------|--------------
---------------------------------------------------------------|--------------
---------------------------------------------------------------|--------------
 Solo w/ tremolo pedal figure out the exact rythm w/ cd   "Flee, Fly, Flow.." 

------------------------------------------------------------------------------
------------------------------------------------------------------------------
------------------------------------------------------------------------------
-9-11-9-11-11-11-11-12--------------------------------------------------------
-9-9--7-9--11-9--11-12--------------------------------------------------------
-9---------11----11-12--------------------------------------------------------
 Hard Part (Like verse but w/ chords)                                         

------------------------------------------------------------------------------
------------------------------------------------------------------------------
------------------------------------------------------------------------------
-9-9-9-9----7-7-7-9-11-9-11-0-7-----------------------------------------------
-9-9-9-9----7-7-7-9-9--7-9--0-7-----------------------------------------------
-9-9-9-9----7-7-7-9---------0-7-----------------------------------------------
 Next Hard Part                                                               

------------------------------------------------------------------------------
---6-4-6---6------------------------------------------------------------------
-4-------7---6-7--------------------------------------------------------------
------------------------------------------------------------------------------
------------------------------------------------------------------------------
------------------------------------------------------------------------------
 Outro                                                                        

Author/Artist: Papa Roach
Title: Snakes

Dropped-D tuning (DADGBE) low-to-high

------------------------------------------------------------------------------
------------------------------------------------------------------------------
----------------------------------------10-1010-10-1010--9-9-9-9-9-9-9-9------
-10-10-10-10-10-10-10-10-7-7-7-7-7-7-7-7-7-7-7-7-7-7-7-7-7-7-7-7-7-7-7-7------
--8-8---8--8--8--8--8--8-7-7-7-7-7-7-7-7-7-7-7-7-7-7-7-7-7-7-7-7-7-7-7-7------
-10-10-10-10-10-10-10-10-7-7-7-7-7-7-7-7-7-7-7-7-7-7-7-7-7-7-7-7-7-7-7-7------
 Intro and Fill (10's not 1's and 0's)                                        

----------------|-------------------------------------------------------------
----------------|-------------------------------------------------------------
-9----7------10-|-------------------------------------------------------------
-x----x---7---x-|-7-/-8-8-8-8-------------------------------------------------
-7----5---7---8-|-7-/-8-8-8-8-------------------------------------------------
----------7-----|-7-/-8-8-8-8-------------------------------------------------
 Play Each Note 16x play this evry other time                                 

------------------------------------------------------------------------------
------------------------------------------------------------------------------
------------------------------------------------------------------------------
-7-7-7--7-7---3-3-3--3-3---0-0-0--0-0---3-2-2-2--3-2-2------------------------
-7-7-7--7-7---3-3-3--3-3---0-0-0--0-0---3-2-2-2--3-2-2------------------------
-7-7-7--7-7---3-3-3--3-3---0-0-0--0-0---3-2-2-2--3-2-2------------------------
 Chrous                                                                       

----------------------------------------|-------------|-----------------------
----------------------------------------|-------------|-----------------------
----------------------------------------|7-7-7/9-10\9-|-----------------------
-7-7--7-7--0-0--0-0--8-8--8-8--2-2--3-2-|x-x-x-x--x-x-|3-2--3-2--3-2----------
-7-7--7-7--0-0--0-0--8-8--8-8--2-2--3-2-|5-5-5/7--8\7-|3-2--3-2--3-2----------
-7-7--7-7--0-0--0-0--8-8--8-8--2-2--3-2-|-------------|3-2--3-2--3-2----------
 Outro              2x-----------------l 4x----------l End doing this         

------------------------------------------------------------------------------
------------------------------------------------------------------------------
------------------------------------------------------------------------------
-7/-------5---7---8/-----5-5--------------------------------------------------
-7/-------5---7---8/-----5-5--------------------------------------------------
-7/-------5---7---8/-----5-5--------------------------------------------------
                                                                              


Author/Artist: Papa Roach
Title: Never Enough


Dropped-D tuning (DADGBE) low-to-high

---------------|----------------|---|-----------------------------------------
---------------|----------------|---|-----------------------------------------
---------------|----------------|---|-----------------------------------------
-0---6-----2---|--6-6--7-6---6--|-0-|-----------------------------------------
-0---4-----2---|--4-4--4-4---4--|-0-|-----------------------------------------
-0---6-----2---|--4-4--4-4---4--|-0-|-----------------------------------------
 Intro and Fill  Verse Pt. 1      ^ Play every fourth time.                   

---------------|---|----------------------------------------------------------
---------------|---|----------------------------------------------------------
-4-4--4-4---4--|---|----------------------------------------------------------
-4-4--4-4---4--|-0-|----------------------------------------------------------
-2-2--2-2---2--|-0-|----------------------------------------------------------
-2-2--2-2---2--|-0-|----------------------------------------------------------
                 ^ Play every fourth time.                                    

---------------------------------|--------------------------------------------
---------------------------------|--------------------------------------------
---------------------------------|--------------------------------------------
-4-4-4-7-7-7-6-6-6-7-7-7-9-9-7-6-|-4-7-4-6-4-0-----4-7-4-6-7-6-0--------------
---------------------------------|-4-7-4-6-4-0-----4-7-4-6-7-6-0--------------
---------------------------------|-4-7-4-6-4-0-----4-7-4-6-7-6-0--------------
 P.M.--(Verse Pt. 2)------------l  Chorus                                     

------------------------------------------------------------------------------
------------------------------------------------------------------------------
------------------------------------------------------------------------------
-4-4-4-7-7-7-6-6-6-7-7-7-9-9-7-6----------------------------------------------
-4-4-4-7-7-7-6-6-6-7-7-7-9-9-7-6----------------------------------------------
-4-4-4-7-7-7-6-6-6-7-7-7-9-9-7-6----------------------------------------------
 Heavy Part at End     Play 4 Times                                           

------------------------------------------------------------------------------
------------------------------------------------------------------------------
------------------------------------------------------------------------------
-11-11-11-11-11-11-11-11-11-11-11-11-11-11-11-11/-----------------------------
-11-11-11-11-11-11-11-11-11-11-11-11-11-11-11-11/-----------------------------
-11-11-11-11-11-11-11-11-11-11-11-11-11-11-11-11/-----------------------------
                                                                              

------------------------------------------------------------------------------
------------------------------------------------------------------------------
-----------------9-9-9-9-9-9-9-9----------------------------------------------
-2-2-2-2-2-2-2-2-x-x-x-x-x-x-x-x----------------------------------------------
-2-2-2-2-2-2-2-2-7-7-7-7-7-7-7-7----------------------------------------------
-2-2-2-2-2-2-2-2--------------------------------------------------------------
 Play this then repeat chorus                                                 

------------------------------------------------------------------------------
------------------------------------------------------------------------------
------------------------------------------------------------------------------
-0-----6----------------------------------------------------------------------
-0-----4----------------------------------------------------------------------
-0-----6----------------------------------------------------------------------
 Ending - Let notes ring out                                                  


Author/Artist: Papa Roach
Title: Binge


Dropped-d tuning (DADGBE) low-to-high

---------------------------|--------------------------------------------------
---------------------------|--------------------------------------------------
---------10-10-10-10---10--|---------10-10-10-10\8-8-8-8\7-7------------------
-5-5-5-5-x--x--x--x----x---|-1-1-1-1-x--x--x--x--x-x-x-x-x-x------------------
-5-5-5-5-8--8--8--8----8---|-1-1-1-1-8--8--8--8--6-6-6-6-5-5------------------
-5-5-5-5-------------------|-1-1-1-1------------------------------------------
 Intro and Fill Play 2x      Play 2x (Then Do the sequence again)             

------------------------|-----------------------------------------------------
------------------------|-----------------------------------------------------
-----------------7--5-8-|-----------------7--5-8------------------------------
-5-5-5-5-5-5-5-5-x--x-x-|-1-1-1-1-1-1-1-1-x--x-x------------------------------
-5-5-5-5-5-5-5-5-5--3-6-|-1-1-1-1-1-1-1-1-5--3-6------------------------------
-5-5-5-5-5-5-5-5--------|-1-1-1-1-1-1-1-1-------------------------------------
 Verse    Play 2x Then -> This 2x (Repeat throughout verse)                  

------------------------------------------------------------------------------
------------------------------------------------------------------------------
------------------------------------------------------------------------------
-5-5-5-5-5-5-5-5-3-3-3-3-3-3-3-3-5-5-5-5-5-5-5-5-3-3-3-3-3-3-3-3-1-1-1-1-1-1--
-5-5-5-5-5-5-5-5-3-3-3-3-3-3-3-3-5-5-5-5-5-5-5-5-3-3-3-3-3-3-3-3-1-1-1-1-1-1--
-5-5-5-5-5-5-5-5-3-3-3-3-3-3-3-3-5-5-5-5-5-5-5-5-3-3-3-3-3-3-3-3-1-1-1-1-1-1--
 Chorus                                                                       

------------------------------------------------------------------------------
------------------------------------------------------------------------------
------------------------------------------------------------------------------
-1-1-3-3-3-3-3-3-3-3-1-1-1-1-1-1-1-1-3-3-3-3-3-3-3-3--------------------------
-1-1-3-3-3-3-3-3-3-3-1-1-1-1-1-1-1-1-3-3-3-3-3-3-3-3--------------------------
-1-1-3-3-3-3-3-3-3-3-1-1-1-1-1-1-1-1-3-3-3-3-3-3-3-3--------------------------
                                                                              

------------------------------------------------------------------------------
------------------------------------------------------------------------------
------------------------------------------------------------------------------
-5-5-5-5-5-5-5-5-8-8-8-8-8-8-8-8-1-1-1-1-1-1-1-1-1-1-1-1-1-1-1-1-1-1-1-1-1-1--
-5-5-5-5-5-5-5-5-8-8-8-8-8-8-8-8-1-1-1-1-1-1-1-1-1-1-1-1-1-1-1-1-1-1-1-1-1-1--
-5-5-5-5-5-5-5-5-8-8-8-8-8-8-8-8-1-1-1-1-1-1-1-1-1-1-1-1-1-1-1-1-1-1-1-1-1-1--
 Bridge                                                                       

------------------------------------------------------------------------------
------------------------------------------------------------------------------
------------------------------------------------------------------------------
-1-1-1-1-1-1-1-1-1-1-------------------------------------3-3-3-3-3-3-3-3-3-3--
-1-1-1-1-1-1-1-1-1-1-------------------------------------3-3-3-3-3-3-3-3-3-3--
-1-1-1-1-1-1-1-1-1-1-0-0-0-0-0-0-0-0-0-0-0-0-0-0-0-0-0---3-3-3-3-3-3-3-3-3-3--
                     P.M.-----------------------------l                       

------------|-----------------------------------------------------------------
------------|-----------------------------------------------------------------
------------|-----------------------------------10-10-10-10-10-10-10-10-10----
-3-3-3-3-3-3|-8-8-8-8-8-8-8-8-8-8-8-8-8-8-8-8-8-10-10-10-10-10-10-10-10-10----
-3-3-3-3-3-3|-5-5-5-5-5-5-5-5-5-5-5-5-5-5-5-5-5-8--8--8--8--8--8--8--8--8-----
-3-3-3-3-3-3|-5-5-5-5-5-5-5-5-5-5-5-5-5-5-5-5-5-8--8--8--8--8--8--8--8--8-----
             Outro                                                            

------------------------------------------------------------------------------
------------------------------------------------------------------------------
-10-10-10-10-10-10-10---------------------------------------------------------
-10-10-10-10-10-10-10-12-12-12-12-12-12-12-12-12-12-12-12-12-12-12-12-3-3-3---
-8--8--8--8--8--8--8--12-12-12-12-12-12-12-12-12-12-12-12-12-12-12-12-3-3-3---
-8--8--8--8--8--8--8--12-12-12-12-12-12-12-12-12-12-12-12-12-12-12-12-3-3-3---
                                                                              

---------------------------|---------------------------------|----------------
---------------------------|---------------------------------|----------------
---------------------------|---------------------------------|-10-10-12-8-----
-3-3-3-3-3-3-3-3-3-3-3-3-3-|-0-3-3-0-3-3-0-3-3-0-3-0-3-3-3-3-|-x--x--x--x-----
-3-3-3-3-3-3-3-3-3-3-3-3-3-|-0-3-3-0-3-3-0-3-3-0-3-0-3-3-3-3-|-8--8--10-6-----
-3-3-3-3-3-3-3-3-3-3-3-3-3-|-0-3-3-0-3-3-0-3-3-0-3-0-3-3-3-3-|----------------
                            Do this then go into verse        Last Time       


Author/Artist: Papa Roach
Title: Thrown Away


Dropped-D tuning (DADGBE) low-to-high

------------------------------------------------------------------------------
------------------------------------------------------------------------------
------------------------------------------------------------------------------
-2-2---2-0-2-2---2-0-2-2---0-3-3----3-0-3-3----3-0-3-3---0--------------------
-2-2---2-0-2-2---2-0-2-2---0-3-3----3-0-3-3----3-0-3-3---0--------------------
-2-2---2-0-2-2---2-0-2-2---0-3-3----3-0-3-3----3-0-3-3---0--------------------
 Intro and Fill Thingy                                                        

------------------------------------------------------------------------------
------------------------------------------------------------------------------
------------------------------------------------------------------------------
-2-2-2--2-2-2--2-2-2--2-2-0--3-3-3--3-3-3--3-3-3--3-3-0-----------------------
-2-2-2--2-2-2--2-2-2--2-2-0--3-3-3--3-3-3--3-3-3--3-3-0-----------------------
-2-2-2--2-2-2--2-2-2--2-2-0--3-3-3--3-3-3--3-3-3--3-3-0-----------------------
 Verse and Fill Pt. 2                                                         

------------------------------------------------------------------------------
------------------------------------------------------------------------------
------------------------------------------------------------------------------
-9-9-9-9-9-9-9-9-9-9-9-9-9-9-9-9-10-10-10-10-10-10-10-10-10-10-10-10-10-10----
-9-9-9-9-9-9-9-9-9-9-9-9-9-9-9-9-10-10-10-10-10-10-10-10-10-10-10-10-10-10----
-9-9-9-9-9-9-9-9-9-9-9-9-9-9-9-9-10-10-10-10-10-10-10-10-10-10-10-10-10-10----
 Chorus pt.1                                                                  

------------------------------------------------------------------------------
------------------------------------------------------------------------------
------------------------------------------------------------------------------
-10-10-9-9-9-9-9-9-9-9-9-9-9-9-9-9-9-9-6-6-6-6-6-6-6-6-6-6-6-6-6-6-6-6--------
-10-10-9-9-9-9-9-9-9-9-9-9-9-9-9-9-9-9-6-6-6-6-6-6-6-6-6-6-6-6-6-6-6-6--------
-10-10-9-9-9-9-9-9-9-9-9-9-9-9-9-9-9-9-6-6-6-6-6-6-6-6-6-6-6-6-6-6-6-6--------
                                                                              

------------------------------------------------------------------------------
------------------------------------------------------------------------------
-----5^----5^----5^-----------5^----5^----5^----------------------------------
-2-2---2-2---2-2---2-2-0--3-3---3-3---3-3---3-3-0-----------------------------
-2-2---2-2---2-2---2-2-0--3-3---3-3---3-3---3-3-0-----------------------------
-2-2---2-2---2-2---2-2-0--3-3---3-3---3-3---3-3-0-----------------------------
                                                                              

------------------------------------------------------------------------------
------------------------------------------------------------------------------
------------------------------------------------------------------------------
------------------------------------------------------------------------------
-------5^----------------5^---------------------------------------------------
-2^-2^----2^-2^-5^-3^-3^----3^-3^-5^------------------------------------------
 Bridge                                                                       

------------------------------------------------------------------------------
------------------------------------------------------------------------------
-----------------------------------------------------------------10-10-10-10--
-8-8-8-8-8-8-8-8-8-8-8-8-8-8-8-8-8-8-8-8-8-8-8-8-8-8-8-8-8-8-8-8-10-10-10-10--
-8-8-8-8-8-8-8-8-8-8-8-8-8-8-8-8-6-6-6-6-6-6-6-6-6-6-6-6-6-6-6-6-8--8--8--8---
-8-8-8-8-8-8-8-8-8-8-8-8-8-8-8-8-8-8-8-8-8-8-8-8-8-8-8-8-8-8-8-8--------------
 Outro                                                                        

------------------------------------------------------------------------------
------------------------------------------------------------------------------
-10-10-10-10-10-10-10-10-10-----10-10-10-10-10-10-10-10-10-10-10-10----10-10--
-10-10-10-10-10-10-10-10-10-----10-10-10-10-10-10-10-10-10-10-10-10----10-10--
-8--8--8--8--8--8--8--8--8------8--8--8--8--8--8--8--8--8--8--8--8-----8--8---
------------------------------------------------------------------------------
                                                                              

------------------------------------------------------------------------------
------------------------------------------------------------------------------
-10-10-10-10-10-10-10-10-10-10-10---------------------------------------------
-10-10-10-10-10-10-10-10-10-10-10----3-3-3-3-3-3-3-3-3-3-3-3-3----------------
-8--8--8--8--8--8--8--8--8--8--8-----3-3-3-3-3-3-3-3-3-3-3-3-3----------------
-------------------------------------3-3-3-3-3-3-3-3-3-3-3-3-3----------------
                                                                              



Author/Artist: Papa Roach
Title: Legacy
Album: Infest (edited)

Dropped-D tuning (DADGBE) low-to-high

------------------|-----------------------------------------------------------
------------------|-----------------------------------------------------------
------------------|-----------------------------------------------------------
-0-0-x-0-0-x------|-------7----7--10p7---------7---7--8p7---------------------
-0-0-x-0-0-x------|-------8----8--8------------8---8--8-----------------------
-0-0-x-0-0-x------|-x-x-x----------------x-x-x--------------------------------
 Intro and Fill     Verse                                                     

------------------------------------------------------------------------------
------------------------------------------------------------------------------
------------------------------------------------------------------------------
-8--8--8--8--8--8--8--8--8-8-8-8-8-8-8-8-10-10-10-10-10-10-10-10-10-10-10-10--
-10-10-10-10-10-10-10-10-8-8-8-8-8-8-8-8-12-12-12-12-12-12-12-12-10-10-10-10--
-8--8--8--8--8--8--8--8--8-8-8-8-8-8-8-8-10-10-10-10-10-10-10-10-10-10-10-10--
 Chorus                                                                       

------------------------------------------------------------------------------
------------------------------------------------------------------------------
------------------------------------------------------------------------------
-10-10-10-10------------------------------------------------------------------
-10-10-10-10------------------------------------------------------------------
-10-10-10-10------------------------------------------------------------------
                                                                              

------------------------------------------------------------------------------
------------------------------------------------------------------------------
-7-------9-------10-10-10-10-10-10-10-10-----------------9-9-9-9-5-5-5-5------
-x-0-0-0-x-0-0-0-x--x--x--x--x--x--x--x--3-3-3-3-3-3-3-3-x-x-x-x-x-x-x-x------
-5-0-0-0-7-0-0-0-8--8--8--8--8--8--8--8--3-3-3-3-3-3-3-3-7-7-7-7-3-3-3-3------
---0-0-0---0-0-0-------------------------3-3-3-3-3-3-3-3----------------------
 Bridge                                                                       

------------------------------------------------------------------------------
------------------------------------------------------------------------------
-7-------9-------10-10-10-10-10-10-10-10-----------------10-10-10-10-5-5-5-5--
-x-0-0-0-x-0-0-0-x--x--x--x--x--x--x--x--8-8-8-8-8-8-8-8-x--x--x--x--x-x-x-x--
-5-0-0-0-7-0-0-0-8--8--8--8--8--8--8--8--8-8-8-8-8-8-8-8-8--8--8--8--3-3-3-3--
---0-0-0---0-0-0-------------------------8-8-8-8-8-8-8-8----------------------
 Bridge (Cont'd)                                                              

--------------------------------------------------|---------------------------
--------------------------------------------------|---------------------------
-7-7-7-7-7-7-7-7-7-7-7-7--------------------------|---------------------------
-x-x-x-x-x-x-x-x-x-x-x-x-----0------0---------0---|---------------------------
-5-5-5-5-5-5-5-5-5-5-5-5-----0------0---------0---|---------------------------
-----------------------------0------0---------0---|-9-9-9---------------------
 Ending Fill                  Then the weird part  (Harming)
comments
print report bad tab
3 comments total.
0 reply
macolicious14 wrote on November 1 2006, 09:00 am

Awesome Good Job Man!

0 reply
fabiorod91 wrote on April 8 2009, 12:47 pm

did you copy it from the original? cause it's excellent

0 reply
Geoff157 wrote on August 4 2010, 03:32 pm

how are those chords called (like in the intro 10-8-10)?

I want to post or [tab]
guest
You may want to rate the tab now too:
select rating
Please do not post tabs as comments. Select "correction" instead!