Oops, an error
Loading. Please wait.

Lovehatetragedy Bass Tab

ver1
ver1

Album

Whole song

Interactive

More versions @911Tabs.com
1,132 views 3 this week
no commentswrite comment
1 2 3 4 5
excellent!
x 1
Autoscroll
+/-
esc
set tempo
stop
Contributor
Hey! There's an official Ultimate Guitar app which is ideal
for learning songs when you're away from computer. Get the app
WARNING: You are trying to view
                                    content from Ultimate-Guitar.com
                                    in an unauthorized application,
                                    which is prohibited.

                                    Please use an official Ultimate
                                    Guitar Tabs application for iPhone,
                                    iPad or Android to access legitimate
                                    chords, guitar, bass, and drum tabs
                                    from Ultimate-Guitar.com database.

                                    Type "ultimate guitar tabs" in Apple
                                    App Store's or Android Market's
                                    search to find the application.
Band- Papa Roach
Album- Lovehatetragedy

Track Listings:
1.M-80(explosive energy movement)
2.Life Is A Bullet
3.Time And Time Again
4.Walking Thru Barbed Wire
5.Decompression Period
6.Born With Nothing, Die With Everything
7.She Loves Me Not
8.Singular Indestructible Droid
9.Black Clouds
10.Code Of Energy
11.Lovehatetragedy
12.Gouge Away
13.Never Said It

-----------------------------------------------

1.M-80(EXPLOSIVE ENERGY MOVEMENT)

Intro:
G-----------------------------------------|
D-----------------------------------------|
A-----------------------------------------|
D-8-8----7-7----3-3----5-5----8-8----10-10|

Verse:
G----------------------|-------------------|----------------------|
D----------------------|-------------------|----------------------|
A-----------------8----|------------------8|-----------------8----|
D-0-0--12--0-10-0----10|-0-12-0-0-10-0-10--|-0-0--12--0-10-0----10|

Verse cont.
G----------------------|-------------------|
D----------------------|-------------------|
A----------------------|-----------8-------|
D-0-12-0-12-12-12-10-12|-0-12-0-12----10-12|

Chorus:
G-------------------------|
D-------------------------|
A-------------------------|
D-8-8----7-7----3-3----5-5|

''Break it'':
G----------------------|
D----------------------|
A----------------------|
D-0-3-0-5-7-5-3-5-3-5-3|

Variation of Chorus:
G---------------------------------------------------------------------------------|
D---------------------------------------------------------------------------------|
A---------------------------------------------------------------------------------|
D-8-8----7-7----3-3----5-5----8-8----10-10----7-7----7-7----8-8----10-10----0----0|

Variation of Chorus cont.
G------------------------------------------|
D------------------------------------------|
A------------------------------------------|
D----8-8----8-8----7-7----3-3----5-5----5-5|

Outro:
G------------------------------------|
D------------------------------------|
A----------------8----------------8--|
D-0-0--15-0--0-0----0-0-12-0-10-0----|

Finale:
G-------------------|
D-------------------|
A-----8------8-8-8-8|
D-0-0----0-0--------|

2.LIFE IS A BULLET

Intro

Gb|-----|-----|-----|-----|-----|
Db|-----|-----|-----|-----|-----|
Ab|-----|-----|-----|-----|-----|
Db|0----|0----|0----|0----|0-0-0|

Gb|-----------------------------|-------------------------|
Db|------10-10-10-10-10-10-10-10|------12-12-12-12--------|
Ab|-----------------------------|------------------8-8-8-8|
Db|0-0-0------------------------|0-0-0--------------------|

Gb|-----------------------------|-----------------------------|
Db|------10-10-10-10-10-10-10-10|------12-12-15-15-12-12-15-15|
Ab|-----------------------------|-----------------------------|
Db|0-0-0------------------------|0-0-0------------------------|

Gb|-----------------------------|-------------------------|
Db|------10-10-10-10-10-10-10-10|------12-12-12-12--------|
Ab|-----------------------------|------------------8-8-8-8|
Db|0-0-0------------------------|0-0-0--------------------|

Gb|-------------------------|-----------------------------|
Db|------10-10-10-10--------|------12-12-15-15-12-12-15-15|
Ab|------------------8-8-8-8|-----------------------------|
Db|0-0-0--------------------|0-0-0------------------------|


Verse

Gb|-----------------------------|-------------------------|
Db|------10-10-10-10-10-10-10-10|------12-12-12-12--------|
Ab|-----------------------------|------------------8-8-8-8|
Db|0-0-0------------------------|0-0-0--------------------|

Gb|-----------------------------|-----------------------------|
Db|------10-10-10-10-10-10-10-10|------12-12-15-15-12-12-15-15|
Ab|-----------------------------|-----------------------------|
Db|0-0-0------------------------|0-0-0------------------------|

Gb|-----------------------------|-------------------------|
Db|------10-10-10-10-10-10-10-10|------12-12-12-12--------|
Ab|-----------------------------|------------------8-8-8-8|
Db|0-0-0------------------------|0-0-0--------------------|

Gb|-------------------------|-----------------------------|
Db|------10-10-10-10--------|------12-12-15-15-12-12-15-15|
Ab|------------------8-8-8-8|-----------------------------|
Db|0-0-0--------------------|0-0-0------------------------|


Bridge

Gb|--------|-----------|--------|--------|------------|
Db|--------|----------5|--------|--------|------------|
Ab|--------|------5-3--|--------|--------|------------|
Db|0-0-0-0-|0-0-0------|5-5-5-5-|8-8-8-8-|10-10-10-10-|


Chorus

Gb|---------|---------|---------|------------|
Db|---------|---------|---------|------------|
Ab|------7-8|------8-5|------7-8|---------8-5|
Db|5-5-5----|7-7-7----|8-8-8----|10-10-10----|

Gb|---------|---------|---------|--------------|
Db|---------|---------|---------|--------------|
Ab|------7-8|------7-8|------7-8|---------12-10|
Db|5-5-5----|7-7-7----|8-8-8----|10-10-10------|


Bridge

Gb|-----------------------------|-------------------------|
Db|------10-10-10-10-10-10-10-10|------12-12-12-12--------|
Ab|-----------------------------|------------------8-8-8-8|
Db|0-0-0------------------------|0-0-0--------------------|

Gb|-----------------------------|-----------------------------|
Db|------10-10-10-10-10-10-10-10|------12-12-15-15-12-12-15-15|
Ab|-----------------------------|-----------------------------|
Db|0-0-0------------------------|0-0-0------------------------|


-> after that play the Verse, the first bridge and the Chorus again


Interlude

Gb|-----------| x8
Db|-----------|
Ab|--8-5-7-8-5|
Db|0----------|

Gb|----|-----------|----|----------|-------|
Db|----|-----------|----|----------|-------|
Ab|----|-----------|----|8/10-8-5--|-------|
Db|8---|7h8p7-5h7p3|0---|---------0|--10-10|

Gb|------10-9-7|7h9p7-5------|------10-9-7|7h9p7-5----------| x4
Db|------------|--------5----|------------|-----------------|
Ab|--5-8-------|----------8-5|--5-8-------|--------8-5-5-5-5|
Db|0-----------|-------------|0-----------|-----------------|

Gb|------------|------------|------------|----------------|----|
Db|------------|------------|------------|----------------|----|
Ab|------------|------------|------------|----------------|----|
Db|5-5-5-5-----|7-7-7-7-----|8-8-8-8-----|10-10-10-10-----|10\-|


-> after that play the Bridge two times and the Chorus again


Outro

Gb|----------------7-7-7-7-7-7-7-7|----------------10-10-10-10-10-10-10-10|
Db|-------------------------------|---------------------------------------|
Ab|-------------------------------|---------------------------------------|
Db|0-0-0-0-0-0-0-0----------------|0-0-0-0-0-0-0-0------------------------|

Gb|----------------7-7-7-7-7-7-7-7|----------------10-10-10-10-10-10-10-10|
Db|-------------------------------|---------------------------------------|
Ab|-------------------------------|---------------------------------------|
Db|5-5-5-5-5-5-5-5----------------|8-8-8-8-8-8-8-8------------------------|

Gb|------------------------12-12-12-12-12-12-12-12|-----|
Db|-----------------------------------------------|-----|
Ab|-----------------------------------------------|-----|
Db|10-10-10-10-10-10-10-10------------------------|12\0-|

3.TIME AND TIME AGAIN

Intro
G|--------------------------------------------------------|
D|--------------------------------------------------------|
A|----------1113366---------1113366---------1113366\--666-|
E|-111333444-------111333444-------111333444--------------|

Verse 1
G|-------------------------------------------------------------|
D|---66-----66---3------3------6--66-----66---3------3-------6-|
A|-66--8--66--8---3556---3556-6-66--8--66--8---3556---3556-7---| X2
E|-------------------------------------------------------------|

Chorus 1
G|----------------------------------------------|
D|------------------------------------10\-------|
A|-----------8\-------------------------------6-|
E|-5--5-8--8----1--1-3--3/4-5--5-8--8-----1-----|

Verse 2
G|-------------------------------------------------------------|
D|---66-----66---3------3------6--66-----66---3------3-------6-|
A|-66--8--66--8---3556---3556-6-66--8--66--8---3556---3556-7---|
E|-------------------------------------------------------------|

Chorus 2
G|-----------------------------------------------|
D|------------------------------------10\--------|
A|-----------8\----------------------------------|
E|-5--5-8--8----1--1-3--3/4-5--5-8--8-----1--1-3-|

Bridge
G|-------------------------------------------------|
D|-------------------------------------------------|
A|----------------------11\-4-4--4-4--5-6-6--6-6---|
E|-1-1--1-1--3-4-4--4-4--------------------------0-|

G|-----------------------------------------------|
D|-----------------------------------------------|
A|----------------------11\-4-4--4-4--5-66666666-|
E|-1-1--1-1--3-4-4--4-4--------------------------|

Interlude
G|-------------------------------------------------------------------|
D|-------------------------------------------------------------------|
A|----------1113366---------1113366---------1113366-6--6--6--6--6666-|
E|-111333444-------111333444-------111333444---------66-66-66-66-----|

Chorus 3
G|-----------------------------------------------|
D|------------------------------------10\--------|
A|-----------8\----------------------------------|
E|-5--5-8--8----1--1-3--3/4-5--5-8--8-----1--1-3-|

G|-------------------------------------------------|
D|-------------------------------------------------|
A|----------------------8\-------------------------|
E|-5-5--5-5--5-8-8--8-8----1-1--1-1--2-3-3--3-3--4-|

G|-----------------------------------------------|
D|----------------------10\----------------------|
A|--------------------------------------66666666-|
E|-5-5--5-5--5-8-8--8-8-----1-1--1-1--1----------|

Outro
G|-------------------------------------------------------------------|
D|-------------------------------------------------------------------|
A|----------1113366---------1113366---------1113366-6--6--6--6--6666-|
E|-111333444-------111333444-------111333444---------66-66-66-66-----|

4.WALKING THRU BARBED WIRE

Intro
|------------------|
|------------------|
|------------------|
|-5--5-5-1-1-1-1-0-|
|------------------|x4

|------------------|-------------------|
|------------------|-------------------|
|--------8-8-8-8-8-|--------8-8-8-8-5\-|
|-5--5-5-----------|-5--5-5------------|
|------------------|-------------------|
                x3

Pre-Verse
|-----------------------------------------------------------|
|-----------------------------------------------------------|
|-----------------------------------------------------------|
|-1-1------x-1-1---1-1-x-x-0---1-1---x-x-x-x---x-1-1---1--0-|
|-----------------------------------------------------------|

Verse
|-----------------------------------------------------------|
|-----------------------------------------------------------|
|-----------------------------------------------------------|
|-1-1------x-1-1---1-1-x-x-0---1-1---x-x-x-x---x-1-1---1--3-|
|-----------------------------------------------------------|

|--------------------------------------------------------------|
|--------------------------------------------------------------|
|--------------------------------------------------------------|
|-1-1------x-1-1---1-1-x-x-0---1-1---x-x-x-x---x-1-1---3-3-3-3-|
|--------------------------------------------------------------|

Chorus
|-------------------------------------------------|
|-------------------------------------------------|
|-------------------------------------------------|
|-5-5-5----3-3-3---5\-1-1-1--1-1---3-3-3-3-3--1-3-|
|-------------------------------------------------|x2
                                   ^this part is real quick
|------------------|
|------------------|
|------------------|
|-5--5-5-1-1-1-1-0-|
|------------------|x4

Repeat Verse

Repeat Chorus(after 2nd chorus play the Intro Riff 8x instead of 4)

Bridge
|-------------------------------------|
|-------------------------------------|
|-------------------------------------|
|-1-1-1-----3-3-3-----5-5-5-----------|
|-------------------------------1-1-1-|

Interlude x2
|----------------|-------------|(first part)
|----------------|-------------|
|-------8-8--8-8-|-------8-7-5-|
|-5-5-5----------|-5-5-5-------|
|----------------|-------------|
              x3

|----------------|------------------|(second part)
|----------------|------------------|
|----------------|------------------|
|-6-6-6-5-5--5-5-|-6-6-6-3-3--3-5-3-|
|----------------|------------------|
              x3

After Second time playing the Interlude, play the first part of the Interlude
then go into the Ending

Ending
|-------------------------------------------------|
|-------------------------------------------------|
|-------------------------------------------------|
|-1-1-1-----3-3-3-----5-5-5-----3-3----1-1-1-1-0~-|
|-------------------------------------------------|

5.DECOMPRESSION PERIOD

Don't Know

6.BORN WITH NOTHING, DIE WITH EVERYTHING

G-------------------------------------------------
D-----55------------------------------------------     verse
A--33----333-66-6---------------------------------
E----------------666------------------------------

G-------------------------------------------------
D-------------------------------------------------
A-----55-----66-6---------------------------------
E--44----444-----666------------------------------

G-------------------------------------------------
D-------------------------------------------------people wake up....
A--33-66-33--11-11-11-113311----------------------
E----------------------------44-44-446644-6h88-6h88

G-------------------------------------------------born with nothing.....
D-------3-5--1-3----------------------------------          2x
A--3-3-----------5-6--4-5-------------------------
E-------------------------------------------------

G-------------------------------------------------
D------3-5--1-3-----------------------------------
A----------------5-6--4-5-------------------------
E--44---------------------------------------------

7.SHE LOVES ME NOT

INTRO/VERSE
G---------------------------------
D---------------------------------
A---------------------------------
D-7-77--3-33--0-00--2-22-0-2-2-022

PRECHORUS
G--------------------------------
D--------------------------------
A--------------------------------
D-77-7777-33-3333-00-0000-22-2222

CHORUS X2
G------------------------
D------------------------
A------------------------
D-333-3-555-5-777-7-777-7

VERSE
PRECHORUS
CHORUS

4 RAPPIN PART PLAY THE VERSE

THEN THERE IS VARITION OF THE CHORUS

BUILD UP
G------------------
D------------------
A------------------
D-00000000000000000

8.SINGULAR INDESTRUCTIBLE DROID

Intro
-------------------------------------
-------------------------------------
-------------------------------------
22222222222222/55-77777777777777/55--

Pre Verse/Chours
------------------------
------------------------
------------------------
1010-1010-1010000000----

Verse
-----------------------------------------------------------------
-----------------------------------------------------------------
-----------------------------------------------3/1010-101010-----
33--3-3-5-5-66-3-3-5-5-66-3-3-5-5-66-----------------------------

Pre Chours
------------------
------------------
------------------
0000-7------------

Bridge
-------------------
-------------------
-------------------
0-00-000-h7--------

Chours Then

Outro
----------------------------------
-----------------------------------
-----------------------------------
1010-1010-1010-77-77-77------------

9.BLACK CLOUDS

all on D string
Intro < over guitar tremolo picking >
<0:05> D - 8-------------8-------------8-----------8-------------4
repeat till Coby says "Rarely i see them" then it goes...

<0:35 D - -1-----4------1-----4---3----1------4-------1------4---3---

then at "Black clouds they rain down...."
<1:02> D - -1-1-1--3-3-3--4-4-4--6-6-6

"confession.."
<1:08> D - 6/8-8-8-8-1-1-1-1-4-4-4-4-1-1-1-1 x 4

slow down on " im tired of running.." which is the third time through but
 then pick back up normal pace for fourth time

" my emotions are storming.."
<1:27>  D - 8-------------8-------------8-----------8-------------4
then
<1:47> D - -1-----4------1-----4---3----1------4-------1------4---3---

"Black clouds they rain down.."
<2:05> D - -1-1-1--3-3-3--4-4-4--6-6-6

"confession.."
<2:12>  D - 6/8-8-8-8-1-1-1-1-4-4-4-4-1-1-1-1 x4
again slow down on third time

this time at "black clouds they rain down.."
<2:30> D- 4-4-4-1-1-1-4-4-4-6-6-6

then at "inside..."
<2:35>
 A-------------------------4
 D-8-----------8-------

then it goes back to
<2:57> D - -1-----4------1-----4---3----1------4-------1------4---3---

"Black clouds they rain down"
<3:04>  D - -1-1-1--3-3-3--4-4-4--6-6-6

"confession.."
<3:10> D - 6/8-8-8-8-1-1-1-1-4-4-4-4-1-1-1-1 x6

"Black clouds they rain down"
<3:39>  D - -1-1-1--3-3-3--4-4-4--6-6-6

"inside"
<3:45> D- and -8- and ends on another -8-

10.CODE OF ENERGY

Intro
|-----------------------|
|-----------------------|
|-----------------------|
|-2--2-2---------2--2-2-|

Verse
|-----------------------------------------|
|-----------------------------------------|
|----------3p2----------------3p2-----2-2-|
|-2-2-5p2------2-5-2--2-2-5p2-----2-2-----|x6

Chorus
|------------------------------|
|------------------------------|
|-0-0--0--0-0--0-3-3--3--------|
|-----------------------5-5--5-|x4

Post-Chorus
|----------------------------------------------|
|----------------------------------------------|
|--------------------------------------7-7-7-7-|
|-3--x-x-3--3-3--3-3--3--x-x-3--3-3--3---------|

Repeat Verse 4 times

Verse 2 Fill
	       x3     First Time		Second Time
|----------------|-----------------|---------------------------------------|
|----------------|-----------------|---------------------------------------|
|-3p2--------2-2-|-3-3-3-3-3-3-3-3-|-3-3-3-3-3-3-3-3-3-7-7-7-7-10-10-10-10-|
|-----5-2--2-----|-----------------|---------------------------------------|

Repeat Chorus

Bridge
|--------------------|
|--------------------|
|--------------------|
|-3--3--3-3--3--3--3-|x2

|-------------------------|
|-------------------------|
|------------3p2-3p2------|
|-2-2-5p2--2---------5-5\-|x4

Interlude
|--------------------|
|--------------------|
|--------------------|
|-3--x-x-3--3-3--3-3-|x4

		 x2	            x2		       x2
|---------------------|--------------------|---------------|------|
|---------------------|--------------------|---------------|------|
|-------7\---------7\-|-------8\--------8\-|-------7\------|---7\-|
|-2--2------2-2--2----|-3--3-----3-3--3----|-2--2------2-2-|-2----|
                                                   2nd time^
|----------------------|                           end here
|----------------------|
|----------------------|
|-2~----------------3~-|

|-------------------------------------------------------------|----|
|-------------------------------------------------------------|----|
|---------------------------------------3-2-0-------3-2---0~--|----|
|-2--2-5--0-2--2-5--2--2-5--0-2--2-5--3-------3~--3-----3-----|-5-3|
                                          Only play these notes^ the 1st time
End Chorus
Play Regular Chorus riff then play this:
|-----------------------------------|
|-----------------------------------|
|-7-7--7--7-7--7-10-10--10-12-12--5-|
|-----------------------------------|x4
                             (on 2nd and 4th times, replace the "5" with a "12")
|--------------------|
|--------------------|
|--------------------|
|-3--x-x-3--3-3--3-3-|x2

|-----------------------------------|
|-----------------------------------|
|-----------------------------------|
|-2--x-x-2--2-2--2-2--2--x-x-2--2-2-|

11.LOVEHATETRAGEDY

Intro
-----------------------------------------------------------------
---------12-9-9-10------------12---9-8-9-11-9--------12-9-8-11----
10---10------------10-----10------------------10---10-------------
---10------------------10-----------------------10----------------

Heavy Riff
------------------------
------------------------
------------------------
77---77---33---55-------

Verse
---------------------------
---------------------------
---------------------------
777-7~-777-7~-333-3~-555-5~

Pre Chours
-------------
-------------
-------------
7~-9~-10~-12~

Chours 
-----------------------------------------------------------------------------
-----------------------------------------------------------------------------
-----------------------------------------------------------------------------
1010101010101010-777777777-66666666-99999999-12121212121212121212121212121212

you better run
----------------------------------------------------------
----------------------------------------------------------
----------------------------------------------------------
7-9-7-9-7-9-7-9-7-5-7-5-7-5-7-5-5-3-5-3-5-3-5-3-2-0-2------

love~~hate~~tragedy
------------------------------------------------------
---7/9--9---------10/12--12-h13-12---------14-12-9-7--
10--------9---9-13-----------------12---12------------
------------9-------------------------12--------------

12.GOUGE AWAY

G|-----------------------------------------------------|
D|-----------------------------------------------------|
A|------------------------------------7-7-7-7-7-7-7-7--|
E|--4-4-4-4-4-4-4-4--7-7-7-7-7-7-7-7-------------------|

G|------------------------------------|
D|------------------------------------|
A|-------------------7-7-7-7-7-7-7-7--|
E|--4-4-4-4-4-4-4-4-------------------|


chorus/outro:
G|-----------------------------------------------------|
D|-----------------------------------------------------|
A|------------------------------------6h7-7-7-6h7-7-7--|
E|--4-4-4-4-4-4-4-4--7-7-7-7-7-7-7-7-------------------|

G|------------------------------------|
D|------------------------------------|
A|-------------------6h7-7-7-6h7-7-7--|
E|--4-4-4-4-4-4-4-4-------------------|

13.NEVER SAID IT

Don't Know
comments
We did not receive enough feedback on this tab! Please rate:
print report bad tab
1 2 3 4 5
I want to post or [tab]
guest
You may want to rate the tab now too:
select rating
Please do not post tabs as comments. Select "correction" instead!