Oops, an error
Loading. Please wait.

Lovehatetragedy Tab

ver1
ver1

Album

Whole song

Interactive

More versions @911Tabs.com
6,220 views 1 this week
6 commentsread comments
1 2 3 4 5
excellent!
x 6
Autoscroll
+/-
esc
set tempo
stop
Contributor
WARNING: You are trying to view
                                    content from Ultimate-Guitar.com
                                    in an unauthorized application,
                                    which is prohibited.

                                    Please use an official Ultimate
                                    Guitar Tabs application for iPhone,
                                    iPad or Android to access legitimate
                                    chords, guitar, bass, and drum tabs
                                    from Ultimate-Guitar.com database.

                                    Type "ultimate guitar tabs" in Apple
                                    App Store's or Android Market's
                                    search to find the application.
Band- Papa Roach
Album- Lovehatetragedy

1.M-80
2.Life Is A Bullet
3.Time And Time Again
4.Walking Thru Barbed Wire
5.Decompression Period
6.Born With Nothing, Die With Everything
7.She Loves Me Not
8.Singular Indestructible Droid
9.Black Clouds
10.Code Of Energy
11.Lovehatetragedy
12.Gouge Away
13.Never Said It

This album wasn't as good as Infest. But, it was good enough for me to tab it.

1.M-80

Drop-D (DADGBE)

------------------------------------------------------------------------------|
------------------------------------------------------------------------------|
-10-10-10-10-10-10-10-10-9-9-9-9-9-9-9-9-5-5-5-5-5-5-5-5-7-7-7-7-7-7-7-7------|
-8--8--8--8--8--8--8--8--7-7-7-7-7-7-7-7-3-3-3-3-3-3-3-3-5-5-5-5-5-5-5-5------|
-8--8--8--8--8--8--8--8--7-7-7-7-7-7-7-7-3-3-3-3-3-3-3-3-5-5-5-5-5-5-5-5------|
-8--8--8--8--8--8--8--8--7-7-7-7-7-7-7-7-3-3-3-3-3-3-3-3-5-5-5-5-5-5-5-5------|
 Intro (Similar to Chorus)

------------------------------------------------------------------------------|
------------------------------------------------------------------------------|
-10-10-10-10-10-10-10-12-12-12-12-12-12-12-12---------------------------------|
-8--8--8--8--8--8--8--10-10-10-10-10-10-10-10---------------------------------|
-8--8--8--8--8--8--8--10-10-10-10-10-10-10-10---------------------------------|
-8--8--8--8--8--8--8--10-10-10-10-10-10-10-10---------------------------------|


--------------------|---------------------|---------------------|
--------------------|---------------------|---------------------|
---------------10---|------------------10-|---------------10----|
-0-0-12-0-10-0-x--10|-0-12-0-0-10-0-10-x--|-0-0-12-0-10-0-x--10-|
-0-0-12-0-10-0-8--10|-0-12-0-0-10-0-10-8--|-0-0-12-0-10-0-8--10-|
-0-0-12-0-10-0----10|-0-12-0-0-10-0-10----|-0-0-12-0-10-0----10-|

-----------------------|--------------------|
-----------------------|--------------------|
-----------------------|-----------10-------|
-0-12-0-12-12-12-10-12-|-0-12-0-12-x--10-12-|
-0-12-0-12-12-12-10-12-|-0-12-0-12-8--10-12-|
-0-12-0-12-12-12-10-12-|-0-12-0-12----10-12-|
 Verse

------------------------------------------------------------------------------|
------------------------------------------------------------------------------|
-10-10-10-10-10-10-10-10-9-9-9-9-9-9-9-9-5-5-5-5-5-5-5-5-7-7-7-7-7-7-7-7------|
-8--8--8--8--8--8--8--8--7-7-7-7-7-7-7-7-3-3-3-3-3-3-3-3-5-5-5-5-5-5-5-5------|
-8--8--8--8--8--8--8--8--7-7-7-7-7-7-7-7-3-3-3-3-3-3-3-3-5-5-5-5-5-5-5-5------|
-8--8--8--8--8--8--8--8--7-7-7-7-7-7-7-7-3-3-3-3-3-3-3-3-5-5-5-5-5-5-5-5------|


------------------------------------------------------------------------------|
------------------------------------------------------------------------------|
------------------------------------------------------------------------------|
-0-3-0-5-7-5-3--5--3--5-3-----------------------------------------------------|
-0-3-0-5-7-5-3--5--3--5-3-----------------------------------------------------|
-0-3-0-5-7-5-3--5--3--5-3-----------------------------------------------------|
 Bridge (BREAK IT!)

------------------------------------------------------------------------------|
------------------------------------------------------------------------------|
-10-10-10-10-10-10-1010-9-9-9-9-9-9-9-9-5-5-5-5-5-5-5-5-7-7-7-7-7-7-7-7-------|
-8--8--8--8--8--8--8--8-7-7-7-7-7-7-7-7-3-3-3-3-3-3-3-3-5-5-5-5-5-5-5-5-------|
-8--8--8--8--8--8--8--8-7-7-7-7-7-7-7-7-3-3-3-3-3-3-3-3-5-5-5-5-5-5-5-5-------|
-8--8--8--8--8--8--8--8-7-7-7-7-7-7-7-7-3-3-3-3-3-3-3-3-5-5-5-5-5-5-5-5-------|
 Last Chorus w/ Variation

------------------------------------------------------------------------------|
------------------------------------------------------------------------------|
-10-10-10-10-10-10-10-10-12-12-12-12-12-12-12-12-9-9-9-9-9-9-9-9-9-9-9-9-9-9--|
-8--8--8--8--8--8--8--8--10-10-10-10-10-10-10-10-7-7-7-7-7-7-7-7-7-7-7-7-7-7--|
-8--8--8--8--8--8--8--8--10-10-10-10-10-10-10-10-7-7-7-7-7-7-7-7-7-7-7-7-7-7--|
-8--8--8--8--8--8--8--8--10-10-10-10-10-10-10-10-7-7-7-7-7-7-7-7-7-7-7-7-7-7--|


------------------------------------------------------------------------------|
------------------------------------------------------------------------------|
-9-9-10-10-10-10-10-10-10-10-12-12-12-12-12-12-12-12--------------------------|
-7-7-8--8--8--8--8--8--8--8--10-10-10-10-10-10-10-10--0--0--10-10-10-10-------|
-7-7-8--8--8--8--8--8--8--8--10-10-10-10-10-10-10-10--0--0--8--8--8--8--------|
-7-7-8--8--8--8--8--8--8--8--10-10-10-10-10-10-10-10--0--0--8--8--8--8--------|


------------------------------------------------------------------------------|
------------------------------------------------------------------------------|
-10-10-10-10-10-10-10-10-9-9-9-9-9-9-9-9-5-5-5-5-5-5-5-5-7-7-7-7-7-7-7-7-7-7--|
-8--8--8--8--8--8--8--8--7-7-7-7-7-7-7-7-3-3-3-3-3-3-3-3-5-5-5-5-5-5-5-5-5-5--|
-8--8--8--8--8--8--8--8--7-7-7-7-7-7-7-7-3-3-3-3-3-3-3-3-5-5-5-5-5-5-5-5-5-5--|
-8--8--8--8--8--8--8--8--7-7-7-7-7-7-7-7-3-3-3-3-3-3-3-3-5-5-5-5-5-5-5-5-5-5--|


-------------|-----------------------------------------|--------------------------|
-------------|-----------------------------------------|--------------------------|
-7-7-7-7-7-7-|------------------10-----------------10--|-----10-----10-10-10-10---|
-5-5-5-5-5-5-|-0--0--15-0---0-0-x--0-0-12-0-10-0---x---|-0-0-x--0-0-x--x--x--x----|
-5-5-5-5-5-5-|-0--0--15-0---0-0-8--0-0-12-0-10-0---8---|-0-0-8--0-0-8--8--8--8----|
-5-5-5-5-5-5-|-0--0--15-0---0-0----0-0-12-0-10-0-------|-0-0----0-0---------------|
              Ending        . .    . .                Last Time

2.LIFE IS A BULLET

Drop-Db (Db, Ab, Db, Gb, Bb, Eb)

------------------------------------------------------------------------------|1-|
------------------------------------------------------------------------------|2-|
------------------------------------------------------------------------------|3-|
------------------------------------------------------------------------------|4-|
-0--0--0-0--15-15-15-15-15-15-15-0--0--0-0--17-17-17-17-----------------------|5-|
-0--0--0-0/----------------------0--0--0-0/-------------15-15-15-15-----------|6-|
 Intro (Slide on the 6th String)

------------------------------------------------------------------------------|
------------------------------------------------------------------------------|
------------------------------------------------------------------------------|
------------------------------------------------------------------------------|
-0--0--0-0--15-15-15-15-15-15-15-0--0--0-0---17-17-20-20-17-17-20-20----------|
-0--0--0-0/----------------------0--0--0-0/-----------------------------------|


------------------------------------------------------------------------------|
------------------------------------------------------------------------------|
------------------------------------------------------------------------------|
------------------------------------------------------------------------------|
-0--0--0-0--15-15-15-15-15-15-15-0--0--0-0--17-17-17-17-----------------------|
-0--0--0-0/----------------------0--0--0-0/-------------15-15-15-15-----------|


------------------------------------------------------------------------------|
------------------------------------------------------------------------------|
------------------------------------------------------------------------------|
-------------------------------------0-0-0------------------------------------|
-0--0--0-0--15-15-15-15--------------0-0-0------------------------------------|
-0--0--0-0/-------------14-14-14-14--0-0-0------------------------------------|


------------------------------------------------------------------------------|
------------------------------------------------------------------------------|
------------------------------------------------------------------------------|
-0--0--0-0--/10-10-10-10-10-10-10-10--0--0--0-0--/12-12-12-12-3-3-3-3---------|
-0--0--0-0--/10-10-10-10-10-10-10-10--0--0--0-0--/12-12-12-12-3-3-3-3---------|
-0--0--0-0--/10-10-10-10-10-10-10-10--0--0--0-0--/12-12-12-12-3-3-3-3---------|
 Heavy Part

------------------------------------------------------------------------------|
------------------------------------------------------------------------------|
------------------------------------------------------------------------------|
-0--0--0-0--/10-10-10-10-10-10-10-10--0--0--0-0--/12-12-15-15-12-12-15-15-----|
-0--0--0-0--/10-10-10-10-10-10-10-10--0--0--0-0--/12-12-15-15-12-12-15-15-----|
-0--0--0-0--/10-10-10-10-10-10-10-10--0--0--0-0--/12-12-15-15-12-12-15-15-----|


------------------------------------------------------------------------------|
------------------------------------------------------------------------------|
------------------------------------------------------------------------------|
-0--0--0-0--/10-10-10-10-10-10-10-10--0--0--0-0--/12-12-12-12-3-3-3-3---------|
-0--0--0-0--/10-10-10-10-10-10-10-10--0--0--0-0--/12-12-12-12-3-3-3-3---------|
-0--0--0-0--/10-10-10-10-10-10-10-10--0--0--0-0--/12-12-12-12-3-3-3-3---------|


------------------------------------------------------------------------------|
------------------------------------------------------------------------------|
------------------------------------------------------------------------------|
-0--0--0-0--/10-10-10-10-2-2-2-2--0--0--0-0--/12-12-15-15-12-12-15-15---------|
-0--0--0-0--/10-10-10-10-2-2-2-2--0--0--0-0--/12-12-15-15-12-12-15-15---------|
-0--0--0-0--/10-10-10-10-2-2-2-2--0--0--0-0--/12-12-15-15-12-12-15-15---------|


------------------------------------------------------------------------------|
------------------------------------------------------------------------------|
-------------7--------------7-------------------------------------------------|
-0--0--0-0-0-7--0--0--0-0-0-7--5--5--5-5-5-7--8--8--8-8-8-10-10--10--10-12----|
-0--0--0-0-0-5--0--0--0-0-0-5--5--5--5-5-5-5--8--8--8-8-8-8--10--10--10-10----|
-0--0--0-0-0-0--0--0--0-0-0-0--5--5--5-5-5-5--8--8--8-8-8-8--10--10--10-10----|
 Pre-chorus

-------|----------------------------------------------------------------------|
-------|----------------------------------------------------------------------|
-------|---------9-10---------9-----------9-10--------------9-----------------|
-10-10-|-5-5-555-x-x--7-7-777-x-10-88-888-x-x--10-10-101010-x-10--------------|
-10-10-|-5-5-555-7-8--7-7-777-7-10-88-888-7-8--10-10-101010-7-10--------------|
-10-10-|-5-5-555------7-7-777---10-88-888------10-10-101010---10--------------|
         Chorus (Life is.. a bullet)

------------------------------------------------------------------------------|
------------------------------------------------------------------------------|
---------9-10---------9-10---------9-10---------------14-10-------------------|
-5-5-555-x-x--7-7-777-x-x--8-8-888-x-x--10-10--101010-x--x--------------------|
-5-5-555-7-8--7-7-777-7-8--8-8-888-7-8--10-10--101010-12-8--------------------|
-5-5-555------7-7-777------8-8-888------10-10--101010-------------------------|


--------------|---------------------------------------------------------------|
--------------|---------------------------------------------------------------|
--------------|---------------------------9----9/12-10-5-------10-------------|
--------------|--8----7h8p7--3h5p3------7------x-x---x-x-----7---------10-10--|
---8---7-8-5--|--8----7h8p7--3h5p3----8--------7/10--8-3---8-----------10-10--|
-0---7--------|--8----7h8p7--3h5p3--0-------x-x----------0---------x-x-10-10--|
 Fill 1          Bridge

-----------------------|------------------------------------------------------|
-----------------------|------------------------------------------------------|
-------9-----------10--|---------7-7-7-7-9-9-9-9-10101010---------7-7-7-7-9-9-|
-----7-----------7-----|-5-5-5-5-x-x-x-x-x-x-x-x-x-x-x-x--7-7-7-7-x-x-x-x-x-x-|
---8-----------8-------|-5-5-5-5-5-5-5-5-7-7-7-7-8-8-8-8--7-7-7-7-5-5-5-5-7-7-|
-0-----------0---------|-5-5-5-5--------------------------7-7-7-7-------------|


------------------------------------------------------------------------------|
------------------------------------------------------------------------------|
-9-9-10101010---------7-7-7-7-9-9-9-9-10101010-------------7-7-7-7-9-9-9-9-10-|
-x-x-x-x-x-x--8-8-8-8-x-x-x-x-x-x-x-x-x-x-x-x--10-10-10-10-x-x-x-x-x-x-x-x-x--|
-7-7-8-8-8-8--8-8-8-8-5-5-5-5-7-7-7-7-8-8-8-8--10-10-10-10-5-5-5-5-7-7-7-7-8--|
--------------8-8-8-8--------------------------10-10-10-10--------------------|


------------------------------------------------------------------------------|
------------------------------------------------------------------------------|
-101010-----------------------------------------------------------------------|
-x-x-x------------------------------------------------------------------------|
-8-8-8------------------------------------------------------------------------|
------------------------------------------------------------------------------|


------------------------------------------------------------------------------|
------------------------------------------------------------------------------|
---10---9-10-7----10---9-10-7-------10---9-10-7----10---9-10-7----------------|
-0-x--7-x-x--x--0-x--7-x-x--x-----5-x--5-x-x--x--5-x--5-x-x--x----------------|
-0-8--7-7-8--5--0-8--7-7-8--5-----5-8--5-7-8--5--5-8--5-7-8--5----------------|
-0----7---------0----7------------5----5---------5----5-----------------------|
 Fill 2 (Similar to Fill 1)

------------------------------------------------------------------------------|
------------------------------------------------------------------------------|
---10---9-10-7----10---9-10-7--------10----9-10-7-----10----9-10-7------------|
-8-x--8-x-x--x--8-x--8-x-x--x-----10-x--10-x-x--x--10-x--10-x-x--x------------|
-8-8--8-7-8--5--8-8--8-7-8--5-----10-8--10-7-8--5--10-8--10-7-8--5------------|
-8----8---------8----8------------10----10---------10----10-------------------|


-------------------------------------------------------------------------------|
-------------------------------------------------------------------------------|
-----------------7-7--7-7-7-7-7-----------------10-10--10-10-10-10-10----------|
-----------------x-x--x-x-x-x-x-----------------x--x---x--x--x--x--x-----------|
-0-0-0-0-0-0-0-0-5-5--5-5-5-5-5-0-0-0-0-0-0-0-0-8--8---8--8--8--8--8-----------|
-0-0-0-0-0-0-0-0----------------0-0-0-0-0-0-0-0--------------------------------|
 Ending ------PM                ------PM---------------------------------------|

-------------------------------------------------------------------------------|
-------------------------------------------------------------------------------|
-----------------7-7--7-7-7-7-7-----------------10-10--10-10-10-10-10----------|
-----------------x-x--x-x-x-x-x-----------------x--x---x--x--x--x--x-----------|
-5-5-5-5-5-5-5-5-5-5--5-5-5-5-5-8-8-8-8-8-8-8-8-8--8---8--8--8--8--8-----------|
-5-5-5-5-5-5-5-5----------------8-8-8-8-8-8-8-8--------------------------------|
 -----PM--------                ------PM---------------------------------------|

-------------------------------------------------------------------------------|
-------------------------------------------------------------------------------|
-------------------------5-5--5-5-5-5-5----------------------------------------|
-------------------------x-x--x-x-x-x-x-----12\0-------------------------------|
-10-10-10-10-10-10-10-10-3-3--3-3-3-3-3-----12\0-------------------------------|
-10-10-10-10-10-10-10-10--------------------12\0-------------------------------|
 ---------PM-------------------------------------------------------------------|

3.TIME AND TIME AGAIN

Intro
eb|------------------------------------------|
Bb|------------------------------------------|
Gb|---------6-9-----------6-9-----------6-9--|
Db|-4-6-7-9-6-9---4-6-7-9?6-9---4-6-7-9-6-9--|
Ab|?4?6-7-9-4-7---4-6-7-9-4-7---4-6-7-9-4-7--|
Db|-4-6-7-9-------4-6-7-9-------4-6-7-9------|

eb|---------------------------------|
Bb|---------------------------------|
Gb|---------------------------------|
Db|-----------?---------------------|
Ab|?7?4-4-7-4-4-7-4-4-7-4-4-7-7-7-7-|
Db|---------------------------------|

Verse w/some kind of delay or echo effect
eb|----------------------------------------------------------|
Bb|----------------------------------------------------------|
Gb|----------------------------------------------------------|
Db|-----------?----------------------------------------------|
Ab|?12?9-9-12-9-9-12-9-9-12-9-9-12-9-9-12-9-9-12-9-9-12-9-9--|
Db|----------------------------------------------------------|

eb|---------------------------------------------------------|
Bb|---------------------------------------------------------|
Gb|---------------------------------------------------------|
Db|-----------?---------------------------------------------|
Ab|?11?9-9-11-9-9-11-9-9-11-9-9-11-9-9-11-9-9-11-9-9-11-9-9-|
Db|---------------------------------------------------------|

eb|---------------------------------------------------------|
Bb|---------------------------------------------------------|
Gb|---------------------------------------------------------|
Db|-----------?---------------------------------------------|
Ab|?12?9-9-12-9-9-12-9-9-12-9-9-12-9-9-12-9-9-12-9-9-12-9-9-|
Db|---------------------------------------------------------|

eb|------------------------------------------------------------------|
Bb|------------------------------------------------------------------|
Gb|----------------------------------------------------------xx-2-3--|
Db|-----------?----------------------------------------------xx-2-3--|
Ab|?11?9-9-11-9-9-11-9-9-11-9-9-11-9-9-11-9-9-11-9-9-11-9-9--xx-2-3--|
Db|------------------------------------------------------------------|

eb|---------------------------------------------------------|
Bb|---------------------------------------------------------|
Gb|---------------------------------------------------------|
Db|-----------?---------------------------------------------|
Ab|?12?9-9-12-9-9-12-9-9-12-9-9-12-9-9-12-9-9-12-9-9-12-9-9-|
Db|---------------------------------------------------------|

eb|---------------------------------------------------------|
Bb|---------------------------------------------------------|
Gb|---------------------------------------------------------|
Db|-----------?---------------------------------------------|
Ab|?11?9-9-11-9-9-11-9-9-11-9-9-11-9-9-11-9-9-11-9-9-11-9-9-|
Db|---------------------------------------------------------|

eb|---------------------------------------------------------|
Bb|---------------------------------------------------------|
Gb|---------------------------------------------------------|
Db|-----------?---------------------------------------------|
Ab|?12?9-9-12-9-9-12-9-9-12-9-9-12-9-9-12-9-9-12-9-9-12-9-9-|
Db|---------------------------------------------------------|

eb|------------------------------------------------------------------|
Bb|------------------------------------------------------------------|
Gb|----------------------------------------------------------xx-6-7--|
Db|-----------?----------------------------------------------xx-6-7--|
Ab|?11?9-9-11-9-9-11-9-9-11-9-9-11-9-9-11-9-9-11-9-9-11-9-9--xx-6-7--|
Db|------------------------------------------------------------------|

Chorus
eb|---------------------------------------------------------|
Bb|---------------------------------------------------------|
Gb|---------------------------------------------------------|
Db|-8?-8-11?-11-15-4--4-6--6----8--8-11--11-xx-15-4--4-2--2-|
Ab|?8?-8-11?-11-15-4--4-6--6----8--8-11--11-xx-15-4--4-2--2-|
Db|-8?-8-11?-11-15-4--4-6--6----8--8-11--11-xx-15-4--4-2--2-|

2nd Verse w/some kind of delay or echo effect
eb|---------------------------------------------------------|
Bb|---------------------------------------------------------|
Gb|---------------------------------------------------------|
Db|-----------?---------------------------------------------|
Ab|?12?9-9-12-9-9-12-9-9-12-9-9-12-9-9-12-9-9-12-9-9-12-9-9-|
Db|---------------------------------------------------------|

eb|---------------------------------------------------------|
Bb|---------------------------------------------------------|
Gb|---------------------------------------------------------|
Db|-----------?---------------------------------------------|
Ab|?11?9-9-11-9-9-11-9-9-11-9-9-11-9-9-11-9-9-11-9-9-11-9-9-|
Db|---------------------------------------------------------|

eb|---------------------------------------------------------|
Bb|---------------------------------------------------------|
Gb|---------------------------------------------------------|
Db|-----------?---------------------------------------------|
Ab|?12?9-9-12-9-9-12-9-9-12-9-9-12-9-9-12-9-9-12-9-9-12-9-9-|
Db|---------------------------------------------------------|

eb|-----------------------------------------------------------------|
Bb|-----------------------------------------------------------------|
Gb|----------------------------------------------------------xx-6-7-|
Db|-----------?----------------------------------------------xx-6-7-|
Ab|?11?9-9-11-9-9-11-9-9-11-9-9-11-9-9-11-9-9-11-9-9-11-9-9--xx-6-7-|
Db|-----------------------------------------------------------------|

2nd Chorus
eb|----------------------------------------------------------|
Bb|----------------------------------------------------------|
Gb|----------------------------------------------------------|
Db|-8?-8-11?-11-15-4--4-6--6----8--8-11--11-xx-15-4--4-6--6--|
Ab|?8?-8-11?-11-15-4--4-6--6----8--8-11--11-xx-15-4--4-6--6--|
Db|-8?-8-11?-11-15-4--4-6--6----8--8-11--11-xx-15-4--4-6--6--|

Bridge
eb|------------------------------------------------------|
Bb|------------------------------------------------------|
Gb|------------------------------------------------------|
Db|-4-4--4-4--4--7-7--7-7-///--0-0--0-0--0--2-2--2-2--2--|
Ab|?4?4--4-4--4--7-7--7-7-///--0-0--0-0--0--2-2--2-2--2--|
Db|-4-4--4-4--4--7-7--7-7-///--0-0--0-0--0--2-2--2-2--2--|

eb|----------------------------------------------------------|
Bb|----------------------------------------------------------|
Gb|----------------------------------------------------------|
Db|-4-4--4-4--4--7-7--7-7-///--0-0--0-0--0--2--2-2-2-2-2-2-2-|
Ab|?4-4--4-4--4--7-7--7-7-///--0-0--0-0--0--2--2-2-2-2-2-2-2-|
Db|-4-4--4-4--4--7-7--7-7-///--0-0--0-0--0--2--2-2-2-2-2-2-2-|
                                             Pm. . . . . . .
eb|------------------------------------------|
Bb|------------------------------------------|
Gb|---------6-9-----------6-9-----------6-9--|
Db|-4-6-7-9-6-9---4-6-7-9?6-9---4-6-7-9-6-9--|
Ab|?4?6-7-9-4-7---4-6-7-9-4-7---4-6-7-9-4-7--|
Db|-4-6-7-9-------4-6-7-9-------4-6-7-9------|

eb|----------------------------------|
Bb|----------------------------------|
Gb|----------------------------------|
Db|-----------?----------------------|
Ab|?7?4-4-7-4-4-7-4-4-7-4-4-7-7-7-7--|
Db|----------------------------------|

Outro
eb|----------------------------------------------------------|
Bb|----------------------------------------------------------|
Gb|----------------------------------------------------------|
Db|-8?-8-11?-11-15-4--4-6--6----8--8-11--11-xx-15-4--4-6--6--|
Ab|?8?-8-11?-11-15-4--4-6--6----8--8-11--11-xx-15-4--4-6--6--|
Db|-8?-8-11?-11-15-4--4-6--6----8--8-11--11-xx-15-4--4-6--6--|

eb|--------------------------------------------------------|
Bb|--------------------------------------------------------|
Gb|--------------------------------------------------------|
Db|-8?8--8-8--8-11-11?-11-11--15-4-4?-4-4--4--6-6--6-6--6--|
Ab|?8?8--8-8--8-11-11?-11-11--15-4-4?-4-4--4--6-6--6-6--6--|
Db|-8?8--8-8--8-11-11?-11-11--15-4-4?-4-4--4--6-6--6-6--6--|

eb|-------------------------------------------------------------|
Bb|-------------------------------------------------------------|
Gb|-------------------------------------------------------------|
Db|-8?8--8-8--8-11-11?-11-11--15-4-4?-4-4--4--2--2-2-2-2-2-2-2--|
Ab|?8?8--8-8?-8-11-11--11-11--15-4-4?-4-4--4--2--2-2-2-2-2-2-2--|
Db|-8?8--8-8?-8-11-11?-11-11--15-4-4?-4-4--4--2--2-2-2-2-2-2-2--|
                                              Pm. . . . . . .
eb|------------------------------------------|
Bb|------------------------------------------|
Gb|---------6-9-----------6-9-----------6-9--|
Db|-4-6-7-9-6-9---4-6-7-9?6-9---4-6-7-9-6-9--|
Ab|?4?6-7-9-4-7---4-6-7-9-4-7---4-6-7-9-4-7--|
Db|-4-6-7-9-------4-6-7-9-------4-6-7-9------|

eb|----------------------------------|
Bb|----------------------------------|
Gb|----------------------------------|
Db|-----------?----------------------|
Ab|?7?4-4-7-4-4-7-4-4-7-4-4-7-7-4-7--|
Db|----------------------------------|

4.WALKING THRU BARBED WIRE

Drop-D (DADGBE)

---------------------|--------------------|-----------------------------------|
---------------------|--------------------|-----------------------------------|
---------------------|---------1010101010-|---------10101010-5----------------|
-7--7--7--3-3-3-3-2--|-7--7--7-x-x-x-x-x--|-7--7--7-x-x-x-x--x----------------|
-7--7--7--3-3-3-3-2--|-7--7--7-8-8-8-8-8--|-7--7--7-8-8-8-8--3----------------|
-7--7--7--3-3-3-3-2--|-7--7--7------------|-7--7--7---------------------------|
 Intro/Chorus          (x3)                (x1)

------------------------------------------------------------------------------|
------------------------------------------------------------------------------|
------------------------------------------------------------------------------|
-x-3-3-----x-3-3-----x-3-x-2-x-3-3--x-x-x-x--x-3-3----x-3-x-5-----------------|
-x-3-3-----x-3-3-----x-3-x-2-x-3-3--x-x-x-x--x-3-3----x-3-x-5-----------------|
-x-3-3-----x-3-3-----x-3-x-2-x-3-3--x-x-x-x--x-3-3----x-3-x-5-----------------|
 Verse

------------------------------------------------------------------------------|
------------------------------------------------------------------------------|
------------------------------------------------------------------------------|
-x-7-7-7--x-5-5-5--7\-x-3-3-3--x-3-3-3-5-5-5-5-5------------------------------|
-x-7-7-7--x-5-5-5--7\-x-3-3-3--x-3-3-3-5-5-5-5-5------------------------------|
-x-7-7-7--x-5-5-5--7\-x-3-3-3--x-3-3-3-5-5-5-5-5------------------------------|
 Prechorus

------------------------------------------------------------------------------|
------------------------------------------------------------------------------|
---------------------------------5-5-5----------------------------------------|
-x-3-3-3---x-5-5-5---x-7-7-7---x-5-5-5----------------------------------------|
-x-3-3-3---x-5-5-5---x-7-7-7---x-3-3-3----------------------------------------|
-x-3-3-3---x-5-5-5---x-7-7-7---x-3-3-3----------------------------------------|
 Fill 1 (After Second Chorus)

------------------------------------------------------------------------------|
------------------------------------------------------------------------------|
------------------------------------------------------------------------------|
-7--5-7-5------5--7/10-------------------8---------8-------------8------------|
----------7--------------7--5--7--8-7-5--8--7-8-7--8--8---7-8-7--8------------|
-----------------------------------------8---------8-------------8------------|
 Bridge (Solo.. sort of) Starts at 2:04

------------------------------------------------------------------------------|
------------------------------------------------------------------------------|
-------1010101010-------17-17-17-17-17--------1010101010--------10101010-9-7--|
-7-7-7-x-x-x-x-x--7-7-7--x--x--x--x--x--7-7-7-x-x-x-x-x--7-7-7--x-x-x-x--x-x--|
-7-7-7-8-8-8-8-8--7-7-7-15-15-15-15-15--7-7-7-8-8-8-8-8--7-7-7--8-8-8-8--7-5--|
-7-7-7------------7-7-7-----------------7-7-7------------7-7-7----------------|
 (in the background of the riff above)

------------------------------------------------------------------------------|
------------------------------------------------------------------------------|
-------14-14-14-14-14--------14-14-14-14-17-14--------14-14-14-14-14----------|
-8-8-8--x--x--x--x--x--8-8-8--x--x--x--x--x-----8-8-8--x--x--x--x--x----------|
-8-8-8-12-12-12-12-12--8-8-8-12-12-12-12-15-12--8-8-8-12-12-12-12-12----------|
-8-8-8-----------------8-8-8--------------------8-8-8-------------------------|


--------------------------|---------------------------------------------------|
--------------------------|---------------------------------------------------|
-------12-12-12-12-14-12--|---------------------------------------------------|
-8-8-8--x--x--x--x--x--x--|-3-3-3--5-5-5--7-7-7--5-5-5--3-3-3-3-3-2-----------|
-8-8-8-10-10-10-10-12-10--|-3-3-3--5-5-5--7-7-7--5-5-5--3-3-3-3-3-2-----------|
-8-8-8--------------------|-3-3-3--5-5-5--7-7-7--5-5-5--3-3-3-3-3-2-----------|
                            Ending

5.DECOMPRESSION PERIOD

Drop-Db (Db, Ab, Db, Gb, Bb, Eb)

--------------------------|---------------------------------------------------|
--------------------------|---------------------------------------------------|
------3---2h3-------------|---------------------------------0-----------------|
--------------------------|--------3-5------5-7------3------------------------|
---5----5-----5-----------|------1--------3--------0-----1--------------------|
-5--------------5-4-------|--4\1--------3--------0-----1----------------------|
 Intro/Verse

-------------------------------3----------------------------------------------|
------------------------------------------------------------------------------|
------------------------3--------3--------------------------------------------|
----------------------3---3--------3-------3----x-7h8-----x-7h8---------------|
-5--6--3--5--3------1-------1------------0------x-7h8-8---x-7h8-8-------------|
-------------3----1------------------4\0--------x-7h8-0---x-7h8-0-------------|


------------------------------------------------------------------------------|
------------------------------------------------------------------------------|
------------------7-8-5-7-----------------------------------------------------|
-5--5--5-5-5-5-4--x-x-x-x-3---1-1-1-1-1-1-1-1-1-1-1-1-1-1-1-1-0-0-0-0-0-0-0-0-|
-5--5--5-5-5-5-4--5-6-3-5-3---1-1-1-1-1-1-1-1-1-1-1-1-1-1-1-1-0-0-0-0-0-0-0-0-|
-5--5--5-5-5-5-4----------3---1-1-1-1-1-1-1-1-1-1-1-1-1-1-1-1-0-0-0-0-0-0-0-0-|
 Chorus Pt. 1

------------------------------------------------------------------------------|
------------------------------------------------------------------------------|
------------------------------------------------------------------------------|
-x-7h8-0-xx-3-xx-3------------------------------------------------------------|
-x-7h8-0-xx-3-xx-3------------------------------------------------------------|
-x-7h8-0-xx-3-xx-3------------------------------------------------------------|


------------------------------------------------------------------------------|
------------------------------------------------------------------------------|
------------------------------------------------------------------------------|
-7-xxx7-xxx6-xxx6-xxx5-xxx5-xxx3-xxx0--7-xxx7-xxx10-xxx10-xxx12-xxx12-xxx-----|
-5-xxx5-xxx4-xxx4-xxx3-xxx3-xxx1-xxx0--5-xxx5-xxx8--xxx8--xxx10-xxx10-xxx-----|
-5-xxx5-xxx4-xxx4-xxx3-xxx3-xxx1-xxx0--5-xxx5-xxx8--xxx8--xxx10-xxx10-xxx-----|
 Chorus Pt. 2

------------------------------------------------------------------------------|
------------------------------------------------------------------------------|
------------------------------------------------------------------------------|
-13-13-13-13-13-13-13-13-12-12-12-12-12-12-12-12--5~~~------------------------|
-13-13-13-13-13-13-13-13-12-12-12-12-12-12-12-12--5~~~------------------------|
-13-13-13-13-13-13-13-13-12-12-12-12-12-12-12-12--5~~~------------------------|
 End of Chorus 2, right before 2nd verse.

-----------------------------------------------------------------------------------------|
-----------------------------------------------------------------------------------------|
-----------------------------------------------------------------------------------------|
-7-7777-6666-6666-5555-5555-3333-0000--7-7777-10101010-10101010-12121212-12121212-121212-|
-5-5555-4444-4444-3333-3333-1111-0000--5-5555-8-8-8-8--8-8-8-8--10101010-10101010-101010-|
-5-5555-4444-4444-3333-3333-1111-0000--5-5555-8-8-8-8--8-8-8-8--10101010-10101010-101010-|
Pre-Solo (same as chorus pt.2 without palm muting)

------------------------------------------------------------------------------|
------------------------------------------------------------------------------|
------------------------------------------------------------------------------|
-3-5-7--5--3--5----3-5-7--5--3--5----3-5-7--5--7-8-7-8-10-8--10--12v----------|
------------------------------------------------------------------------------|
------------------------------------------------------------------------------|
 Solo Pt. 1

----------13------------------------------------------------------------------|
------------------------------------------------------------------------------|
-12-15-12----15-12------------------------------------------------------------|
------------------------------------------------------------------------------|
------------------------------------------------------------------------------|
------------------------------------------------------------------------------|
 Solo Pt. 2

6.BORN WITH NOTHING, DIE WITH EVERYTHING

Intro
 --------------------------------------------|
 --------------------------------------------|
 --------------------------------------------|
 ---------5-5--------------------------------|
 -----3-3----3-3-3-6-6--6--------------------|
 -------------------------8-8-8-8------------| twice

 --------------------------------------------|
 ------5-5-----------------------------------|
 ---------------6-6--6-----------------------|
 --6-6----6-6-6--------8-8-8-8---------------|
 --------------------------------------------|
 --------------------------------------------| twice

 -----------------------------------------|
 -----------------------------------------|
 -----------------------------------------|
 -10-10--12-12--10-----13-----8-----------|
 -10-10--10-10--10-----13-----8-----------|
 -10-10---------10-x3--13-x3--8--x2-------| twice

 ------------------------------------------------|
 ------------------------------------------------|
 -----7-7----------------------------------------|
 -6-6-5-5----6-6-6-8-8------8-8-8-8-8------------|
 -6-6--------6-6-6-6-6------6-8-8-8-8------------|
 -6-6--------6-6-6------------8-8-8-8------------|

 Verse
 -----------------------------------------|
 -----------------------------------------|
 -----------------------------------------|
 -10-10--12-12--10-----13-----8-----------|
 -10-10--10-10--10-----13-----8-----------|
 -10-10---------10-x3--13-x3--8--x2-------|

 --------------------------------------|
 --------------------------------------|
 --------------------------------------|
 -6-6-5-5-6-6-5-8-8---------6-8-8-8-8--|
 -6-6-5-5-6-6-5-6-6---------6-8-8-8-8--|
 -6-6-5-5-6-6-5-6-6---------6-8-8-8-8--|

 Bridge
 -10-10-10-10-13-13-10-10--8-8--10-10--10-10--|
 -10-10-10-10-13-13-10-10--8-8--10-10--10-10--|
 -10-10-10-10-13-13-10-10--8-8--10-10--10-10--|
 ---------------------------------------------|
 ---------------------------------------------|
 ---------------------------------------------|

 -10-10--8-8-10-8--8-8-8-8-8-8-8-8-8-8-7-7-8-8-7-7-|
 -10-10--8-8-10-8--6-6-6-6-6-6-6-6-6-6-7-7-8-8-7-7-|
 -10-10--8-8-10-8--6-6-6-6-6-6-6-6-6-6-7-7-8-8-7-7-|
 --------------------------------------------------|
 --------------------------------------------------|
 --------------------------------------------------|

 -5p1-1-1-1/3-3-3----------------------|
 -3p1-1-1-1/3-3-3----------------------|
 -5p1-1-1-1/3-3-3----------------------|
 --------------------------------------|
 --------------------------------------|
 --------------------------------------|

 Chorus
 -5-5-------------------------|
 -3-3--x-8h10-x-6h8-x-5h6p5p0-|
 -5-5-------------------------|
 -----------------------------|
 -----------------------------|

 --------------------------------------|
 --------------------------------------|
 --------------------------------------|
 -6-6--------------------------repeat--|
 -6-6--x-8h10-x-6h8-x-5h6p5p0----------|
 -6-6----------------------------------|

 -----3/5-5-8-8-8----------------------|
 -5-5-x-x-x-x-x-x--1/3-3-8-------------|
 -3-3-1/3-3-6-6-6--1/3-3-8-------------|
 -5-5--------------1/3-3-8-------------|
 --------------------------------------|

 --------------------------------------|
 --------------------------------------|
 -3-3h5-3-1-1h3-1-0-0h1-0-0-0-0--------|
 --------------------------------------|
 --------------------------------------|
 --------------------------------------|

 Outro
 -----------------------------------------|
 -----------------------------------------|
 -----3/5-5-8-8-8-------------------------|
 -5-5-x-x-x-x-x-x--1/3-3-8-8-8-8-8-8-8-8--|
 -3-3-1/3-3-6-6-6--1/3-3-8-8-8-8-8-8-8-8--|
 -5-5--------------1/3-3-8-8-8-8-8-8-8-8--|

 -----------------------------------|
 -----------------------------------|
 -8-8-8-8-7-7-7-7-------------------|
 -6-6-6-6-7-7-7-7---------5--5--5---|
 -6-6-6-6-5-5-5-5---------3--3--3---|
 -------------------------5--5--5---|

7.SHE LOVES ME NOT

Intro/verse
E|---------------------------------------|
B|---------------------------------------|
G|---------------------------------------|
D|-7-7---3-3-3--0-0-0---2-2-xxx-2-2-xxx--|
A|-7-7---3-3-3--0-0-0---2-2-xxx-2-2-xxx--|
E|-5-5---1-1-1--0-0-0---0-0-xxx-0-0-xxx--|

Pre chorus
E|------------------------------------------------------------------------------|
B|------------------------------------------------------------------------------|
G|------------------------------------------------------------------------------|
D|--7-7--x222-x222----3-3--x222-x222------0-0--x222--x222-----2-2--x22--x22-----|
A|--7-7------3----3---3-3------3----3-----0-0------3-----3----2-2-----3----3----|
E|--5-5---------------1-1-----------------0-0-----------------0-0---------------|

Chorus
E|-----------------------------------------|
B|-----------------------------------------|
G|----------------------------9---------9--|
D|-3-3-3--3--5-5-5--5--7-7-7--8--7-7-7--8--|
A|-3-3-3--3--5-5-5--5--7-7-7--7--7-7-7--7--|
E|-1-1-1--1--3-3-3--3--5-5-5--5--5-5-5--5--|


bridge
E|---------------------|
B|---------------------|
G|---------------------|
D|-3-3--3-3\5-5--5-5\7-|
A|-3-3--3-3\5-5--5-5\7-|
E|-1-1--1-1\3-3--3-3\5-|

outro
E|--------------------------------------------|
B|--------------------------------------------|
G|--------------------------------------------|
D|-10-10-10--10--5-5-5--5--7-7-7-----7-7-7----|
A|-10-10-10--10--5-5-5--5--7-7-7-----7-7-7----|
E|--8--8--8---8--3-3-3--3--5-5-5-----5-5-5----|

And another guitar plays this after ^
Clean w/reverb
G|----7---------------------------|
D|----7---------------------------|
A|----5---------------------------|
E|--------------------------------|

8.SINGULAR INDESTRUCTIBLE DROID

Drop-C (CGCFAD)

------------------------------------------------------------------------------|
------------------------------------------------------------------------------|
------------------------------------------------------------------------------|
-2-2-2-2-2-2-2-2-2-2-2-2-2-2-2-2-2-2-2-2-2-2-2-2-2-2-2-2-2-2-2-2-2-2-2-2-2-2--|
------------------------------------------------------------------------------|
------------------------------------------------------------------------------|
 Intro w/ Occasional Pinch Harmonics

------------------------------------------------------------------------------|
------------------------------------------------------------------------------|
------------------------------------------------------------------------------|
------------------------------------------------------------------------------|
-10p9-7-7--9p7-5-5--7p5-3-3--5p3-2-2------------------------------------------|
------------------------------------------------------------------------------|
 End of Intro, Also   between Heavy Parts of the Bridge

------------------------------------------------------------------------------|
------------------------------------------------------------------------------|
------------------------------------------------------------------------------|
-5/7-7-7-7--7-7--7/9-9-9-9--9-9--9/10-10-10-10--10-10--10/12-12-12-12--12-12--|
-5/7-7-7-7--7-7--7/9-9-9-9--9-9--9/10-10-10-10--10-10--10/12-12-12-12--12-12--|
-5/7-7-7-7--7-7--7/9-9-9-9--9-9--9/10-10-10-10--10-10--10/12-12-12-12--12-12--|
 Pre-Chorus

------------------------------------------------------------------------------|
------------------------------------------------------------------------------|
------------------------------------------------------------------------------|
-0-2--5-2--2-5-4-5-7-5----0-2--5-2--2-5-4-5-7-5/9----0-2--5-2--2-5-4-5-7-5----|
-0-2--5-2--2-5-4-5-7-5----0-2--5-2--2-5-4-5-7-5/9----0-2--5-2--2-5-4-5-7-5----|
-0-2--5-2--2-5-4-5-7-5----0-2--5-2--2-5-4-5-7-5/9----0-2--5-2--2-5-4-5-7-5----|
 Chorus/Heavy Intro

------------------------|-----------------------------------------------------|
------------------------|-----------------------------------------------------|
------------------------|-----------------------------------------------------|
-0-2--5-2--0h2-2-x-x-x--|-----------------------------------------------------|
-0-2--5-2--0h2-2-x-x-x--|-----------------------------------------------------|
-0-2--5-2--0h2-2-x-x-x--|-2-2-2-2-2-2-2-2-2-2-2-2-2-2-2-2-5-5-5-5-5-5-5-5-5-5-|
                          Verse (All Palm Muted)

------------------------------------------------------------------------------|
------------------------------------------------------------------------------|
------------------------------------------------------------------------------|
------------------------------------------------------------------------------|
------------------------------------------------------------------------------|
-5-5-5-5-5-5-2-2-2-2-2-2-2-2-2-2-2-2-2-2-2-2-3-3-3-3-3-3-3-3-3-3-3-3-3-3-3-3--|


-----------------------------------------------|------------------------------|
-----------------------------------------------|------------------------------|
-------------------------------------5--5-5-5--|------------------------------|
-0h2-0h2-5-2-9--9-9-9----0h2-0h2-5-2-3--3-3-3--|--0-2--0-2--0-2--0-2----------|
-0h2-0h2-5-2-9--9-9-9----0h2-0h2-5-2-3--3-3-3--|--0-2--0-2--0-2--0-2----------|
-0h2-0h2-5-2-9--9-9-9----0h2-0h2-5-2-3--3-3-3--|--0-2--0-2--0-2--0-2----------|
 Bridge

----------------------------------------------|-------------------------------|
----------------------------------------------|-------------------------------|
----------------------------------------------|-7/9--7/9--7/9--7/9------------|
-0-2--0-2--0-2--0-2--0-2--0-2--0-2--0-2--0-2--|-x-x--x-x--x-x--x-x------------|
-0-2--0-2--0-2--0-2--0-2--0-2--0-2--0-2--0-2--|-5/7--5/7--5/7--5/7------------|
-0-2--0-2--0-2--0-2--0-2--0-2--0-2--0-2--0-2--|-------------------------------|
 Ending                                         Play Last Half of Ending

9.BLACK CLOUDS

Drop-Db (Db, Ab, Db, Gb, Bb, Eb)
---------------------------------|-----------------------|--------------------|
---------------------------------|---------------10-----7|--------------------|
---------------------------------|----7---9--7------7----|--------------------|
-9---9/4-------4/9-9------9/5-5--|--9---9------9------9--|-9-7h9-7h9-7h9-7h9--|
-9---9/2-------2/9-9------9/5-5--|-----------------------|--------------------|
-9---9/4-------4/9-9------9/5-5--|-----------------------|--------------------|
 Intro/Verse part 1                Verse Gtr. 2 (Clean)    Intro Siren


-----------------------------------------------------------------------------------|
--------------------------------------------------------|--------------------------|
---------7/9-7-6-7-------9-7-6-11----14-12-11-11--------|--------------------------|
-2---x-x-x/x-x-x-x--2-xx-x-x-x-x---2-x--x--x--x---------|-2-2-2-4-4-4-5-5-5-7-7-9--|
-2---x-x-5/7-5-4-5--2-xx-7-5-4-9---2-12-10-9--9---------|-2-2-2-4-4-4-5-5-5-7-7-7--|
-2---x-x------------2-xx-----------2--------------------|-2-2-2-4-4-4-5-5-5-7-7-7--|
 Verse part 2                                                   Prechorus

---------------------------------------------------------------------------|
---------------------------------------------------------------------------|
---------------------------------------------------------------------------|
-7h9-9-0-2-2-0-5-5-0-2-2---------------------------------------------------|
-7h9-9-0-2-2-0-5-5-0-2-2---------------------------------------------------|
-7h9-9-0-2-2-0-5-5-0-2-2---------------------------------------------------|
 Chorus (Confession, Depression,..)

-----5----------|------------------------------------------------------------|
-----3----------|------------------------------------------------------------|
-9---0--9---12--|------------------------------------------------------------|
-9---5--9---12--|-7h9-9-12-9-12-9-0-2-2-0-5-5-0-2-2-0------------------------|
-7------7---10--|-7h9-9-12-9-12-9-0-2-2-0-5-5-0-2-2-0------------------------|
-7------7---10--|-7h9-9-12-9-12-9-0-2-2-0-5-5-0-2-2-0------------------------|
 Bridge (Clean)    The chorus is played like this at the end


10.CODE OF ENERGY

Drop-Db (Db, Ab, Db, Gb, Bb, Eb)

------------------------------------------------------------------------------|
------------------------------------------------------------------------------|
------------------------------------------------------------------------------|
------------------------------------------------------------------------------|
---------------3p2------------------------------------------------------------|
-2-2-2-5p2-2-2-----2-2-2-2-5-2------------------------------------------------|
 Intro/Verse

------------------------------------------------------------------------------|
------------------------------------------------------------------------------|
---------------5\4------------------------------------------------------------|
-2-2-2-5p2-2-2-x-x-2-2-2-2-5-2------------------------------------------------|
-2-2-2-5p2-2-2-3\2-2-2-2-2-5-2------------------------------------------------|
-2-2-2-5p2-2-2-----2-2-2-2-5-2------------------------------------------------|
 Heavy Part

------------------------------------------------------------------------------|
------------------------------------------------------------------------------|
------------------------------------------------------------------------------|
-7-7-7-7-7-7-7-7-7-7-7-7-7-7-7-7-10-10-10-10-10-10-10-10-5-5-5-5-5-5-5-5-5----|
-7-7-7-7-7-7-7-7-7-7-7-7-7-7-7-7-10-10-10-10-10-10-10-10-5-5-5-5-5-5-5-5-5----|
-7-7-7-7-7-7-7-7-7-7-7-7-7-7-7-7-10-10-10-10-10-10-10-10-5-5-5-5-5-5-5-5-5----|
 Chorus

------------------------------------------------------------------------------|
------------------------------------------------------------------------------|
----------7-5-4-5-4-----------------------------------------------------------|
-7-7-7777-x-x-x-x-x--5--------------------------------------------------------|
-7-7-7777-5-3-2-3-2--5--------------------------------------------------------|
-7-7-7777------------5--------------------------------------------------------|
 Chorus Gtr. 2 (Backs up Coby's Lyrics)

------------------------------------------------------------------------------|
------------------------------------------------------------------------------|
------------------------------------------------------------------------------|
-5--x-x-5---5-5--x-5----------------------------------------------------------|
-3--x-x-3---3-3--x-3----------------------------------------------------------|
-3--x-x-3---3-3--x-3----------------------------------------------------------|
 Fill 1 (After Chorus, Also in Other Parts of Song)

------------------------------|------------------|----------------------------|
------------------------------|------------------|----------------------------|
------------------------------|-5-5-5-5-5-5-5-5--|-5-5-5-5-5-5-5-5-9-9-9-9-12-|
-xxxxxxxx---------------------|-x-x-x-x-x-x-x-x--|-x-x-x-x-x-x-x-x-x-x-x-x--x-|
-xxxxxxxx-3p2-----------------|-3-3-3-3-3-3-3-3--|-3-3-3-3-3-3-3-3-7-7-7-7-10-|
-xxxxxxxx-----2-2-2-2-5-2-----|------------------|----------------------------|
 Fill 2 (Before 2nd Chorus)

-----------|------------------------|-----------------------------------------|
-----------|------------------------|-----------------------------------------|
-12-12-12--|------------------------|-----------------------------------------|
--x--x--x--|-5--5--5-5--5--5--5-----|-2--2--5p2--3p2-3p2-5-5\-----------------|
-10-10-10--|-3--3--3-3--3--3--3-----|-2--2--5p2----------5-5\-----------------|
-----------|-3--3--3-3--3--3--3-----|-2--2--5p2----------5-5\-----------------|
             After Chorus 2 (1:45)

----------------------|-------------------------------------------------------|
----------------------|-------------------------------------------------------|
----------------------|-------------------------------------------------------|
-4--x-x-4---4-4--x-4--|-5--x-x-5---5-5--x-5-----------------------------------|
-2--x-x-2---2-2--x-2--|-3--x-x-3---3-3--x-3-----------------------------------|
-2--x-x-2---2-2--x-2--|-3--x-x-3---3-3--x-3-----------------------------------|
 Pre-Bridge (Similar to Fill 1)

------------------------------------------------------------------------------|
------------------------------------------------------------------------------|
------------------------------------------------------------------------------|
---------5-5-10-10-9-9-5-5-----------5-5-10-10-9-9-5-5-----------5-5-7-7------|
-----2-2-------------------------2-2-------------------------3-3--------------|
-2-2-------------------------2-2-------------------------3-3------------------|
 Bridge

------------------------------------------------------------------------------|
------------------------------------------------------------------------------|
-3333/4-4--4444/5-5-------------------9-9-9-9-9-9-9-9-7-7-7-7-5-5-5-5---------|
-xxxx-x-x--xxxx-x-x----------5-5-7-7--x-x-x-x-x-x-x-x-x-x-x-x-x-x-x-x---------|
-1111/2-2--2222/3-3------3-3----------7-7-7-7-7-7-7-7-5-5-5-5-3-3-3-3---------|
---------------------3-3------------------------------------------------------|


------------------------------------------------------------------------------|
------------------------------------------------------------------------------|
-9-9-9-9-9-9-9-9-12-12-12-12-12-12-12-12--------------------------------------|
-x-x-x-x-x-x-x-x--x--x--x--x--x--x--x--x--------------------------------------|
-7-7-7-7-7-7-7-7-10-10-10-10-10-10-10-10--------------------------------------|
------------------------------------------------------------------------------|
 Last Octaves of Bridge before Chorus

------------------------------------------------------------------------------|
------------------------------------------------------------------------------|
------------------------------------------------------------------------------|
-9-9-9-9-9-9-9-9-9-9-9-9-9-9-9-9-9-12-12-12-12-12-12-12-12-14-14-14-14-14-14--|
-9-9-9-9-9-9-9-9-9-9-9-9-9-9-9-9-9-12-12-12-12-12-12-12-12-14-14-14-14-14-14--|
-9-9-9-9-9-9-9-9-9-9-9-9-9-9-9-9-9-12-12-12-12-12-12-12-12-14-14-14-14-14-14--|
 Chorus Variation at End

--------|---------------------------------------------------------------------|
--------|---------------------------------------------------------------------|
--------|---------12-11-9-11-9-7----------------------------------------------|
-14-14--|-9-9-999--x--x-x--x-x-x----------------------------------------------|
-14-14--|-9-9-999-10--9-7--9-7-5----------------------------------------------|
-14-14--|-9-9-999-------------------------------------------------------------|
          Chorus Variation Gtr. 2

11.LOVEHATETRAGEDY

Drop-Db (Db, Ab, Db, Gb, Bb, Eb)

------------------------------------------------------------------------------|
------------------------------------------------------------------------------|
----------12-------9------9h11p9--------------11------------------------------|
----10-------10------------------13-----9-------------------------------------|
------------------------------------9-----9-----------------------------------|
-10----10-------10--------------------9-----9---------------------------------|
 Intro and Bridge Gtr. 1

-----------------------|------------------------------------------------------|
-----------------------|------------------------------------------------------|
-----------------------|------------------------------------------------------|
-7-7---7-7---2-2--5-5--|-10p9-10p9-10p9-10p9----------------------------------|
-7-7---7-7---2-2--5-5--|------------------------------------------------------|
-7-7---7-7---2-2--5-5--|------------------------------------------------------|
 Fill 1 (Used to transition into both verses) ^ Siren Effect in Background

-------------------------------------------------------------------------------|
-------0-0---------0-0---------------------0-0---------------------------------|
-------5-5\2-------5-5\2-------0-0-0-------5-5\2-------------------------------|
-7-7-7-------7-7-7-------2-2-2-------5-5-5-------------------------------------|
-7-7-7-------7-7-7-------2-2-2-------5-5-5-------------------------------------|
-7-7-7-------7-7-7-------2-2-2-------5-5-5-------------------------------------|
 Verse       -PM--       -PM--       -PM---------------------------------------|

-------------------------------------------------------------------------------|
-------0-0---------0-0---------0-0---------0-0---------------------------------|
-------5-5\2-------5-5\2-------4-4\2-------2-2p0-------------------------------|
-7-7-7-------7-7-7-------2-2-2-------5-5-5-------------------------------------|
-7-7-7-------7-7-7-------2-2-2-------5-5-5-------------------------------------|
-7-7-7-------7-7-7-------2-2-2-------5-5-5-------------------------------------|
 -PM--       -PM--       -PM---------------------------------------------------|

------------------------------------------------------------------------------|
------------------------------------------------------------------------------|
-9---11----12----14-----------------------------------------------------------|
-7----9----10----12-----------------------------------------------------------|
-7----9----10----12-----------------------------------------------------------|
-7----9----10----12-----------------------------------------------------------|
 Prechorus

-------------------------------------------------------------|----------------|
-------------------------------------------------------------|----------------|
-12-12-12-12-12-12-9-9-9-9-9-9-8-8-8-8-8-8-11-11-11-11-11-11-|-14-14-14-14----|
--x--x--x--x--x--x-x-x-x-x-x-x-x-x-x-x-x-x--x--x--x--x--x--x-|--x--x--x--x----|
-10-10-10-10-10-10-7-7-7-7-7-7-6-6-6-6-6-6--9--9--9--9--9--9-|-12-12-12-12----|
-------------------------------------------------------------|----------------|
 Chorus (Traagggeeddyyyyy)                                    Chorus End^

------------------------------------------------------------------------------|
------------------------------------------------------------------------------|
------------------------------------------------------------------------------|
------------------------------------------------------------------------------|
------------------------------------------------------------------------------|
-7-5-7-5-7-5--2-0-2-0-2-0--5-2-5-2-5-2--7-5-7-5-7-5--9-7-9-7-9-7--10-9-10-9---|
 Heavy Bridge  (After 2 times play the Power Chorus of these notes)

-------------------------|----------------------------------------------------|
-------------------------|----------------------------------------------------|
-------------------------|----------------------------------------------------|
-------------------------|-12-12-12-12-12-12-12-12----------------------------|
-------------------------|-12-12-12-12-12-12-12-12----------------------------|
-10-9--12-10-12-10-12-10-|-12-12-12-12-12-12-12-12----------------------------|
                           End this Riff like this

--------------------------------------------------------------|-17\-17\-17\---|
--------------------------------------------------------------|---------------|
--------5/9---9h11p9---------11------14---16-12----8---14--16-|---------------|
---------------------9----------------------------------------|---------------|
---------------------------9----------------------------------|---------------|
-10-----------------------------------------------------------|---------------|
 Slow Bridge (Intro riff with this Gtr 2 Riff)                 In background^

-----x-x-x-x-----x-x-x-x-----x-x-x-x------------------------------------------|
-----x-x-x-x-----x-x-x-x-----x-x-x-x------------------------------------------|
-----x-x-x-x-----x-x-x-x-----x-x-x-x------------------------------------------|
-7-7-x-x-x-x-7-7-x-x-x-x-2-2-x-x-x-x-5-5--------------------------------------|
-7-7-x-x-x-x-7-7-x-x-x-x-2-2-x-x-x-x-5-5--------------------------------------|
-7-7-x-x-x-x-7-7-x-x-x-x-2-2-x-x-x-x-5-5--------------------------------------|
 Ending (TRA GE DY DAY)

12.GOUGE AWAY

Drop-Db (Db, Ab, Db, Gb, Bb, Eb)

------------------------------|-----------------------|
------------------------------|--------10b-10--10-12--|
------------------------------|----6------------------|
-7-7-7-7-7-7-7-7-7-7-7-7-7-7--|--7--------------------|
------------------------------|-----------------------|
------------------------------|-----------------------|
 Intro (0:09) PM--------------------------------------|     Prechorus

------------------------------------------------------------------------------|
------------------------------------------------------------------------------|
------------------------------------------------------------------------------|
-7-7-7-7-7-7-7-7-10-10-10-10-10-10-10-10-3-3-3-3-3-3-3-3-7--7--7--7--7--7--7--|
-7-7-7-7-7-7-7-7-10-10-10-10-10-10-10-10-3-3-3-3-3-3-3-3-7--7--7--7--7--7--7--|
-7-7-7-7-7-7-7-7-10-10-10-10-10-10-10-10-3-3-3-3-3-3-3-3-7--7--7--7--7--7--7--|
 Chorus

------------------------------------------------------------------------------|
------------------------------------------------------------------------------|
------------------------------------------------------------------------------|
-7-5-5-5-5-5-5-5-5------------------------------------------------------------|
-7-3-3-3-3-3-3-3-3------------------------------------------------------------|
-7-3-3-3-3-3-3-3-3------------------------------------------------------------|

13.NEVER SAID IT

Drop-Db (Db, Ab, Db, Gb, Bb, Eb)

------------------------------------------------------------------------------|
------------------------------------------------------------------------------|
------------------------------------------------------------------------------|
-8-8------0-0-0------8-8-8------0-0-0-----------------------------------------|
-8-8------0-0-0------8-8-8------0-0-0-----------------------------------------|
-8-8------0-0-0------8-8-8------0-0-0-----------------------------------------|
 Intro    P.M--                 P.M ^ Let Note Ring Out Muted

---------------------|--------------------------------------------------------|
---------------------|--------------------------------------------------------|
-10p9-10p9-10p9-10p9-|---------------------9/10\9\7---------------------------|
---------------------|-0-3-0-2h3-2--8-8----x--x-x-x---------------------------|
---------------------|-0-3-0-2h3-2--8-8--x-7/-8\7\5---------------------------|
---------------------|-0-3-0-2h3-2--8-8--x------------------------------------|
 Siren Noise in BG     Verse

---------------------------|--------------------------------------------------|
---------------------------|--------------------------------------------------|
----------------7---7/9/10-|--------------------------------------5/7-7/9-10--|
-8-8-8-3-3-0--x-x-x-x-x-x--|-5--5-5-x-3--3-3-x-8--8-8-x-0--0-0--x-x-x-x-x--x--|
-8-8-8-3-3-0--x-5-x-5/7/8--|-5--5-5-x-3--3-3-x-8--8-8-x-0--0-0--x-3/5-5/7--8--|
-8-8-8-3-3-0--x---x--------|-5--5-5-x-3--3-3-x-8--8-8-x-0--0-0--x-------------|
 Pre-Chorus                  Chorus

------------------------------------------------------------------------------|
------------------------------------------------------------------------------|
------------------------7-----9-----10\7-----------------7-7-x-10--10-10-10---|
-8------5------3------0-x-0-0-x-0-0--x-x--/8-8-8-8-8-8-8-7-7-x-10--10-10-10---|
-8------5------3------0-5-0-0-7-0-0--8\5--/8-8-8-8-8-8-8-5-5-x--8---8--8--8---|
-8------5------3------0---0-0---0-0-------/8-8-8-8-8-8-8----------------------|
 Bridge          P.M. -   - -   - -

--------------------------------|---------------------------------------------|
--------------------------------|---------------------------------------------|
----------------5-5-x-7--7-7-7--|---------------------------------------------|
-/8-8-8-8-8-8-8-5-5-x-7--7-7-7--|-8-8----0-0-0-0------------------------------|
-/8-8-8-8-8-8-8-3-3-x-5--5-5-5--|-8-8----0-0-0-0------------------------------|
-/8-8-8-8-8-8-8-----------------|-8-8----0-0-0-0------------------------------|
                                  Ending PM-

Better luck next time Papa Roach!!!!
comments
print report bad tab
6 comments total. Showing first comments.
0 reply
old-wise-one wrote on December 7 2004, 12:00 am

great tab-good work!.......and it has the only m-80 tab on the site!

0 reply
Bebbi wrote on August 23 2006, 02:07 pm

good work but she loves me not is tuned a whole step down...

0 reply
RockMusicFan wrote on December 5 2006, 11:17 pm

It doesn't say it's tuned a whole step down. But it should probably be in drop-d

I want to post or [tab]
guest
You may want to rate the tab now too:
select rating
Please do not post tabs as comments. Select "correction" instead!