Oops, an error
Loading. Please wait.

Metamorphosis Tab

8,947 views 9 this week
1 commentread comment
1 2 3 4 5
worth learning
x 6
Autoscroll
+/-
esc
set tempo
stop
Contributor
WARNING: You are trying to view
                                    content from Ultimate-Guitar.com
                                    in an unauthorized application,
                                    which is prohibited.

                                    Please use an official Ultimate
                                    Guitar Tabs application for iPhone,
                                    iPad or Android to access legitimate
                                    chords, guitar, bass, and drum tabs
                                    from Ultimate-Guitar.com database.

                                    Type "ultimate guitar tabs" in Apple
                                    App Store's or Android Market's
                                    search to find the application.
I would like to first start out by saying that I DID NOT take part in owning any of these tabs!

Track Listing:
1. Days of War - guitartiger
2. Change or Die - guitartiger
3. Hollywood Whore - Knightmare444
4. I Almost Told You That I Loved You - guitartiger
5. Lifeline - Edm RockJunkie
6. Had Enough - Unregistered
7. Live This Down (Intro) - Ryanuofm86
8. March Out Of The Darkness - Patrick3030150
9. Into The Light - Papamaxofficial
10. Carry Me - unique-x-life
11. Nights Of Love (COMING SOON!)
12. State Of Emergency - PRSammy333

===========================================================================

guitartiger - Days of War
                  - Change or Die
Intro:

(Opens with feedback in the key of f#)

e|---------------------------|
B|---------------------------|
G|---------------------------|
D|--4---2--------------------|
A|--4---2--------------------|
D|--4---2--------------------|X2 

e|---------------------------|---------------------------|
B|---------------------------|---------------------------|
G|---------------------------|---------------------------|
D|--4----4----4----4----4----|-4----4----4---------------|
A|--4----4----4----4----4----|-4----4----4---------------|
D|--4-X3-4-X5-4-X5-4-X5-4-X5-|-4-X5-4-X5-4-X8------------|

Guitar 1 (Rhythm):

e|---------------------------|---------------------------|
B|---------------------------|---------------------------|
G|---------------------------|---------------------------|
D|--4----4----4----4----4----|-4----4----4----4----4-----|
A|--4----4----4----4----4----|-4----4----4----4----4-----|
D|--4-X3-4-X5-4-X5-4-X5-4-X5-|-4-X5-4-X5-4-X5-4-X5-4-X5--|

e|---------------------------|---------------------------|
B|---------------------------|---------------------------|
G|---------------------------|---------------------------|
D|--4-----0----0----0----0---|-0----0----0----0----------|
A|--4-----0----0----0----0---|-0----0----0----0----------|
D|--4-X5--0-X3-0-X5-0-X5-0-X5|-0-X5-0-X5-0-X5-0-X5-------|

e|---------------------------|---------------------------|
B|---------------------------|---------------------------|
G|---------------------------|---------------------------|
D|--4----4----4----4----4----|-4----4----4---------------|
A|--4----4----4----4----4----|-4----4----4---------------|
D|--4-X3-4-X5-4-X5-4-X5-4-X5-|-4-X5-4-X5-4-X5------------|


e|---------------------------|---------------------------|
B|---------------------------|---------------------------|
G|---------------------------|---------------------------|
D|--------0----0----0----0---|-0----0----0----0----------|
A|--------0----0----0----0---|-0----0----0----0----------|
D|--------0-X3-0-X5-0-X5-0-X5|-0-X5-0-X5-0-X5-0-X5-------|

e|---------------------------|---------------------------|
B|---------------------------|---------------------------|
G|---------------------------|---------------------------|
D|--4----4----4----4----4----|-4----4----4---------------|
A|--4----4----4----4----4----|-4----4----4---------------|
D|--4-X3-4-X5-4-X5-4-X5-4-X5-|-4-X5-4-X5-4-X8------------|

Guitar 2 (Lead):

e|---------------------------|---------------------------|
B|---------------------------|---------------------------|
G|--11---14----13----16------|-14----18----16----19------|
D|---------------------------|---------------------------|
A|--9-X6-12-X6-11-X6-14-X6---|-12-X6-16-X6-14-X6-17-X6---|
D|---------------------------|---------------------------|

e|---------------------------|---------------------------|
B|---------------------------|---------------------------|
G|--18-----7----9----11------|-13----14----16----18------|
D|---------------------------|---------------------------|
A|--16-X24-5-X6-7-X6-9-X6----|-11-X6-12-X6-14-X6-16-X6---|
D|---------------------------|---------------------------|

e|---------------------------|---------------------------|
B|---------------------------|---------------------------|
G|--19----18-----16----14----|-13----14----13----11------|
D|---------------------------|---------------------------|
A|--17-X6-16-X54-14-X6-12-X6-|-11-X6-12-X6-11-X6-9-X6----|
D|---------------------------|---------------------------|

e|---------------------------|---------------------------|
B|---------------------------|---------------------------|
G|--9----6----6----6----6----|-6----6----6----6----------|
D|---------------------------|---------------------------|
A|--7-X6-4-X3-4-X5-4-X5-4-X5-|-4-X5-4-X5-4-X5-4-X8-------|
D|---------------------------|---------------------------|

End!!

===========================================================================

Change or Die

I know this doesn't necessarily need to b tuned to drop d, however, their guitarist likes 
to always tune to drop d, plus this song is lead in by the first track on the record, days of 
war, which is in drop d, thats y i tabbed it this way.


Intro/Main Riff:

Guitar 2 (Lead):

e|---------------------------|---------------------------|
B|---------------------------|---------------------------|
G|---------------------------|-----------------------2---|
D|--4-4-4-2-4-4-4-2-4-4-4-4-4|------4-4-4-2-4-4-4-2-4-4-2|
A|---------------------------|-0-0-0---------------------|
D|---------------------------|---------------------------|

e|---------------------------|---------------------------|
B|---------------------------|---------------------------|
G|---------------------------|---------------------------|
D|--4-----4-4-4-2-4-4-4-2-4-4|-4-4-4-----4-4-4-2-4-4-4-2-|
A|---2-2-2-------------------|------0-0-0----------------|
D|---------------------------|---------------------------|

e|---------------------------|
B|---------------------------|
G|---2-----------------------|
D|--4-4-2-4------------------|
A|---------------------------|
D|---------------------------|

Guitar 1 (Rhythm):

e|---------------------------|---------------------------|
B|---------------------------|---------------------------|
G|---------------------------|---------------------------|
D|--4-4-4-2-4-4-4-2-4-4-4-4-4|-2-2-2-4-4-4-2-4-4-4-2-4-4-|
A|--4-4-4-2-4-4-4-2-4-4-4-4-4|-0-0-0-4-4-4-2-4-4-4-2-4-4-|
D|--4-4-4-2-4-4-4-2-4-4-4-4-4|-------4-4-4-2-4-4-4-2-4-4-|

e|---------------------------|
B|---------------------------|
G|--------4-4-4--------------|
D|--4-4-4-4-4-4--------------|
A|--4-4-4-2-2-2--------------|
D|--4-4-4--------------------|X2

Verse:

e|---------------------------|
B|---------------------------|
G|---------------------------|
D|--4-4--2-4-4---------------|
A|--4-4--2-4-4---------------|
D|--4-4--2-4-4---------------|X4 slide/

Main Riff:

e|---------------------------|---------------------------|
B|---------------------------|---------------------------|
G|---------------------------|-----------------------2---|
D|--4-4-4-2-4-4-4-2-4-4-4-4-4|------4-4-4-2-4-4-4-2-4-4-2|
A|---------------------------|-0-0-0---------------------|
D|---------------------------|---------------------------|

e|---------------------------|---------------------------|
B|---------------------------|---------------------------|
G|---------------------------|---------------------------|
D|--4-----4-4-4-2-4-4-4-2-4-4|-4-4-4-----4-4-4-2-4-4-4-2-|
A|---2-2-2-------------------|------0-0-0----------------|
D|---------------------------|---------------------------|

e|---------------------------|
B|---------------------------|
G|---2-----------------------|
D|--4-4-2-4-2-4--------------|
A|---------------------------|
D|---------------------------|

Chorus:

e|---------------------------|---------------------------|
B|---------------------------|---------------------------|
G|--7--2---4----4----4----4--|-7--2----------------------|
D|--7--2---4--2-4--2-4--2-4--|-7--2---4----2-4----2-4-2-4|
A|--5--0---2--0-2--0-2--0-2--|-5--0---4----2-4----2-4-0-4|
D|---X8-X8--X3---X3---X3---X3|--X8-X8-4-X3-2-4-X3-2-4---4|

e|---------------------------|
B|---------------------------|
G|---------------------------|
D|--2-4----------------------|
A|--2-4----------------------|
D|--2-4-X3-------------------|X2

Verse:

Guitar 1:
e|---------------------------|
B|---------------------------|
G|---------------------------|
D|--4-4--2-4-4---------------|
A|--4-4--2-4-4---------------|
D|--4-4--2-4-4---------------|X4

Guitar 2:
e|---------------------------|
B|-----------.---------------|
G|-9h11-9h11-11--------------|
D|-------------X8------------|
A|---------------------------|
E|---------------------------|X4

Main Riff:
e|---------------------------|---------------------------|
B|---------------------------|---------------------------|
G|---------------------------|-----------------------2---|
D|--4-4-4-2-4-4-4-2-4-4-4-4-4|------4-4-4-2-4-4-4-2-4-4-2|
A|---------------------------|-0-0-0---------------------|
D|---------------------------|---------------------------|

e|---------------------------|---------------------------|
B|---------------------------|---------------------------|
G|---------------------------|---------------------------|
D|--4-----4-4-4-2-4-4-4-2-4-4|-4-4-4-----4-4-4-2-4-4-4---|
A|---2-2-2-------------------|------0-0-0----------------|
D|---------------------------|---------------------------|slide/


Chorus:

e|---------------------------|---------------------------|
B|---------------------------|---------------------------|
G|--7--2---4----4----4----4--|-7--2----------------------|
D|--7--2---4--2-4--2-4--2-4--|-7--2---4----2-4----2-4-2-4|
A|--5--0---2--0-2--0-2--0-2--|-5--0---4----2-4----2-4-0-4|
D|---X8-X8--X3---X3---X3---X3|--X8-X8-4-X3-2-4-X3-2-4---4|

e|---------------------------|
B|---------------------------|
G|---------------------------|
D|--2-4----------------------|
A|--2-4----------------------|
D|--2-4-X3-------------------|X2

Bridge:

Guitar 1:
e|---------------------------|
B|---------------------------|
G|---------------------------|
D|--4-4--4-4-4---------------|
A|--4-4--4-4-4---------------|
D|--4-4--4-4-4---------------|X4

Guitar 2:
e|--2------------5--9--------|
B|--5b-bass line-8b-12b-X4---|
G|---------------------------|
D|---------------------------|
A|---------------------------|
D|---------------------------|

Breakdown:
e|---------------------------|
B|---------------------------|
G|---------------------------|
D|--2-2-2-4------------------|
A|--2-2-2-4------------------|
D|--2-2-2-4------------------|X4

Solo:

Guitar 1:

e|---------------------------|---------------------------|
B|---------------------------|---------------------------|
G|---------------------------|---------------------------|
D|--4-4-4-2-4-4-4-2-4-4-4-4-4|-2-2-2-4-4-4-2-4-4-4-2-4-4-|
A|--4-4-4-2-4-4-4-2-4-4-4-4-4|-0-0-0-4-4-4-2-4-4-4-2-4-4-|
D|--4-4-4-2-4-4-4-2-4-4-4-4-4|-------4-4-4-2-4-4-4-2-4-4-|

e|---------------------------|
B|---------------------------|
G|--------4-4-4--------------|
D|--4-4-4-4-4-4--------------|
A|--4-4-4-2-2-2--------------|
D|--4-4-4--------------------|X2

Guitar 2:

e|--2--2--4--4---------------|9------------12-5--5--7----|
B|--5b-5b-7b-7b--9-10-9-7-7-9|-9-10-9-7-7-9---8b-8b-10b--|
G|-----------------------9---|---------9-----------------|
D|---------------------------|---------------------------|
A|---------------------------|---------------------------|
D|---------------------------|---------------------------|

e|--7---9--------------------|
B|--10b-12b-X6---------------|
G|---------------------------|
D|---------------------------|
A|---------------------------|
D|---------------------------|

Chorus:

e|---------------------------|---------------------------|
B|---------------------------|---------------------------|
G|--7--2---4----4----4----4--|-7--2----------------------|
D|--7--2---4--2-4--2-4--2-4--|-7--2---4----2-4----2-4-2-4|
A|--5--0---2--0-2--0-2--0-2--|-5--0---4----2-4----2-4-0-4|
D|---X8-X8--X3---X3---X3---X3|--X8-X8-4-X3-2-4-X3-2-4---4|

e|---------------------------|
B|---------------------------|
G|---------------------------|
D|--2-4----------------------|
A|--2-4----------------------|
D|--2-4-X3-------------------|X2

Outro:
e|---------------------------|---------------------------|
B|---------------------------|---------------------------|
G|---------------------------|-------------5-------------|
D|----------------------2----|-------------8b------------|
A|--4-4-2-4-4-2-4-4-2-4-0-4-2|-4-4-2-4-4-2---------------|
D|--4-4-2-4-4-2-4-4-2-4---4-2|-4-4-2-4-4-2---------------|

e|---------------------------|---------------------------|
B|---------------------------|---------------------------|
G|---------------------------|---------------------------|
D|----------------------2----|---------------------------|
A|--4-4-2-4-4-2-4-4-2-4-0-4-2|-4-4-2-4-4-2-4-4-----------|
D|--4-4-2-4-4-2-4-4-2-4---4-2|-4-4-2-4-4-2-4-4-----------|


End!!

/  - slide up and down to
b  - Bend
() - Natural harmonics
*  - Pinch harmonics
h  - Hammer
p  - Pull off
"  - Tremolo Picking
x  - Mute
===========================================================================

Knightmare444 - Hollywood Whore

Tuning: Drop D 

LEGEND
-------
-------

b^ - bend up
bv - bend down
\ - slide down
/ - slide up
h - hammer on
p - pull off


INTRO:

|---------3-----------------------------------------------------3------|
|----4-------------4----6-------4-----6---------6--4-------------------|
|-5-----5-------4----4-------3-----3---------5---------------4---------|
|-----------------------------------------6---------------5------------|
|----------------------------------------------------------------------|
|----------------------------------------------------------------------|

|-------------------------------------|-------------------------------------|
|-------------------------------------|-------------------------------------|
|-5-5---5h7-5h7-8-7-5h7-5h7-5h7-8-7-5-|-4-4---4h5-4h5-8-5-4h5-4h5-4h5-8-5-4-|
|-5-5---------------------------------|-4-4---------------------------------|
|-3-3---------------------------------|-2-2---------------------------------|
|-------------------------------------|-------------------------------------|

|-------------------------------------|-------------------------------------|
|-------------------------------------|-------------------------------------|
|-5-5---5h7-5h7-8-7-5h7-5h7-5h7-8-7-5-|-4-4---4h5-4h5-8-5-4h5-4h5-4h5-8-5-4-|
|-5-5---------------------------------|-4-4---------------------------------|
|-3-3---------------------------------|-2-2---------------------------------|
|-------------------------------------|-------------------------------------|


VERSE:

|--------------------|-------------------|
|--------------------|-------------------|
|-5-5------x-x--4-4--|---5-5--------4-4--|
|-5-5------x-x--4-4--|---5-5--------4-4--|
|-3-3------x-x--2-2--|---2-2--------2-2--|
|--------------------|-------------------|   


|-------------------|-------------------|
|-------------------|-------------------|
|---5-5--------4-4--|---5-5--------4-4--|
|---5-5--------4-4--|---5-5--------4-4--|
|---3-3--------2-2--|---2-2--------2-2--|
|-------------------|-------------------|  


PRE-CHORUS:

|---------------|---------------|-----------------------------|
|--------8b^----|---------------|-----------------------------|
|---------------|--------10bv---|-----------------------------|
|-6-6-----------|-6-6-----------|-5-5-------------------------|
|-6-6-----------|-6-6-----------|-5-5-5-5-5-5-6-6-6-6-8-8-8-8-|
|-6-6-----------|-6-6-----------|-5-5-------------------------|


CHORUS:

|----------------------------------------------------------|
|----------------------------------------------------------|
|-555555555555---------------------------------------------|
|-555555555555--555555555555--6666666666666--333333-555555-|
|-333333333333--555555555555--6666666666666--333333-555555-|
|---------------555555555555--6666666666666--333333-555555-|

|----------------------------------------------------------|
|----------------------------------------------------------|
|-555555555555---------------------------------------------|
|-555555555555--555555555555--6666666666666--333333-555555-|
|-333333333333--555555555555--6666666666666--333333-555555-|
|---------------555555555555--6666666666666--333333-555555-|
 

INTRO(AGAIN):

|-------------------------------------|-------------------------------------|
|-------------------------------------|-------------------------------------|
|-5-5---5-7-5-7-8-7-5-7-5-7-5-7-8-7-5-|-4-4---4-5-4-5-8-5-4-5-4-5-4-5-8-5-4-|
|-5-5---------------------------------|-4-4---------------------------------|
|-3-3---------------------------------|-2-2---------------------------------|
|-------------------------------------|-------------------------------------|

|-------------------------------------|-------------------------------------|
|-------------------------------------|-------------------------------------|
|-5-5---5-7-5-7-8-7-5-7-5-7-5-7-8-7-5-|-4-4---4-5-4-5-8-5-4-5-4-5-4-5-8-5-4-|
|-5-5---------------------------------|-4-4---------------------------------|
|-3-3---------------------------------|-2-2---------------------------------|
|-------------------------------------|-------------------------------------|


VERSE:

|--------------------|-------------------|
|--------------------|-------------------|
|-5-5------x-x--4-4--|---5-5--------4-4--|
|-5-5------x-x--4-4--|---5-5--------4-4--|
|-3-3------x-x--2-2--|---2-2--------2-2--|
|--------------------|-------------------|   


|-------------------|-----------------------|
|-------------------|-----------------------|
|---5-5--------4-4--|---5-5--------4-4------|
|---5-5--------4-4--|---5-5--------4-4------|
|---3-3--------2-2--|---2-2--------2-2------|
|-------------------|--------------------1/15\|  


PRE-CHORUS:

|---------------|---------------|-----------------------------|
|--------8b^----|---------------|-----------------------------|
|---------------|--------10bv---|-----------------------------|
|-6-6-----------|-6-6-----------|-5-5-------------------------|
|-6-6-----------|-6-6-----------|-5-5-5-5-5-5-6-6-6-6-8-8-8-8-|
|-6-6-----------|-6-6-----------|-5-5-------------------------|


CHORUS:

|----------------------------------------------------------|
|----------------------------------------------------------|
|-555555555555---------------------------------------------|
|-555555555555--555555555555--6666666666666--333333-555555-|
|-333333333333--555555555555--6666666666666--333333-555555-|
|---------------555555555555--6666666666666--333333-555555-|

|----------------------------------------------------------|
|----------------------------------------------------------|
|-555555555555---------------------------------------------|
|-555555555555--555555555555--6666666666666--333333-555555-|
|-333333333333--555555555555--6666666666666--333333-555555-|
|---------------555555555555--6666666666666--333333-555555-|
 

INTERLUDE/BRIDGE:

|--------------------|--------------------|
|--------------------|--------------------|
|-88888888-----------|-88888888-----------|
|-88888888--55555555-|-88888888--55555555-|
|-66666666--55555555-|-66666666--55555555-|
|-----------55555555-|-----------55555555-|

|--------------------|--------------------|
|--------------------|--------------------|
|----------5555/3333-|----------5555/3333-|
|-66666666-5555/3333-|-66666666-5555/3333-|
|-66666666-3333/1111-|-66666666-3333/1111-|
|-66666666-----------|-66666666-----------|

|--------------------|
|--------------------|
|--------------------|
|-66666666-5555-3333-|
|-66666666-5555-3333-|
|-66666666-5555-3333-|
 
|---------3-----------------------------------------------------3------|
|----4-------------4----6-------4-----6---------6--4-------------------|
|-5-----5-------4----4-------3-----3---------5---------------4---------|
|-----------------------------------------6---------------5------------|
|----------------------------------------------------------------------|
|----------------------------------------------------------------------|

|---------3-----------------------------------------------------3------|
|----4-------------4----6-------4-----6---------6--4-------------------|
|-5-----5-------4----4-------3-----3---------5---------------4---------|
|-----------------------------------------6---------------5------------|
|----------------------------------------------------------------------|
|----------------------------------------------------------------------|

|---------3-----3------------------------------------------------------|
|----4------4-----4--------4---6--4---6--4------4---6--4---6--4--------|
|-5-----5-----5----------4---4------4---------3---3------3-------------|
|----------------------------------------------------------------------|
|----------------------------------------------------------------------|
|----------------------------------------------------------------------|


CHORUS:

|----------------------------------------------------------|
|----------------------------------------------------------|
|-555555555555---------------------------------------------|
|-555555555555--555555555555--6666666666666--333333-555555-|
|-333333333333--555555555555--6666666666666--333333-555555-|
|---------------555555555555--6666666666666--333333-555555-|

|----------------------------------------------------------|
|----------------------------------------------------------|
|-555555555555---------------------------------------------|
|-555555555555--555555555555--6666666666666--333333-555555-|
|-333333333333--555555555555--6666666666666--333333-555555-|
|---------------555555555555--6666666666666--333333-555555-|


OUTRO:

|--------------------------------------------------------------------|
|--------------------------------------------------------------------|
|-5-5-5-5-5-5-5-5----------------------------------------------------|
|-5-5-5-5-5-5-5-5--5-5-5-5-5-5-5-5--6-6-6-6-6-6-6-6--3-3-3-3-5-5-5-5-|
|-3-3-3-3-3-3-3-3--5-5-5-5-5-5-5-5--6-6-6-6-6-6-6-6--3-3-3-3-5-5-5-5-|
|------------------5-5-5-5-5-5-5-5--6-6-6-6-6-6-6-6--3-3-3-3-5-5-5-5-|

|---------------------------------------------------------------|
|---------------------------------------------------------------|
|-5-5-5-5-5-5-5-5-----------------------------------------------|
|-5-5-5-5-5-5-5-5--5-5-5-5-5-5-5-5--6-6-6-6-6-6-6-6--3--3--5--5-|
|-3-3-3-3-3-3-3-3--5-5-5-5-5-5-5-5--6-6-6-6-6-6-6-6--3--3--5--5-|
|------------------5-5-5-5-5-5-5-5--6-6-6-6-6-6-6-6--3--3--5--5-|

|-------------------------------------|-------------------------------------|
|-------------------------------------|-------------------------------------|
|-5-5---5h7-5h7-8-7-5h7-5h7-5h7-8-7-5-|-4-4---4h5-4h5-8-5-4h5-4h5-4h5-8-5-4-|
|-5-5---------------------------------|-4-4---------------------------------|
|-3-3---------------------------------|-2-2---------------------------------|
|-------------------------------------|-------------------------------------|

|-------------------------------------|------------------------------------------|
|-------------------------------------|------------------------------------------|
|-5-5---5h7-5h7-8-7-5h7-5h7-5h7-8-7-5-|-4-4---4h5-4h5-8-5-4h5-4h5-4h5-8-5-4--5-5-|
|-5-5---------------------------------|-4-4----------------------------------5-5-|
|-3-3---------------------------------|-2-2----------------------------------3-3-|
|-------------------------------------|------------------------------------------|

===========================================================================

guitartiger - I Almost Told You That I Loved You

Intro/Main Riff:

Guitar 1 (Rhythm)
e|---------------------------|
B|---------------------------|
G|---------------------------|
D|--2----0-------------------|
A|--2----0-------------------|
D|--2----0-------------------|X4 (4th time don't play the d)

Guitar 2 (Lead)
e|---------------------------|
B|---------------------------|
G|---------------------------|
D|--7-5-5---7h9h7-5-5h7h5-5--|
A|-----7--7------------------|
D|---------------------------|X8


Verse:

e|---------------------------|---------------------------|
B|---------------------------|---------------------------|
G|----9\---9\---9\---10\--7\-|---7\---7\---10\-----------|
D|---------------------------|---------------------------|
A|--2-7\-2-7\-2-7\-2-8\-0-5\-|-0-5\-0-5\-0-8\------------|
D|--2----2----2----2----0----|-0----0----0---------------|

e|---------------------------|---------------------------|
B|---------------------------|---------------------------|
G|----9\---9\---9\---10\--7\-|---7\---7\---/10--10-------|
D|---------------------------|---------------------------|
A|--2-7\-2-7\-2-7\-2-8\-0-5\-|-0-5\-0-5\-0-/8---8--------|
D|--2----2----2----2----0----|-0----0----0---------------|

Chorus:

e|---------------------------|---------------------------|
B|---------------------------|---------------------------|
G|---------------------------|---------------------------|
D|---------------5-5-5--5-5-5|---------------------------|
A|--2-2-2--2-2-2-3-3-3--3-3-3|5-5-5--5-5-5--1-1-1--1-1-1-|
D|--2-2-2--2-2-2-------------|5-5-5--5-5-5--1-1-1--1-1-1-|


e|---------------------------|---------------------------|
B|---------------------------|---------------------------|
G|---------------------------|---------------------------|
D|---------------5-5-5--5-5-5|---------------------------|
A|--2-2-2--2-2-2-3-3-3--3-3-3|5-5-5--5-5-5---------------|
D|--2-2-2--2-2-2-------------|5-5-5--5-5-5--0--1---------|X2

Verse:

e|---------------------------|
B|---------------------------|
G|---------------------------|
D|---------------------------|
A|--2------------------------|
D|--2------------------------|Just Bass...

e|---------------------------|---------------------------|
B|---------------------------|---------------------------|
G|----9\---9\---9\---10\--7\-|---7\---7\---/10--10-------|
D|---------------------------|---------------------------|
A|--2-7\-2-7\-2-7\-2-8\-0-5\-|-0-5\-0-5\-0-/8---8--------|
D|--2----2----2----2----0----|-0----0----0---------------|


Chorus:

e|---------------------------|---------------------------|
B|---------------------------|---------------------------|
G|---------------------------|---------------------------|
D|---------------5-5-5--5-5-5|---------------------------|
A|--2-2-2--2-2-2-3-3-3--3-3-3|5-5-5--5-5-5--1-1-1--1-1-1-|
D|--2-2-2--2-2-2-------------|5-5-5--5-5-5--1-1-1--1-1-1-|


e|---------------------------|---------------------------|
B|---------------------------|---------------------------|
G|---------------------------|---------------------------|
D|---------------5-5-5--5-5-5|---------------------------|
A|--2-2-2--2-2-2-3-3-3--3-3-3|5-5-5--5-5-5---------------|
D|--2-2-2--2-2-2-------------|5-5-5--5-5-5--0--1---------|X2

Verse:

e|---------------------------|---------------------------|
B|---------------------------|---------------------------|
G|-------------------10\-----|-----------------10\-------|
D|--2-2-2-2------------------|-0-0-0-0-------------------|
A|--2-2-2-2----2-2-2-8\------|-0-0-0-0----0-0--8\--------|
D|--2-2-2-2-X3-2-2-2---------|-0-0-0-0-X3-0-0------------|

e|---------------------------|---------------------------|
B|---------------------------|---------------------------|
G|-------------------10\-----|-----------------/10--10---|
D|--2-2-2-2------------------|-0-0-0-0-----.-------------|
A|--2-2-2-2----2-2-2-8\------|-0-0-0-0-----0---/8---8----|
D|--2-2-2-2-X3-2-2-2---------|-0-0-0-0-X2--0-X8----------|

Main Riff:

Guitar 1 (Rhythm)
e|---------------------------|
B|---------------------------|
G|---------------------------|
D|--2----0-------------------|
A|--2----0-------------------|
D|--2----0-------------------|X4 (4th time don't play the d)

Guitar 2 (Lead)
e|---------------------------|
B|---------------------------|
G|---------------------------|
D|--7-5-5---7h9h7-5-5h7h5-5--|
A|-----7--7------------------|
D|---------------------------|X8

Chorus:

e|---------------------------|---------------------------|
B|---------------------------|---------------------------|
G|---------------------------|---------------------------|
D|---------------5-5-5--5-5-5|---------------------------|
A|--2-2-2--2-2-2-3-3-3--3-3-3|5-5-5--5-5-5--1-1-1--1-1-1-|
D|--2-2-2--2-2-2-------------|5-5-5--5-5-5--1-1-1--1-1-1-|


e|---------------------------|---------------------------|
B|---------------------------|---------------------------|
G|---------------------------|---------------------------|
D|---------------5-5-5--5-5-5|---------------------------|
A|--2-2-2--2-2-2-3-3-3--3-3-3|5-5-5--5-5-5---------------|
D|--2-2-2--2-2-2-------------|5-5-5--5-5-5--0--1---------|X4


Guitar 2 (Last Two Times):

e|--7-7-8-8-7-7-6-6-7-7-8-8--|7-7-5--6-------------------|
B|---8-8-8-8-8-8-8-8-8-8-8-8-|-8-8-----------------------|
G|---------------------------|---------------------------|
D|---------------------------|---------------------------|
A|---------------------------|---------------------------|
D|---------------------------|---------------------------|

e|--7-7-8-8-7-7-6-6-7-7-8-8--|7-7------------------------|
B|---8-8-8-8-8-8-8-8-8-8-8-8-|-8-8-----------------------|
G|---------------------------|---------------------------|
D|---------------------------|---------------------------|
A|---------------------------|-----------2\--------------|
D|---------------------------|-----0--1--2\--------------|


End

===========================================================================

Edm RockJunkie - Lifeline

Intro (Riff A)

E|----------------------------------------------------------|
B|----------------------------------------------------------|
G|--7p0-7p0-7p0--6p0-6p0-6p0--4p0-4p0-4p0--6p0-6p0-6p0------|  Repeat 1X
D|-----0---0--------0---0--------0---0--------0---0---------|
A|----------------------------------------------------------|   ( < D )
E|----------------------------------------------------------|

(Fig. A)
    D         G
E|---------------------------------------------------------------------|
B|---------------------------------------------------------------------|
G|- Repeat ---7p0-7p0-7p0--6p0-6p0-6p0--11p0-11p0-11p0--6p0-6p0-6p0----|
D|- Riff A ------0---0--------0---0---------0----0---------0---0-------|
A|---------------------------------------------------------------------|
E|---------------------------------------------------------------------|

   Em                        A
E|-----------------------------------------------------------|
B|-----------------------------------------------------------|
G|--7p0-7p0-7p0--6p0-6p0-6p0--12p0-12p0-12p0--6p0-6p0-6p0----|
D|-----0---0--------0---0---------0----0---------0---0-------|
A|-----------------------------------------------------------|
E|-----------------------------------------------------------|

   D                             (Fill 1)
E|---------------------------|  |-------------------------|
B|---------------------------|  |-------------------------|
G|--7p0-7p0-7p0--6p0-6p0-6p0-|  |-4p0-4p0-4p0--2~~~~~~~---|
D|-----0---0--------0---0----|  |----0---0----------------|
A|---------------------------|  |-------------------------|
E|---------------------------|  |-------------------------|


Verse 1:
   D                                G
E|-x----------xx-x----------x3-2-----x----------xx-x----------xx--x-----|
B|-3----------3x-3----------33-3-----3----------3x-3----------33--3-----|
G|-2----------2x-2----------22-2-----0----------0x-0----------00--0-----|
D|-0----------0x-0----------00-0-----0----------0x-0----------00--0-----|
A|-0-------------0----------0--------2-------------2----------2---2-----|
E|-----------------------------------3-------------3----------3---------|

  Em                A               D
E|-x----------------x---------------x-----------------------------------|
B|-0----------------x---------------3-----------------------------------|
G|-0----------------2---------------2----------/7-6-4-2-----------------|
D|-2----------------2---------------0-----------------------------------|
A|-2----------------0---------------0----------/5-4-2-0-----------------|
E|-0--------------------------------------------------------------------|


Verse 2:
   D                                  G
E|-x-xx-x---xx-xx---x-xx-x---xx-xx----x-xx-x---xx-xx---x-xx-x---xx-xx---|
B|-3-3x-3---3x-33---3-3x-3---3x-33----3-3x-3---3x-33---3-3x-3---3x-33---|
G|-2-2x-2---2x-22---2-2x-2---2x-22----0-0x-0---0x-00---0-0x-0---0x-00---|
D|-0-0x-0---0x-00---0-0x-0---0x-00----0-0x-0---0x-00---0-0x-0---0x-00---|
A|-0----0------0----0----0------0-----2----2------22---2----2------22---|
E|------------------------------------3----3------3----3----3------3----|

   Em               A                D
E|-x-xx-x---xx-xx---x-xx-x---xx-xx---x----------------------------------|
B|-0-0x-0---0x-00---x-xx-x---xx-xx---3----------------------------------|
G|-0-0x-0---0x-00---2-2x-2---2x-22---2----------/7-9-11-14--------------|
D|-2-2x-2---2x-22---2-2x-2---2x-22---0----------------------------------|
A|-2----2------2----0----0------0----0----------/5-7--9-12--------------|
E|-0----0------0--------------------------------------------------------|

Chorus:
               (Fill 2)
E|-----------------------------|
B|-----------------------------|
G|- Repeat -----/14-12-11-9----|
D|- Fig. A --------------------|
A|--------------/12-10--9-7----|
E|-----------------------------|

verse 3:
   D                                  G
E|-x-xx-x---xx-xx---x-xx-x---xx-xx----x-xx-x---xx-xx---x-xx-x---xx-xx---|
B|-3-3x-3---3x-33---3-3x-3---3x-33----3-3x-3---3x-33---3-3x-3---3x-33---|
G|-2-2x-2---2x-22---2-2x-2---2x-22----0-0x-0---0x-00---0-0x-0---0x-00---|
D|-0-0x-0---0x-00---0-0x-0---0x-00----0-0x-0---0x-00---0-0x-0---0x-00---|
A|-0----0------0----0----0------0-----2----2------22---2----2------22---|
E|------------------------------------3----3------3----3----3------3----|

   Em               A                D
E|-x-xx-x---xx-xx---x----------------x----------------------------------|
B|-0-0x-0---0x-00---x----------------3----------------------------------|
G|-0-0x-0---0x-00---2---- pause -----2----------/7-9-11-14--------------|
D|-2-2x-2---2x-22---2----------------0----------------------------------|
A|-2----2------2----0----------------0----------/5-7--9-12--------------|
E|-0----0------0--------------------------------------------------------|


Chorus:

E|-----------------------------| |-----------------------------|
B|-----------------------------| |-----------------------------|
G|- Repeat ---- W/Fill 1 ------| |- Repeat ---- W/Fill 1 ------|
D|- Fig. A --------------------| |- Fig. A --------------------|
A|-----------------------------| |-----------------------------|
E|-----------------------------| |-----------------------------|


Bridge:

E|-------------x---------------------------------x-----------------------|
B|-------------3---------------------------------3-----------------------|
G|-4-/7--9-11--0---------------------4-/7--9-11--0-----------------------|
D|-------------0----/5p4-2-2h4-0-------------- --0----/5p4-2-2h4/7-------|
A|-2-/5--7--9--2---------------------2-/5--7--9--2-----------------------|
E|-------------3---------------------------------3-----------------------|

Outro Choruses:

E|-----------------------------------------------------------------------|
B|-----------------------------------------------------------------------|
G|- Repeat ----4p0-4p0-4p0-/7--------------------------------------------|
D|- Fig. A -------0---0--------------------------------------------------|
A|-------------------------/5--------------------------------------------|
E|-----------------------------------------------------------------------|


   G                                                     Em
E|------------------------------------------------------------------------|
B|------------------------------------------------------------------------|
G|-7p0-7p0-7p0--6p0-6p0-6p0--11p0-11p0-11p0--6p0-6p0-6p0--7p0-7p0-7p0--6p0|
D|----0---0--------0---0---------0----0---------0---0--------0---0--------|
A|------------------------------------------------------------------------|
E|------------------------------------------------------------------------|

m           A                            D
E|------------------------------------------------------------------------|
B|------------------------------------------------------------------------|
G|-6p0-6p0--12p0-12p0-12p0--6p0-6p0-6p0--7p0-7p0-7p0--6p0-6p0-6p0--4p0-4p0|
D|0---0---------0----0---------0---0--------0---0--------0---0--------0---|
A|------------------------------------------------------------------------|
E|------------------------------------------------------------------------|


E|---------------------------|
B|---------------------------|
G|-4p0--2---- pause ---------|
D|0--------------------------|
A|---------------------------|
E|---------------------------|


    D         Bm
E|---------------------------------------------------------------------|
B|---------------------------------------------------------------------|
G|- Repeat ---7p0-7p0-7p0--6p0-6p0-6p0--11p0-11p0-11p0--6p0-6p0-6p0----|
D|- Riff A ------0---0--------0---0---------0----0---------0---0-------|
A|---------------------------------------------------------------------|
E|---------------------------------------------------------------------|

   Em                        G
E|-----------------------------------------------------------|
B|-----------------------------------------------------------|
G|--7p0-7p0-7p0--6p0-6p0-6p0--12p0-12p0-12p0--6p0-6p0-6p0----|
D|-----0---0--------0---0---------0----0---------0---0-------|
A|-----------------------------------------------------------|
E|-----------------------------------------------------------|

   D
E|-----------------------------------------------------|
B|-----------------------------------------------------|
G|--7p0-7p0-7p0--6p0-6p0-6p0--4p0-4p0-4p0--2~~~~~~~----|
D|-----0---0--------0---0--------0---0-----------------|
A|-----------------------------------------------------|
E|-----------------------------------------------------|

                                   D
E|---------------------------------x--------------------|
B|---------------------------------3--------------------|
G|- Repeat ---- W/Fill 1 --(2)p0---2-- toggle switch ---|
D|- Fig. A ------------------------0--------------------|
A|---------------------------------0--------------------|
E|------------------------------------------------------|
===========================================================================

Unregistered - Had Enough

Tuning: Standart

Legend:

h hammer-on
p pull-off
~ let ring
x palm mute
/ slide up
\ slide down


Intro:

Riff A

e|------------------------------------------|
B|------------------------------------------|
G|------------------------------------------|
D|--------99-55555555-77777777-99999999-----|
A|--77777-----------------------------------|
E|------------------------------------------| 4x
    xxxxx xx xxxxxxxx xxxxxxxx xxxxxxxx

Riff B

e|---------------------------------------------------------|
B|--10h12-1212121212-12p10-101010-10h12-1212121212-12p10---|
G|---------------------------------------------------------|
D|---------------------------------------------------------|
A|---------------------------------------------------------|
E|---------------------------------------------------------|

e|-------------------------------------------------------------|
B|--101010-10h12-1212121212-12p10-101010-----------------------|
G|---------------------------------------1212121212121212-12~--|
D|-------------------------------------------------------------|
A|-------------------------------------------------------------|
E|-------------------------------------------------------------| 2x


Verse:

e|------------------------------------------|
B|------------------------------------------|
G|------------------------------------------|
D|--------99-55555555-77777777-99999999-----|
A|--77777-----------------------------------|
E|------------------------------------------| 4x
    xxxxx xx xxxxxxxx xxxxxxxx xxxxxxxx

Second Guitar after 2x:

e|--12~---------|
B|--12~---------|
G|--12~---------|
D|--------------|
A|--------------|
E|--------------|


Chorus:

e|-------------------7----------------------------------------------------------------------|
B|--------8------------8--------7----------7----------5----------5--------------------------|
G|----7-----7----7----------7-----7----7-----7----5-----5----5-----5--------4----------4----|
D|--5---5------5---5------4---4------4---4------5---5------5---5--------5-----5----5-----5--|
A|--------------------------------------------------------------------5---5------5---5------|
E|------------------------------------------------------------------------------------------|


Verse:

Riff A

e|------------------------------------------|
B|------------------------------------------|
G|------------------------------------------|
D|--------99-55555555-77777777-99999999-----|
A|--77777-----------------------------------|
E|------------------------------------------| 2x
    xxxxx xx xxxxxxxx xxxxxxxx xxxxxxxx

Riff B

e|--12------12------12---|
B|----12--12--12--12-----|
G|------12------12-------|
D|-----------------------|
A|-----------------------| during the verse
E|-----------------------|
    x x x x x x x x x


Pre Chorus:

Riff A

e|------------------------------------------|
B|------------------------------------------|
G|------------------------------------------|
D|--------99-55555555-77777777-99999999-----|
A|--77777-----------------------------------|
E|------------------------------------------| 2x
    xxxxx xx xxxxxxxx xxxxxxxx xxxxxxxx

Riff B

e|---------------------------------------------------------------------------------|
B|-----------------------------12-12121212121212-------1212------------------------|
G|--555555/7-99999999-77777777-------------------99999-----1212121212121212--------|
D|--555555/7-99999999-77777777-----------------------------------------------------|
A|--333555/5-77777777-55555555-----------------------------------------------------|
E|---------------------------------------------------------------------------------|

-------------------------------------|
1010101010101010-1212121212121212----|
-------------------------------------|
-------------------------------------|
-------------------------------------|
-------------------------------------|

Chorus:

e|-------------------------------|
B|-------------------------------|
G|--12-----11-----5--------------|
D|--12-16x-12-16x-5-16x-5--------|
A|--10-----9------3-----5-16x----| 2x
E|----------------------3--------|


Interlude:

e|------------------------------------------|
B|------------------------------------------|
G|------------------------------------------|
D|--------99-55555555-77777777-99999999-----|
A|--77777-----------------------------------|
E|------------------------------------------| 2x
    xxxxx xx xxxxxxxx xxxxxxxx xxxxxxxx

e|------------------------------------------|
B|------------------------------------------|
G|------------------------------------------|
D|--------99-55555555-77777777-55555555-----|
A|--77777-----------------------------------|
E|------------------------------------------|
    xxxxx xx xxxxxxxx xxxxxxxx xxxxxxxx

e|-----------------------------------------------------------------|
B|-----------------------------------------------------------------|
G|--12/14/16/1717171717---1212121212121212-------------------------|
D|------------------------1212121212121212---1212121212121212------|
A|--10/12/14/1515151515---10101010110101010--1212121212121212------|
E|------------------------------------------1010101010101010-------|

e|------------------------------------------|
B|------------------------------------------|
G|--16/17/19/21212121-----------------------|
D|---------------------22222222-55555555----|
A|--14/15/17/19191919--22222222-55555555----|
E|---------------------00000000-33333333----|


Chorus:

e|-------------------------------|
B|-------------------------------|
G|--12-----11-----5--------------|
D|--12-16x-12-16x-5-16x-5--------|
A|--10-----9------3-----5-16x----| 2x
E|----------------------3--------|


Outro:

e|---------------|
B|---------------|
G|---------------|
D|--5~-----------|
A|--5~-----------|
E|--3~-----------|
===========================================================================

Ryanuofm86 - Live This Down (Intro)

Intro
E---------x-x-x---------x-x-x---------x-x-x------------------|x4
B---------x-x-x---------x-x-x---------x-x-x------------------|
G---------x-x-x---------x-x-x-5-5-5-5-x-x-x------------------|
D-2-2-0-2-x-x-x-2-2-0-2-x-x-x-5-5-5-5-x-x-x-5-5-5-5-0-0-0-0--|
A-2-2-0-2-x-x-x-2-2-0-2-x-x-x-3-3-3-3-x-x-x-5-5-5-5-0-0-0-0--|
D-2-2-0-2-x-x-x-2-2-0-2-x-x-x---------x-x-x-5-5-5-5-0-0-0-0--|

Verse
E---------x-x-x---------x-x-x---------x-x-x------------------|x4
B---------x-x-x---------x-x-x---------x-x-x------------------|
G---------x-x-x---------x-x-x-5-5-5-5-x-x-x------------------|
D-2-2-0-2-x-x-x-2-2-0-2-x-x-x-5-5-5-5-x-x-x-5-5-5-5-0-0-0-0--|
A-2-2-0-2-x-x-x-2-2-0-2-x-x-x-3-3-3-3-x-x-x-5-5-5-5-0-0-0-0--|
D-2-2-0-2-x-x-x-2-2-0-2-x-x-x---------x-x-x-5-5-5-5-0-0-0-0--|

Pre-Chorus
E-0--------------------|
B-0--------------------|
G-9--------------------|
D-9------hold chord----|
A-7--------------------|
D----------------------|

Chorus (play 4 times)
E---x--x-x---x--x-x---x--x-x---x-x---x-x-|
B---x--x-x---x--x-x---x--x-x---x-x---x-x-|
G---x--x-x---x--x-x-5-x--x-x---x-x---x-x-|
D-2-x--x-x-2-x--x-x-5-x--x-x-5-x-x-0-x-x-|
A-2-x--x-x-2-x--x-x-3-x--x-x-5-x-x-0-x-x-|
D-2-x--x-x-2-x--x-x---x--x-x-5-x-x-0-x-x-|

Post-Chorus
E---------x-x-x---------x-x-x---------x-x-x------------------|x2
B---------x-x-x---------x-x-x---------x-x-x------------------|
G---------x-x-x---------x-x-x-5-5-5-5-x-x-x------------------|
D-2-2-0-2-x-x-x-2-2-0-2-x-x-x-5-5-5-5-x-x-x-5-5-5-5-0-0-0-0--|
A-2-2-0-2-x-x-x-2-2-0-2-x-x-x-3-3-3-3-x-x-x-5-5-5-5-0-0-0-0--|
D-2-2-0-2-x-x-x-2-2-0-2-x-x-x---------x-x-x-5-5-5-5-0-0-0-0--|

Verse
No guitar till 3rd and 4th time through
E---------x-x-x---------x-x-x---------x-x-x------------------|x2
B---------x-x-x---------x-x-x---------x-x-x------------------|
G---------x-x-x---------x-x-x-5-5-5-5-x-x-x------------------|
D-2-2-0-2-x-x-x-2-2-0-2-x-x-x-5-5-5-5-x-x-x-5-5-5-5-0-0-0-0--|
A-2-2-0-2-x-x-x-2-2-0-2-x-x-x-3-3-3-3-x-x-x-5-5-5-5-0-0-0-0--|
D-2-2-0-2-x-x-x-2-2-0-2-x-x-x---------x-x-x-5-5-5-5-0-0-0-0--|

Chorus (play 4 times)
E---x--x-x---x--x-x---x--x-x---x-x---x-x-|
B---x--x-x---x--x-x---x--x-x---x-x---x-x-|
G---x--x-x---x--x-x-5-x--x-x---x-x---x-x-|
D-2-x--x-x-2-x--x-x-5-x--x-x-5-x-x-0-x-x-|
A-2-x--x-x-2-x--x-x-3-x--x-x-5-x-x-0-x-x-|
D-2-x--x-x-2-x--x-x---x--x-x-5-x-x-0-x-x-|

Bridge
E---------x------------|x4
B---------x------------|
G---------x------------|
D-2-2-0-2-x-2-2-0-2----|
A-2-2-0-2-x-2-2-0-2----|
D-2-2-0-2-x-2-2-0-2-3--|b

(Play four times)
E---------x-x-x---------x-x-x---------x-x-x---------x-x-x-|
B---------x-x-x---------x-x-x---------x-x-x---------x-x-x-|
G---------x-x-x---------x-x-x---------x-x-x---------x-x-x-|
D-2-2-0-2-x-x-x-2-2-0-2-x-x-x-2-2-0-2-x-x-x-2-2-0-2-x-x-x-|
A-2-2-0-2-x-x-x-2-2-0-2-x-x-x-2-2-0-2-x-x-x-2-2-0-2-x-x-x-|
D-2-2-0-2-x-x-x-2-2-0-2-x-x-x-2-2-0-2-x-x-x-2-2-0-2-x-x-x-|

Chorus (play 4 times)
E---x--x-x---x--x-x---x--x-x---x-x---x-x-|
B---x--x-x---x--x-x---x--x-x---x-x---x-x-|
G---x--x-x---x--x-x-5-x--x-x---x-x---x-x-|
D-2-x--x-x-2-x--x-x-5-x--x-x-5-x-x-0-x-x-|
A-2-x--x-x-2-x--x-x-3-x--x-x-5-x-x-0-x-x-|
D-2-x--x-x-2-x--x-x---x--x-x-5-x-x-0-x-x-|

Ending
E---------x------------|x4
B---------x------------|
G---------x------------|
D-2-2-0-2-x-2-2-0-2----|
A-2-2-0-2-x-2-2-0-2----|
D-2-2-0-2-x-2-2-0-2-3--|b
===========================================================================

Patrick3030150 - March out of the darkness

       B                    E                      B                      E
e-----------2-x-2------------0--0--0------------------------2--------------0-0-0-|
B-----------3-x-3------------0--0--0--------------------3-x-3--------------0-0-0-|
G-------4-x-4-x-4------------0--0--0----------------4-x-4-x-4--------------0-0-0-|
D-------4-x-4-x-4----2p0-5p2-2--2--2----2p0---------4-x-4-x-4----0h2-0-----2-2-2-|
A-0h2p0-2-x-2-x-2------------2--2--2--------0h2-0h2-2-x-2-x-2----------4-0-2-2-2-|
E--------------------------------------------------------------------------------|


Legenda:
h: Hammer on
p: Pull of
x: Nota Morta
===========================================================================

Papamaxofficial - Into the light

Tuning: Drop D

  
[Intro]

  Bass plays   Guitar intro x4            Ends on -Let ring
e|----------|-|-------------------------|------|
B|----------|-|-------------------------|------|
G|----------|-|-77777-------------------|------|
D|----------|-|-77777-77777-88888-55555-|-0~~~~|
A|----------|-|-55555-77777-88888-55555-|-0~~~~|
D|----------|-|-------77777-88888-55555-|-0~~~~| - Leads into the vers.

  

[ Vers 1]

"... And a mouth full of lies"           "... i feel like i wanna die"
e|---------------------------------------------------------------------------|
B|---------------------------------------------------------------------------|
G|~~~~~~--------------------3~~--|--------|----------------------------------|
D|~~~~~~--------------------3~~--|Let Ring|------------------------SLIDE-----|
A|~~~~~~--------------------1~~--|--------|----------------------------------|
D|-----------------------------------------------------------------12/0------|
  " i'm a king of nothin.."          "... i've been taking beating"
e|----------------------------------------------------------------------------|
B|----------------------------------------------------------------------------|
G|----------------------------------------------------------------------------|
D|-5555-x-5555-x-10101010-x-9999-x|<-Play 2 times|-3333-x-3333-x-9999-x-5555-x|
A|-7777-x-7777 x-8 8 8 8 -x-7777-x|<-------------|-1111-x-1111-x-7777-x-3333-x|
D|----------------------------------------------------------------------------|

e|-----------------------------|
B|-----------------------------|
G|-----------------------------|
D|-3333-x-3333-x-5555-x-5555---|
A|-1111-x-1111-x-3333-x-7777---|
D|-----------------------------|

  
  
[ CHORUS 1 ]

e|---------------------------------------------|
B|---------------------------------------------|
G|---------------------------------------------|
D|-0~---3-5--------6-5-3---7~--3-5-----0-7-5-3-|
A|-0~---3-5----00--6-5-3---5~--3-5--00-0-7-5-3-|
D|-0~---3-5----00--6-5-3-------3-5--00-0-7-5-3-|
               PM                   PM
e|------------------------------------------------|---|
B|------------------------------------------------|---|
G|------------------------------------------------|---|
D|-0~---3-5--------6-5-3---7~--3-5------------99--|-0~| Leads to the vers 2. 
A|-0~---3-5----00--6-5-3---5~--3-5------------77--|-0~|
D|-0~---3-5----00--6-5-3-------3-5----------------|-0~|
               PM
 
[ VERS 2 ]

( REPEAT VERS 1 !) :)



[ CHORUS 2 ]

e|--------------------------------------------|
B|--------------------------------------------|
G|--------------------------------------------|
D|-0~---3-5--------6-5-3---7~--3-5------7-5-3-|
A|-0~---3-5----00--6-5-3---5~--3-5--00--7-5-3-|
D|-0~---3-5----00--6-5-3-------3-5--00--7-5-3-|
               PM                   PM

D|-0~---3-5--------6-5-3---7~--3-5----------0~---3-5--------6-5-3---7~--3-5------7-5-3-| 
A|-0~---3-5----00--6-5-3---5~--3-5--000000--0~---3-5----00--6-5-3---5~--3-5--00--7-5-3-|
D|-0~---3-5----00--6-5-3-------3-5- 000000--0~---3-5----00--6-5-3-------3-5--00--7-5-3-|
               PM                   PMPMPM              PM                   PM

D|-0~---3-5--------6-5-3---7~--3-5-| 
A|-0~---3-5----00--6-5-3---5~--3-5-| 
D|-0~---3-5----00--6-5-3-------3-5-| 
               PM                   

[Solo]

e|--------------------------------------------------------
B|--------------------------------------------------------
G|--------------------------------------------------------
D|---12p0--12p0--14/15--12\10---12p0--12p0--14/15--12\10-- 
A|-------0-----0------0-------------0-----0------0--------
D|--------------------------------------------------------
                                                          

 ------------------------------------------------|
 ------------------------------------------------|
 ------------------------------------------------|
 -----------14/15--12\10-----------14/15--12\10--|
 -1313131313-----0-------1515151515-----0--------|
 ------------------------------------------------| Play 4 times!
 (thirteen's)           (fifteen's)


Motley Crew Solo - nr. 2 (can't figure it out)   
 
[Guitar 2 during solo]


e||-------------------------|
B||-------------------------|
G||-77777-------------------|
D||-77777-77777-88888-55555-|
A||-55555-77777-88888-55555-|
D||-------77777-88888-55555-|

[CHORUS]

(Repeat Chorus!)

[OUTRO] 
e|--------------------------|
B|--------------------------|
G|-----------------------7~-|
D|-6--5--3--0------------7~-|
A|-6--5--3--0------------5~-|
D|-6--5--3--0---------------|

Thanks! Please rate ;P

===========================================================================

| /  slide up
| \  slide down
| p  pull-off
| ~  Let ring
| x  Mute note

unique-x-life - Carry me

Intro

e|--------------------|  
B|------5-------------|
G|----5---5-----------|                     4x
D|--7------7----------|
A|--------------------|
E|--------------------|

e|--------------------|  
B|------5-------------|
G|----5---5-----------|                     4x
D|--3------3----------|
A|--------------------|
E|--------------------|

Play above twice

Verse

e|--------------------|  
B|----------5---------|
G|--------------------|
D|-7--5--7------------|      2x
A|--------------------|
E|--------------------|

e|--------------------|  
B|----------1---------|
G|--------------------|
D|-3--2--3------------|     2z
A|--------------------|
E|--------------------|

I question my own existence ...

e|--------------------|  
B|-3--5----10---12----|
G|--------------------|
D|--------------------|
A|--------------------|
E|--------------------|

Chorus

e|------------------------------|  
B|------------------------------|
G|--------16------------16------|     
D|-----16----16----16------16---|
A|-14-----------13--------------|

e|------------------------------|  
B|------------------------------|
G|------------------------------|
D|---------18---------18--------|
A|-----18----18----18----18-----|
E|--16----------16--------------|


e|------------------------------|  
B|--8--6--10--8--8--6--15--13---|
G|------------------------------|
D|------------------------------|
A|------------------------------|
E|------------------------------|


I am crazy without u...


The Hardest ones to love are the ones that need it more


e|--------------------|  
B|------5-------------|
G|----5---5-----------|                     4x
D|--7------7----------|
A|--------------------|
E|--------------------|

e|--------------------|  
B|------5-------------|
G|----5---5-----------|                     4x
D|--3------3----------|
A|--------------------|
E|--------------------|



Pre Chorus 2

e|-----------------------------------------------------------------------|  
B|-3-3-3-3-3-3--5-5-5-5-5-5-----10-10-10-10-10-10---12-12-12-12-12-12----|
G|-----------------------------------------------------------------------|
D|-----------------------------------------------------------------------|
A|-----------------------------------------------------------------------|
E|-----------------------------------------------------------------------|

Chorus

e|------------------------------|  
B|------------------------------|
G|--------16------------16------|     
D|-----16----16----16------16---|
A|-14-----------13--------------|

e|------------------------------|  
B|------------------------------|
G|------------------------------|
D|---------18---------18--------|
A|-----18----18----18----18-----|
E|--16----------16--------------|


e|------------------------------|  
B|--8--6--10--8--8--6--15--13---|
G|------------------------------|
D|------------------------------|
A|------------------------------|
E|------------------------------|


The Hardest ones to love are the ones that need it more..


e|-------------------------------------|
B|-------------------------------------|
G|---55555-55555-----------------------|
D|---55555-55555--7777777777-----------|
A|---33333-22222--7777777777-----------|
E|----------------5555555555-----------|

e|-----------|  
B|-----------|
G|-----------|            10X
D|3----------|
A|3----------|
E|1----------|


e|----------|  
B|----------|
G|----------|          10X
D|5---------|
A|5---------|
E|3---------|
===========================================================================

PRSammy333 - State of Emergency

Tuning: Drop D
b=bend


Intro/Verse
E|-----------------------------------|------------------------------------|
B|-----------------------------------|------------------------------------|
G|--7--9---7--9-------7--9---7--9----|--7--9---12(b)--9----------7--9----7|
D|-------------(0)-------------------|---------------------------------9--|
A|-------------------------------(0)-|------------------------------------|
D|-----------------------------------|------------------------------------|    REPEAT x4

Chorus
E|2----5----7--------2----5----0----|2----5----7-----------0----1---------|
B|2----5----7--------2----5----0----|2----5----7-----------0----1---------|
G|2-x8-5-x4-7-x4-----2-x8-5-x4-0-x4-|2-x8-5-x4-7-x4--------0-x8-1-x8------|
D|2----5----7--------2----5----0----|2----5----7-----------0----1---------|
A|2----5----7--------2----5----0----|2----5----7-----------0----1---------|
D|2----5----7--------2----5----0----|2----5----7-----------0----1---------|    REPEAT x2
comments
print report bad tab
1 comment total.
0 reply
DanielHsv0 wrote on July 7 2013, 03:14 am

A lot of the tabs are inaccurate.
Can you update them?

I want to post or [tab]
guest
You may want to rate the tab now too:
select rating
Please do not post tabs as comments. Select "correction" instead!