Oops, an error
Loading. Please wait.

Paramour Sessions Tab

8,907 views 6 this week
5 commentsread comments
1 2 3 4 5
accurate
x 2
Autoscroll
+/-
esc
set tempo
stop
Contributor
Difficulty
intermediate
NEW! There's an official Ultimate Guitar app which is ideal
for learning songs when you're away from computer. Get the app
WARNING: You are trying to view
                                    content from Ultimate-Guitar.com
                                    in an unauthorized application,
                                    which is prohibited.

                                    Please use an official Ultimate
                                    Guitar Tabs application for iPhone,
                                    iPad or Android to access legitimate
                                    chords, guitar, bass, and drum tabs
                                    from Ultimate-Guitar.com database.

                                    Type "ultimate guitar tabs" in Apple
                                    App Store's or Android Market's
                                    search to find the application.
Band - Papa Roach
Album - The Paramour Sessions (2006)

Track Listings:
1. To Be Loved.....................jaames
2. Alive N' Out Of Control.........jaames
3. Crash...........................jaames
4. The World Around You............cibul_MT
5. Forever.........................Andrew Zara
6. I Devise My Own Demise..........Andrew Zara
7. Time Is Running Out.............Andrew Zara
8. What Do You Do?.................JL Sevenfold
9. My Heart Is A Fist..............Anarchados
10. No More Secrets................TomHuf
11. Reckless.......................Sick_of_you
12. The Fire.......................TheoryWorker
13. Roses On My Grave..............No guitar parts

1. TO BE LOVED

Tuning : Drop D

Intro
  Q=191
  C5/G G5   C5/G Eb5  F5   Eb5  C5/G G5   C5/G Eb5  F5   Eb5
 4/4
  Gtr I
  Q.   Q.   Q    Q.   Q.   Q    Q.   Q.   Q    Q.   Q.   Q
|--------------|--------------|--------------|---------------|
|--------------|--------------|--------------|---------------|
|--------------|--------------|--------------|---------------|
|-5----5----5--|-1----3----1--|-5----5----5--|-1----3----1---|
|-3----5----3--|-1----3----1--|-3----5----3--|-1----3----1---|
|-5----5----5--|-1----3----1--|-5----5----5--|-1----3----1---|


    C5/G      G5        C5/G    Eb5       F5        Eb5
     Q.        Q.        Q       Q.        Q.        Q
||----------------------------|---------------------------|
||o---------------------------|---------------------------|
||----------------------------|---------------------------|
||---5---------5---------5----|--1---------3---------1----|
||o--3---------5---------3----|--1---------3---------1----|
||---5---------5---------5----|--1---------3---------1----|
|
|   Gtr II
|    E   E  E  E   E  E  E  E    E   E  E  E   E  E  E  E
||----------------------------|---------------------------|
||o-13--13-13-13--13-13-13-13-|-13--13-13-13--13-13-13-13-|
||--12--12-12-12--12-12-12-12-|-12--12-12-12--12-12-12-12-|
||--10--10-10-10--10-10-10-10-|-10--10-10-10--10-10-10-10-|
||o---------------------------|---------------------------|
||----------------------------|---------------------------|


  C5/G      G5        C5/G    Eb5       F5        Eb5
   Q.        Q.        Q       Q.        Q.        Q
|---------------------------|---------------------------|
|---------------------------|---------------------------|
|---------------------------|---------------------------|
|--5---------5---------5----|--1---------3---------1----|
|--3---------5---------3----|--1---------3---------1----|
|--5---------5---------5----|--1---------3---------1----|
|
|  E   E  E  E   E  E  E  E    E   E  E  E   E  E  E  E
|---------------------------|---------------------------|
|-16--16-16-16--16-16-16-16-|-16--16-16-16--16-16-16-16-|
|-15--15-15-15--15-15-15-15-|-15--15-15-15--15-15-15-15-|
|-13--13-13-13--13-13-13-13-|-13--13-13-13--13-13-13-13-|
|---------------------------|---------------------------|
|---------------------------|---------------------------|


  C5/G      G5        C5/G    Eb5       F5        Eb5
   Q.        Q.        Q       Q.        Q.        Q
|---------------------------|---------------------------|
|---------------------------|---------------------------|
|---------------------------|---------------------------|
|--5---------5---------5----|--1---------3---------1----|
|--3---------5---------3----|--1---------3---------1----|
|--5---------5---------5----|--1---------3---------1----|
|
|  E   E  E  E   E  E  E  E    E   E  E  E   E  E  E  E
|---------------------------|---------------------------|
|-16--16-16-16--16-16-16-16-|-16--16-16-16--16-16-16-16-|
|-15--15-15-15--15-15-15-15-|-15--15-15-15--15-15-15-15-|
|-13--13-13-13--13-13-13-13-|-13--13-13-13--13-13-13-13-|
|-11--11-11-11--11-11-11-11-|-11--11-11-11--11-11-11-11-|
|---------------------------|---------------------------|


  C5/G      G5        C5/G    Eb5       F5        Eb5
   Q.        Q.        Q       Q.        Q.        Q
|---------------------------|-----------------------------||
|---------------------------|----------------------------o||
|---------------------------|-----------------------------||
|--5---------5---------5----|--1---------3---------1------||
|--3---------5---------3----|--1---------3---------1-----o||
|--5---------5---------5----|--1---------3---------1------||
|
|  E   E  E  E   E  E  E  E    E   E  E  E   E  E  E  E
|---------------------------|-----------------------------||
|-16--16-16-16--16-16-16-16-|-16--16-16-16--16-16-16-16--o||
|-15--15-15-15--15-15-15-15-|-15--15-15-15--15-15-15-15---||
|-13--13-13-13--13-13-13-13-|-13--13-13-13--13-13-13-13---||
|-11--11-11-11--11-11-11-11-|-11--11-11-11--11-11-11-11--o||
|---------------------------|-----------------------------||


 Pre-Chorus
  C5/G G5   C5/G Eb5  F5   Eb5  C5/G G5   C5/G Eb5  F5
  Q.   Q.   Q    Q.   Q.   Q    Q.   Q.   Q    Q.   Q.   Q
|--------------|--------------|--------------|---------------|
|--------------|--------------|--------------|---------------|
|--------------|--------------|--------------|---------------|
|-5----5----5--|-1----3----1--|-5----5----5--|-1----3--------|
|-3----5----3--|-1----3----1--|-3----5----3--|-1----3--------|
|-5----5----5--|-1----3----1--|-5----5----5--|-1----3--------|


 Chorus
  C5                                  Bb5
  Q  Q.   E E E   +E  E E E E E E E   Q  Q.   E E E   +E  E E E E E E E
|---------------|-------------------|---------------|--------------------|
|---------------|-------------------|---------------|--------------------|
|-5--5----5-5-5-|-(5)-5-5-5-5-5-5-5-|---------------|--------------------|
|-5--5----5-5-5-|-(5)-5-5-5-5-5-5-5-|-8--8----8-8-8-|-(8)-8-8-8-8-8-8-8--|
|-3--3----3-3-3-|-(3)-3-3-3-3-3-3-3-|-8--8----8-8-8-|-(8)-8-8-8-8-8-8-8--|
|---------------|-------------------|-8--8----8-8-8-|-(8)-8-8-8-8-8-8-8--|


  Ab5                                 F5
  Q  Q.   E E E   +E  E E E E E E E   Q  Q.   E E E   +E  E E E E E E E
|---------------|-------------------|---------------|--------------------|
|---------------|-------------------|---------------|--------------------|
|---------------|-------------------|---------------|--------------------|
|-6--6----6-6-6-|-(6)-6-6-6-6-6-6-6-|-3--3----3-3-3-|-(3)-3-3-3-3-3-3-3--|
|-6--6----6-6-6-|-(6)-6-6-6-6-6-6-6-|-3--3----3-3-3-|-(3)-3-3-3-3-3-3-3--|
|-6--6----6-6-6-|-(6)-6-6-6-6-6-6-6-|-3--3----3-3-3-|-(3)-3-3-3-3-3-3-3--|


  C5                                  Ab5
  Q  Q.   E E E   +E  E E E E E E E   Q  Q.   E E E   +E  E E E E E E E
|---------------|-------------------|---------------|--------------------|
|---------------|-------------------|---------------|--------------------|
|-5--5----5-5-5-|-(5)-5-5-5-5-5-5-5-|---------------|--------------------|
|-5--5----5-5-5-|-(5)-5-5-5-5-5-5-5-|-6--6----6-6-6-|-(6)-6-6-6-6-6-6-6--|
|-3--3----3-3-3-|-(3)-3-3-3-3-3-3-3-|-6--6----6-6-6-|-(6)-6-6-6-6-6-6-6--|
|---------------|-------------------|-6--6----6-6-6-|-(6)-6-6-6-6-6-6-6--|


  F5                                  Eb5            Db5/Ab
  Q  Q.   E E E   +E  E E E E E E E   Q  Q.   E Q    Q  Q.   E Q
|---------------|-------------------|--------------|---------------|
|---------------|-------------------|--------------|---------------|
|---------------|-------------------|--------------|---------------|
|-3--3----3-3-3-|-(3)-3-3-3-3-3-3-3-|-1--1----1-1--|-6--6----6-6---|
|-3--3----3-3-3-|-(3)-3-3-3-3-3-3-3-|-1--1----1-1--|-4--4----4-4---|
|-3--3----3-3-3-|-(3)-3-3-3-3-3-3-3-|-1--1----1-1--|-6--6----6-6---|


 Verse
  C5
  Gtr III
   H           E  q     E    H           E  q     E
|-------------------------|-------------------------|
|-------------------------|-------------------------|
|--5--------------5-----5-|--5--------------5-----5-|
|--5--------------5-----5-|--5--------------5-----5-|
|--3--------------3-----3-|--3--------------3-----3-|
|-------------------------|-------------------------|
|
| Gtr IV
|  E  E  E  E  E  E  E  E    E  E  E  E  E  E  E  E
|-------------------------|-------------------------|
|-------------------------|-------------------------|
|----------12-12-12-------|----------10-10-10-------|
|-10-10-10----------10-10-|-13-13-13----------13-13-|
|-------------------------|-------------------------|
|-------------------------|-------------------------|


  Ab5
   H           E  q     E    H           E  q     E
|-------------------------|--------------------------|
|-------------------------|--------------------------|
|-------------------------|--------------------------|
|--6--------------6-----6-|--6--------------6-----6--|
|--6--------------6-----6-|--6--------------6-----6--|
|--6--------------6-----6-|--6--------------6-----6--|
|
|  E  E  E  E  E  E  E  E    E  E  E  E  E  E  E  E
|-------------------------|--------------------------|
|-------------------------|--------------------------|
|----------12-12-12-------|----------10-10-10--------|
|-------------------------|-13-13-13----------13-13--|
|-11-11-11----------11-11-|--------------------------|
|-------------------------|--------------------------|


  F5
  H       E q   E   H         E  q   E
|-----------------|--------------------|
|-----------------|--------------------|
|-----------------|--------------------|
|-3---------3---3-|-3------------3---3-|
|-3---------3---3-|-3------------3---3-|
|-3---------3---3-|-3------------3---3-|
|
| E E E E E E E E   E E E  E  E  E E E
|-----------------|--------------------|
|-------8-8-8-----|--------------------|
|-----------------|-8-8-8-10-10-10-8-8-|
|-----------------|--------------------|
|-8-8-8-------8-8-|--------------------|
|-----------------|--------------------|


  G5
   H           E  q     E    H           E  q     E
|-------------------------|--------------------------|
|-------------------------|--------------------------|
|-------------------------|--------------------------|
|--5--------------5-----5-|--5--------------5-----5--|
|--5--------------5-----5-|--5--------------5-----5--|
|--5--------------5-----5-|--5--------------5-----5--|
|
|  E  E  E  E  E  E  E  E    E  E  E  E  E  E  E  E
|-------------------------|--------------------------|
|-------------------------|--------------------------|
|----------12-12-12-------|----------10-10-10--------|
|-------------------------|-13-13-13----------13-13--|
|-10-10-10----------10-10-|--------------------------|
|-------------------------|--------------------------|


  C5
   H           E  q     E    H           E  q     E
|-------------------------|-------------------------|
|-------------------------|-------------------------|
|--5--------------5-----5-|--5--------------5-----5-|
|--5--------------5-----5-|--5--------------5-----5-|
|--3--------------3-----3-|--3--------------3-----3-|
|-------------------------|-------------------------|
|
|  E  E  E  E  E  E  E  E    E  E  E  E  E  E  E  E
|-------------------------|-------------------------|
|-------------------------|-------------------------|
|----------12-12-12-------|----------10-10-10-------|
|-10-10-10----------10-10-|-13-13-13----------13-13-|
|-------------------------|-------------------------|
|-------------------------|-------------------------|


  Ab5
   H           E  q     E    H           E  q     E
|-------------------------|--------------------------|
|-------------------------|--------------------------|
|-------------------------|--------------------------|
|--6--------------6-----6-|--6--------------6-----6--|
|--6--------------6-----6-|--6--------------6-----6--|
|--6--------------6-----6-|--6--------------6-----6--|
|
|  E  E  E  E  E  E  E  E    E  E  E  E  E  E  E  E
|-------------------------|--------------------------|
|-------------------------|--------------------------|
|----------12-12-12-------|----------10-10-10--------|
|-------------------------|-13-13-13----------13-13--|
|-11-11-11----------11-11-|--------------------------|
|-------------------------|--------------------------|


  F5
  H       E q   E   H         E  q   E
|-----------------|--------------------|
|-----------------|--------------------|
|-----------------|--------------------|
|-3---------3---3-|-3------------3---3-|
|-3---------3---3-|-3------------3---3-|
|-3---------3---3-|-3------------3---3-|
|
| E E E E E E E E   E E E  E  E  E E E
|-----------------|--------------------|
|-------8-8-8-----|--------------------|
|-----------------|-8-8-8-10-10-10-8-8-|
|-----------------|--------------------|
|-8-8-8-------8-8-|--------------------|
|-----------------|--------------------|


  Eb5                       Db5/Ab
   H           E  q     E    H           E  q     E
|-------------------------|--------------------------|
|-------------------------|--------------------------|
|-------------------------|--------------------------|
|--1--------------1-----1-|--6--------------6-----6--|
|--1--------------1-----1-|--4--------------4-----4--|
|--1--------------1-----1-|--6--------------6-----6--|
|
|  E  E  E  E  E  E  E  E    E  E  E  E  E  E  E  E
|-------------------------|--------------------------|
|-------------------------|--------------------------|
|----------12-12-12-------|----------10-10-10--------|
|-------------------------|-13-13-13----------13-13--|
|-10-10-10----------10-10-|--------------------------|
|-------------------------|--------------------------|


 Chorus
  C5                                  Bb5
  Gtr I
  Q  Q.   E E E   +E  E E E E E E E   Q  Q.   E E E   +E  E E E E E E E
|---------------|-------------------|---------------|--------------------|
|---------------|-------------------|---------------|--------------------|
|-5--5----5-5-5-|-(5)-5-5-5-5-5-5-5-|---------------|--------------------|
|-5--5----5-5-5-|-(5)-5-5-5-5-5-5-5-|-8--8----8-8-8-|-(8)-8-8-8-8-8-8-8--|
|-3--3----3-3-3-|-(3)-3-3-3-3-3-3-3-|-8--8----8-8-8-|-(8)-8-8-8-8-8-8-8--|
|---------------|-------------------|-8--8----8-8-8-|-(8)-8-8-8-8-8-8-8--|


  Ab5                                 F5
  Q  Q.   E E E   +E  E E E E E E E   Q  Q.   E E E   +E  E E E E E E E
|---------------|-------------------|---------------|--------------------|
|---------------|-------------------|---------------|--------------------|
|---------------|-------------------|---------------|--------------------|
|-6--6----6-6-6-|-(6)-6-6-6-6-6-6-6-|-3--3----3-3-3-|-(3)-3-3-3-3-3-3-3--|
|-6--6----6-6-6-|-(6)-6-6-6-6-6-6-6-|-3--3----3-3-3-|-(3)-3-3-3-3-3-3-3--|
|-6--6----6-6-6-|-(6)-6-6-6-6-6-6-6-|-3--3----3-3-3-|-(3)-3-3-3-3-3-3-3--|


  C5                                  Ab5
  Q  Q.   E E E   +E  E E E E E E E   Q  Q.   E E E   +E  E E E E E E E
|---------------|-------------------|---------------|--------------------|
|---------------|-------------------|---------------|--------------------|
|-5--5----5-5-5-|-(5)-5-5-5-5-5-5-5-|---------------|--------------------|
|-5--5----5-5-5-|-(5)-5-5-5-5-5-5-5-|-6--6----6-6-6-|-(6)-6-6-6-6-6-6-6--|
|-3--3----3-3-3-|-(3)-3-3-3-3-3-3-3-|-6--6----6-6-6-|-(6)-6-6-6-6-6-6-6--|
|---------------|-------------------|-6--6----6-6-6-|-(6)-6-6-6-6-6-6-6--|


  F5                                  Eb5            Db5/Ab
  Q  Q.   E E E   +E  E E E E E E E   Q  Q.   E Q    Q  Q.   E Q
|---------------|-------------------|--------------|---------------|
|---------------|-------------------|--------------|---------------|
|---------------|-------------------|--------------|---------------|
|-3--3----3-3-3-|-(3)-3-3-3-3-3-3-3-|-1--1----1-1--|-6--6----6-6---|
|-3--3----3-3-3-|-(3)-3-3-3-3-3-3-3-|-1--1----1-1--|-4--4----4-4---|
|-3--3----3-3-3-|-(3)-3-3-3-3-3-3-3-|-1--1----1-1--|-6--6----6-6---|


 Verse
  C5                          Ab5
  Gtr III
  H    E q  E   H    E q  E   H    E q  E   H    E q  E
|-------------|-------------|-------------|--------------|
|-------------|-------------|-------------|--------------|
|-5------5--5-|-5------5--5-|-------------|--------------|
|-5------5--5-|-5------5--5-|-6------6--6-|-6------6--6--|
|-3------3--3-|-3------3--3-|-6------6--6-|-6------6--6--|
|-------------|-------------|-6------6--6-|-6------6--6--|


  F5                          G5
  H    E q  E   H    E q  E   H    E q  E   H    E q  E
|-------------|-------------|-------------|--------------|
|-------------|-------------|-------------|--------------|
|-------------|-------------|-------------|--------------|
|-3------3--3-|-3------3--3-|-5------5--5-|-5------5--5--|
|-3------3--3-|-3------3--3-|-5------5--5-|-5------5--5--|
|-3------3--3-|-3------3--3-|-5------5--5-|-5------5--5--|


  C5
   H           E  q     E    H           E  q     E
|-------------------------|-------------------------|
|-------------------------|-------------------------|
|--5--------------5-----5-|--5--------------5-----5-|
|--5--------------5-----5-|--5--------------5-----5-|
|--3--------------3-----3-|--3--------------3-----3-|
|-------------------------|-------------------------|
|
| Gtr IV
|  E  E  E  E  E  E  E  E    E  E  E  E  E  E  E  E
|-------------------------|-------------------------|
|-------------------------|-------------------------|
|----------12-12-12-------|----------10-10-10-------|
|-10-10-10----------10-10-|-13-13-13----------13-13-|
|-------------------------|-------------------------|
|-------------------------|-------------------------|


  Ab5
   H           E  q     E    H           E  q     E
|-------------------------|--------------------------|
|-------------------------|--------------------------|
|-------------------------|--------------------------|
|--6--------------6-----6-|--6--------------6-----6--|
|--6--------------6-----6-|--6--------------6-----6--|
|--6--------------6-----6-|--6--------------6-----6--|
|
|  E  E  E  E  E  E  E  E    E  E  E  E  E  E  E  E
|-------------------------|--------------------------|
|-------------------------|--------------------------|
|----------12-12-12-------|----------10-10-10--------|
|-------------------------|-13-13-13----------13-13--|
|-11-11-11----------11-11-|--------------------------|
|-------------------------|--------------------------|


  F5
  H       E q   E   H         E  q   E
|-----------------|--------------------|
|-----------------|--------------------|
|-----------------|--------------------|
|-3---------3---3-|-3------------3---3-|
|-3---------3---3-|-3------------3---3-|
|-3---------3---3-|-3------------3---3-|
|
| E E E E E E E E   E E E  E  E  E E E
|-----------------|--------------------|
|-------8-8-8-----|--------------------|
|-----------------|-8-8-8-10-10-10-8-8-|
|-----------------|--------------------|
|-8-8-8-------8-8-|--------------------|
|-----------------|--------------------|


  Eb5                       Db5/Ab
   H           E  q     E    H           E  q     E
|-------------------------|--------------------------|
|-------------------------|--------------------------|
|-------------------------|--------------------------|
|--1--------------1-----1-|--6--------------6-----6--|
|--1--------------1-----1-|--4--------------4-----4--|
|--1--------------1-----1-|--6--------------6-----6--|
|
|  E  E  E  E  E  E  E  E    E  E  E  E  E  E  E  E
|-------------------------|--------------------------|
|-------------------------|--------------------------|
|----------12-12-12-------|----------10-10-10--------|
|-------------------------|-13-13-13----------13-13--|
|-10-10-10----------10-10-|--------------------------|
|-------------------------|--------------------------|


 Chorus
  C5                                  Bb5
  Gtr I
  Q  Q.   E E E   +E  E E E E E E E   Q  Q.   E E E   +E  E E E E E E E
|---------------|-------------------|---------------|--------------------|
|---------------|-------------------|---------------|--------------------|
|-5--5----5-5-5-|-(5)-5-5-5-5-5-5-5-|---------------|--------------------|
|-5--5----5-5-5-|-(5)-5-5-5-5-5-5-5-|-8--8----8-8-8-|-(8)-8-8-8-8-8-8-8--|
|-3--3----3-3-3-|-(3)-3-3-3-3-3-3-3-|-8--8----8-8-8-|-(8)-8-8-8-8-8-8-8--|
|---------------|-------------------|-8--8----8-8-8-|-(8)-8-8-8-8-8-8-8--|


  Ab5                                 F5
  Q  Q.   E E E   +E  E E E E E E E   Q  Q.   E E E   +E  E E E E E E E
|---------------|-------------------|---------------|--------------------|
|---------------|-------------------|---------------|--------------------|
|---------------|-------------------|---------------|--------------------|
|-6--6----6-6-6-|-(6)-6-6-6-6-6-6-6-|-3--3----3-3-3-|-(3)-3-3-3-3-3-3-3--|
|-6--6----6-6-6-|-(6)-6-6-6-6-6-6-6-|-3--3----3-3-3-|-(3)-3-3-3-3-3-3-3--|
|-6--6----6-6-6-|-(6)-6-6-6-6-6-6-6-|-3--3----3-3-3-|-(3)-3-3-3-3-3-3-3--|


  C5                                  Ab5
  Q  Q.   E E E   +E  E E E E E E E   Q  Q.   E E E   +E  E E E E E E E
|---------------|-------------------|---------------|--------------------|
|---------------|-------------------|---------------|--------------------|
|-5--5----5-5-5-|-(5)-5-5-5-5-5-5-5-|---------------|--------------------|
|-5--5----5-5-5-|-(5)-5-5-5-5-5-5-5-|-6--6----6-6-6-|-(6)-6-6-6-6-6-6-6--|
|-3--3----3-3-3-|-(3)-3-3-3-3-3-3-3-|-6--6----6-6-6-|-(6)-6-6-6-6-6-6-6--|
|---------------|-------------------|-6--6----6-6-6-|-(6)-6-6-6-6-6-6-6--|


  F5                                  Eb5            Db5/Ab
  Q  Q.   E E E   +E  E E E E E E E   Q  Q.   E Q    Q  Q.   E Q
|---------------|-------------------|--------------|---------------|
|---------------|-------------------|--------------|---------------|
|---------------|-------------------|--------------|---------------|
|-3--3----3-3-3-|-(3)-3-3-3-3-3-3-3-|-1--1----1-1--|-6--6----6-6---|
|-3--3----3-3-3-|-(3)-3-3-3-3-3-3-3-|-1--1----1-1--|-4--4----4-4---|
|-3--3----3-3-3-|-(3)-3-3-3-3-3-3-3-|-1--1----1-1--|-6--6----6-6---|


 Bridge
  C5
   E  E  E  E  E  E  E  E    E  E  E  E  E  E  E  E
|-------------------------|-------------------------|
|-------------------------|-------------------------|
|--5--5--5--5--5--5--5--5-|--5--5--5--5--5--5--5--5-|
|--5--5--5--5--5--5--5--5-|--5--5--5--5--5--5--5--5-|
|--3--3--3--3--3--3--3--3-|--3--3--3--3--3--3--3--3-|
|-------------------------|-------------------------|
|
| Gtr II
|  E  E  E  E  E  E  E  E    E  E  E  E  E  E  E  E
|-------------------------|-------------------------|
|-13-13-13-13-13-13-13-13-|-13-13-13-13-13-13-13-13-|
|-12-12-12-12-12-12-12-12-|-12-12-12-12-12-12-12-12-|
|-10-10-10-10-10-10-10-10-|-10-10-10-10-10-10-10-10-|
|-------------------------|-------------------------|
|-------------------------|-------------------------|


  Bb5
   E  E  E  E  E  E  E  E    E  E  E  E  E  E  E  E
|-------------------------|--------------------------|
|-------------------------|--------------------------|
|-------------------------|--------------------------|
|--8--8--8--8--8--8--8--8-|--8--8--8--8--8--8--8--8--|
|--8--8--8--8--8--8--8--8-|--8--8--8--8--8--8--8--8--|
|--8--8--8--8--8--8--8--8-|--8--8--8--8--8--8--8--8--|
|
|  E  E  E  E  E  E  E  E    E  E  E  E  E  E  E  E
|-------------------------|--------------------------|
|-16-16-16-16-16-16-16-16-|-16-16-16-16-16-16-16-16--|
|-15-15-15-15-15-15-15-15-|-15-15-15-15-15-15-15-15--|
|-13-13-13-13-13-13-13-13-|-13-13-13-13-13-13-13-13--|
|-------------------------|--------------------------|
|-------------------------|--------------------------|


  Ab5
   E  E  E  E  E  E  E  E    E  E  E  E  E  E  E  E
|-------------------------|-------------------------|
|-------------------------|-------------------------|
|-------------------------|-------------------------|
|--6--6--6--6--6--6--6--6-|--6--6--6--6--6--6--6--6-|
|--6--6--6--6--6--6--6--6-|--6--6--6--6--6--6--6--6-|
|--6--6--6--6--6--6--6--6-|--6--6--6--6--6--6--6--6-|
|
|  E  E  E  E  E  E  E  E    E  E  E  E  E  E  E  E
|-------------------------|-------------------------|
|-16-16-16-16-16-16-16-16-|-16-16-16-16-16-16-16-16-|
|-15-15-15-15-15-15-15-15-|-15-15-15-15-15-15-15-15-|
|-13-13-13-13-13-13-13-13-|-13-13-13-13-13-13-13-13-|
|-11-11-11-11-11-11-11-11-|-11-11-11-11-11-11-11-11-|
|-------------------------|-------------------------|


  F5
   E  E  E  E  E  E  E  E    E  E  E  E  E  E  E  E
|-------------------------|--------------------------|
|-------------------------|--------------------------|
|-------------------------|--------------------------|
|--3--3--3--3--3--3--3--3-|--3--3--3--3--3--3--3--3--|
|--3--3--3--3--3--3--3--3-|--3--3--3--3--3--3--3--3--|
|--3--3--3--3--3--3--3--3-|--3--3--3--3--3--3--3--3--|
|
|  E  E  E  E  E  E  E  E    E  E  E  E  E  E  E  E
|-------------------------|--------------------------|
|-16-16-16-16-16-16-16-16-|-16-16-16-16-16-16-16-16--|
|-15-15-15-15-15-15-15-15-|-15-15-15-15-15-15-15-15--|
|-13-13-13-13-13-13-13-13-|-13-13-13-13-13-13-13-13--|
|-11-11-11-11-11-11-11-11-|-11-11-11-11-11-11-11-11--|
|-------------------------|--------------------------|


  C5
   E  E  E  E  E  E  E  E    E  E  E  E  E  E  E  E
|-------------------------|-------------------------|
|-------------------------|-------------------------|
|--5--5--5--5--5--5--5--5-|--5--5--5--5--5--5--5--5-|
|--5--5--5--5--5--5--5--5-|--5--5--5--5--5--5--5--5-|
|--3--3--3--3--3--3--3--3-|--3--3--3--3--3--3--3--3-|
|-------------------------|-------------------------|
|
|  E  E  E  E  E  E  E  E    E  E  E  E  E  E  E  E
|-------------------------|-------------------------|
|-13-13-13-13-13-13-13-13-|-13-13-13-13-13-13-13-13-|
|-12-12-12-12-12-12-12-12-|-12-12-12-12-12-12-12-12-|
|-10-10-10-10-10-10-10-10-|-10-10-10-10-10-10-10-10-|
|-------------------------|-------------------------|
|-------------------------|-------------------------|


  Ab5
   E  E  E  E  E  E  E  E    E  E  E  E  E  E  E  E
|-------------------------|--------------------------|
|-------------------------|--------------------------|
|-------------------------|--------------------------|
|--6--6--6--6--6--6--6--6-|--6--6--6--6--6--6--6--6--|
|--6--6--6--6--6--6--6--6-|--6--6--6--6--6--6--6--6--|
|--6--6--6--6--6--6--6--6-|--6--6--6--6--6--6--6--6--|
|
|  E  E  E  E  E  E  E  E    E  E  E  E  E  E  E  E
|-------------------------|--------------------------|
|-16-16-16-16-16-16-16-16-|-16-16-16-16-16-16-16-16--|
|-15-15-15-15-15-15-15-15-|-15-15-15-15-15-15-15-15--|
|-13-13-13-13-13-13-13-13-|-13-13-13-13-13-13-13-13--|
|-------------------------|--------------------------|
|-------------------------|--------------------------|


  F5
   E  E  E  E  E  E  E  E    E  E  E  E  E  E  E  E
|-------------------------|-------------------------|
|-------------------------|-------------------------|
|-------------------------|-------------------------|
|--3--3--3--3--3--3--3--3-|--3--3--3--3--3--3--3--3-|
|--3--3--3--3--3--3--3--3-|--3--3--3--3--3--3--3--3-|
|--3--3--3--3--3--3--3--3-|--3--3--3--3--3--3--3--3-|
|
|  E  E  E  E  E  E  E  E    E  E  E  E  E  E  E  E
|-------------------------|-------------------------|
|-16-16-16-16-16-16-16-16-|-16-16-16-16-16-16-16-16-|
|-15-15-15-15-15-15-15-15-|-15-15-15-15-15-15-15-15-|
|-13-13-13-13-13-13-13-13-|-13-13-13-13-13-13-13-13-|
|-11-11-11-11-11-11-11-11-|-11-11-11-11-11-11-11-11-|
|-------------------------|-------------------------|


  Eb5                       Db5/Ab
   E  E  E  E  E  E  E  E    E  E  E  E  E  E  E  E
|-------------------------|--------------------------|
|-------------------------|--------------------------|
|-------------------------|--------------------------|
|--1--1--1--1--1--1--1--1-|--6--6--6--6--6--6--6--6--|
|--1--1--1--1--1--1--1--1-|--4--4--4--4--4--4--4--4--|
|--1--1--1--1--1--1--1--1-|--6--6--6--6--6--6--6--6--|
|
|  E  E  E  E  E  E  E  E    E  E  E  E  E  E  E  E
|-------------------------|--------------------------|
|-16-16-16-16-16-16-16-16-|-16-16-16-16-16-16-16-16--|
|-15-15-15-15-15-15-15-15-|-15-15-15-15-15-15-15-15--|
|-13-13-13-13-13-13-13-13-|-13-13-13-13-13-13-13-13--|
|-11-11-11-11-11-11-11-11-|-11-11-11-11-11-11-11-11--|
|-------------------------|--------------------------|


 Interlude
  Wx7          H    H
|------------|------------|
|------------|------------|
|------------|------------|
|------------|------x\----|
|------------|------x\----|
|------------|------x\----|


 Out-Chorus
  C5                                  Ab5
  Gtr I
  Q  Q.   E E E   +E  E E E E E E E   Q  Q.   E E E   +E  E E E E E E E
|---------------|-------------------|---------------|--------------------|
|---------------|-------------------|---------------|--------------------|
|-5--5----5-5-5-|-(5)-5-5-5-5-5-5-5-|---------------|--------------------|
|-5--5----5-5-5-|-(5)-5-5-5-5-5-5-5-|-6--6----6-6-6-|-(6)-6-6-6-6-6-6-6--|
|-3--3----3-3-3-|-(3)-3-3-3-3-3-3-3-|-6--6----6-6-6-|-(6)-6-6-6-6-6-6-6--|
|---------------|-------------------|-6--6----6-6-6-|-(6)-6-6-6-6-6-6-6--|


  F5                                  Eb5            Db5/Ab
  Q  Q.   E E E   +E  E E E E E E E   Q  Q.   E Q    Q  Q.   E Q
|---------------|-------------------|--------------|---------------|
|---------------|-------------------|--------------|---------------|
|---------------|-------------------|--------------|---------------|
|-3--3----3-3-3-|-(3)-3-3-3-3-3-3-3-|-1--1----1-1--|-6--6----6-6---|
|-3--3----3-3-3-|-(3)-3-3-3-3-3-3-3-|-1--1----1-1--|-4--4----4-4---|
|-3--3----3-3-3-|-(3)-3-3-3-3-3-3-3-|-1--1----1-1--|-6--6----6-6---|


  C5
   Q     Q.        E  E  E   +E   E  E  E  E  E  E  E
|--------------------------|--------------------------|
|--------------------------|--------------------------|
|--5-----5---------5--5--5-|-(5)--5--5--5--5--5--5--5-|
|--5-----5---------5--5--5-|-(5)--5--5--5--5--5--5--5-|
|--3-----3---------3--3--3-|-(3)--3--3--3--3--3--3--3-|
|--------------------------|--------------------------|
|
| Gtr II
|  E  E  E   E  E  E  E  E    E   E  E  E  E  E  E  E
|--------------------------|--------------------------|
|-13-13-13--13-13-13-13-13-|-13--13-13-13-13-13-13-13-|
|-12-12-12--12-12-12-12-12-|-12--12-12-12-12-12-12-12-|
|-10-10-10--10-10-10-10-10-|-10--10-10-10-10-10-10-10-|
|--------------------------|--------------------------|
|--------------------------|--------------------------|


  Bb5
   Q     Q.        E  E  E   +E   E  E  E  E  E  E  E
|--------------------------|---------------------------|
|--------------------------|---------------------------|
|--------------------------|---------------------------|
|--8-----8---------8--8--8-|-(8)--8--8--8--8--8--8--8--|
|--8-----8---------8--8--8-|-(8)--8--8--8--8--8--8--8--|
|--8-----8---------8--8--8-|-(8)--8--8--8--8--8--8--8--|
|
|  E  E  E   E  E  E  E  E    E   E  E  E  E  E  E  E
|--------------------------|---------------------------|
|-16-16-16--16-16-16-16-16-|-16--16-16-16-16-16-16-16--|
|-15-15-15--15-15-15-15-15-|-15--15-15-15-15-15-15-15--|
|-13-13-13--13-13-13-13-13-|-13--13-13-13-13-13-13-13--|
|--------------------------|---------------------------|
|--------------------------|---------------------------|


  Ab5
   Q     Q.        E  E  E   +E   E  E  E  E  E  E  E
|--------------------------|--------------------------|
|--------------------------|--------------------------|
|--------------------------|--------------------------|
|--6-----6---------6--6--6-|-(6)--6--6--6--6--6--6--6-|
|--6-----6---------6--6--6-|-(6)--6--6--6--6--6--6--6-|
|--6-----6---------6--6--6-|-(6)--6--6--6--6--6--6--6-|
|
|  E  E  E   E  E  E  E  E    E   E  E  E  E  E  E  E
|--------------------------|--------------------------|
|-16-16-16--16-16-16-16-16-|-16--16-16-16-16-16-16-16-|
|-15-15-15--15-15-15-15-15-|-15--15-15-15-15-15-15-15-|
|-13-13-13--13-13-13-13-13-|-13--13-13-13-13-13-13-13-|
|-11-11-11--11-11-11-11-11-|-11--11-11-11-11-11-11-11-|
|--------------------------|--------------------------|


  F5
   Q     Q.        E  E  E   W
|--------------------------|------*|
|--------------------------|------*|
|--------------------------|------*|
|--3-----3---------3--3--3-|------*|
|--3-----3---------3--3--3-|------*|
|--3-----3---------3--3--3-|------*|
|
|  E  E  E   E  E  E  E  E   W
|--------------------------|------*|
|-16-16-16--16-16-16-16-16-|------*|
|-15-15-15--15-15-15-15-15-|------*|
|-13-13-13--13-13-13-13-13-|------*|
|-11-11-11--11-11-11-11-11-|------*|
|--------------------------|------*|



2. ALIVE N' OUT OF CONTROL

Tuning - Drop C

Intro
    Q=235
    N.C.
   4/4
    Gtr I
    ~                       ~
    W          +W           W          +W
||-----------|------------|----------|--------|
||o----------|------------|----------|--------|
||-----------|------------|----------|--------|
||-----------|------------|----------|--------|
||o-5--------|-(5)--------|-8--------|-(8)----|
||-----------|------------|----------|--------|


  ~                       ~
  W          +W           W          +W
|----------|------------|----------|---------||
|----------|------------|----------|--------o||
|----------|------------|----------|---------||
|----------|------------|----------|---------||
|----------|------------|----------|--------o||
|-8--------|-(8)--------|-5--------|-(5)-----||


    D5                                   F5  D5  F5    D5          F5
    PM|    PM|      PM--------|      PM|     PM|       PM--------|
    E E Q  E E Q    E E E E E E Q    E E  Q  E E  Q    E E E E E E  Q
||----------------|----------------|-----------------|------------------|
||o---------------|----------------|-----------------|------------------|
||------7------7--|-------------7--|-----10------10--|-------------10---|
||------7------7--|-------------7--|-----10------10--|-------------10---|
||o-0-0-5--0-0-5--|-0-0-0-0-0-0-5--|-0-0--8--0-0--8--|-0-0-0-0-0-0--8---|
||--0-0----0-0----|-0-0-0-0-0-0----|-0-0-----0-0-----|-0-0-0-0-0-0------|


  D5  Bb5D5  Bb5  D5          Bb5  D5  G5 D5  G5   D5          G5
  PM|    PM|      PM--------|      PM|    PM|      PM--------|
  E E Q  E E Q    E E E E E E Q    E E Q  E E Q    E E E E E E Q
|---------------|----------------|---------------|-----------------||
|---------------|----------------|---------------|----------------o||
|---------------|----------------|---------------|-----------------||
|-----8------8--|-------------8--|-----5------5--|-------------5---||
|-0-0-8--0-0-8--|-0-0-0-0-0-0-8--|-0-0-5--0-0-5--|-0-0-0-0-0-0-5--o||
|-0-0-8--0-0-8--|-0-0-0-0-0-0-8--|-0-0-5--0-0-5--|-0-0-0-0-0-0-5---||


   Verse
    D5
    PM---------------------------------|
    E E H.        Q  E E E E E E   E E H.        W     4x
||--------------|----------------|-------------|-------||
||o-------------|----------------|-------------|------o||
||--------------|----------------|-------------|-------||
||--------------|----------------|-------------|-------||
||o-0-0---------|----0-0---0-0---|-0-0---------|------o||
||--0-0---------|----0-0---0-0---|-0-0---------|-------||


  N.C.
  E E E E E E E E   E E E E E E E E   E E E E E E E E   E E E E E E Q
|-----------------|-----------------|-----------------|----------------|
|-----------------|-----------------|-----------------|----------------|
|-----------------|-----------------|-----------------|----------------|
|-----------------|-----------------|-----------------|----------------|
|-----------------|-----------------|-----------------|-------------5--|
|-0-0-3-0-2-0-3-0-|-5-0-0-3-0-0-2-3-|-0-0-3-0-2-0-3-0-|-5-0-0-3-0-0----|


                                                        D5
                                                        PM------------|
  E E E E E E E E   E E E E E E E E   E E E E E E E E   E E E E E E E E
|-----------------|-----------------|-----------------|-----------------|
|-----------------|-----------------|-----------------|-----------------|
|-----------------|-----------------|-----------------|-----------------|
|-----------------|-----------------|-----------------|-----------------|
|-----------------|-----------------|-----------------|-0-0-0-0-0-0-0-0-|
|-0-0-3-0-2-0-3-0-|-5-0-0-3-0-0-2-3-|-0-0-3-0-2-0-3-0-|-0-0-0-0-0-0-0-0-|


 Chorus
  D5                              F5
  PM|                         PM|
  E E  H    E E    W          E E  H    E E    W
|---------------|-----------|---------------|-------|
|---------------|-----------|---------------|-------|
|---------------|-----------|-----10--------|-10----|
|-----12--------|-12--------|-----10--------|-10----|
|-0-0-12----x-x-|-12--------|-0-0--8----x-x-|--8----|
|-0-0-12----x-x-|-12--------|-0-0-------x-x-|-------|


  D5  Bb5                   D5  G5
  PM|                       PM|
  E E H    E E   W          E E H    E E   W
|--------------|----------|--------------|------|
|--------------|----------|--------------|------|
|--------------|----------|--------------|------|
|-----8--------|-8--------|-----5--------|-5----|
|-0-0-8----x-x-|-8--------|-0-0-5----x-x-|-5----|
|-0-0-8----x-x-|-8--------|-0-0-5----x-x-|-5----|


  D5                              F5
  PM|                         PM|
  E E  H    E E    W          E E  H    E E    W
|---------------|-----------|---------------|-------|
|---------------|-----------|---------------|-------|
|---------------|-----------|-----10--------|-10----|
|-----12--------|-12--------|-----10--------|-10----|
|-0-0-12----x-x-|-12--------|-0-0--8----x-x-|--8----|
|-0-0-12----x-x-|-12--------|-0-0-------x-x-|-------|


  D5  Bb5                   D5  G5 D5  G5   D5  G5 D5  G5
  PM|                       PM|    PM|      PM|    PM|
  E E H    E E   W          E E Q  E E Q    E E Q  E E Q
|--------------|----------|---------------|---------------|
|--------------|----------|---------------|---------------|
|--------------|----------|---------------|---------------|
|-----8--------|-8--------|-----5------5--|-----5------5--|
|-0-0-8----x-x-|-8--------|-0-0-5--0-0-5--|-0-0-5--0-0-5--|
|-0-0-8----x-x-|-8--------|-0-0-5--0-0-5--|-0-0-5--0-0-5--|


   Verse
    D5
    PM-------------------------------------------|
    E E H.        Q  E E E E E E   E E H.        W     4x
||--------------|----------------|-------------|-------||
||o-------------|----------------|-------------|------o||
||--------------|----------------|-------------|-------||
||--------------|----------------|-------------|-------||
||o-0-0---------|----0-0---0-0---|-0-0---------|------o||
||--0-0---------|----0-0---0-0---|-0-0---------|-------||


  N.C.
  E E E E E E E E   E E E E E E E E   E E E E E E E E   E E E E E E Q
|-----------------|-----------------|-----------------|----------------|
|-----------------|-----------------|-----------------|----------------|
|-----------------|-----------------|-----------------|----------------|
|-----------------|-----------------|-----------------|----------------|
|-----------------|-----------------|-----------------|-------------5--|
|-0-0-3-0-2-0-3-0-|-5-0-0-3-0-0-2-3-|-0-0-3-0-2-0-3-0-|-5-0-0-3-0-0----|


                                                        D5
                                                        PM------------|
  E E E E E E E E   E E E E E E E E   E E E E E E E E   E E E E E E E E
|-----------------|-----------------|-----------------|-----------------|
|-----------------|-----------------|-----------------|-----------------|
|-----------------|-----------------|-----------------|-----------------|
|-----------------|-----------------|-----------------|-----------------|
|-----------------|-----------------|-----------------|-0-0-0-0-0-0-0-0-|
|-0-0-3-0-2-0-3-0-|-5-0-0-3-0-0-2-3-|-0-0-3-0-2-0-3-0-|-0-0-0-0-0-0-0-0-|


 Chorus
  D5                              F5
  PM|                         PM|
  E E  H    E E    W          E E  H    E E    W
|---------------|-----------|---------------|-------|
|---------------|-----------|---------------|-------|
|---------------|-----------|-----10--------|-10----|
|-----12--------|-12--------|-----10--------|-10----|
|-0-0-12----x-x-|-12--------|-0-0--8----x-x-|--8----|
|-0-0-12----x-x-|-12--------|-0-0-------x-x-|-------|


  D5  Bb5                   D5  G5
  PM|                       PM|
  E E H    E E   W          E E H    E E   W
|--------------|----------|--------------|------|
|--------------|----------|--------------|------|
|--------------|----------|--------------|------|
|-----8--------|-8--------|-----5--------|-5----|
|-0-0-8----x-x-|-8--------|-0-0-5----x-x-|-5----|
|-0-0-8----x-x-|-8--------|-0-0-5----x-x-|-5----|


  D5                              F5
  PM|                         PM|
  E E  H    E E    W          E E  H    E E    W
|---------------|-----------|---------------|-------|
|---------------|-----------|---------------|-------|
|---------------|-----------|-----10--------|-10----|
|-----12--------|-12--------|-----10--------|-10----|
|-0-0-12----x-x-|-12--------|-0-0--8----x-x-|--8----|
|-0-0-12----x-x-|-12--------|-0-0-------x-x-|-------|


  D5  Bb5                     D5  G5 D5  G5   D5  G5 D5  G5
  PM|                         PM|    PM|      PM|    PM|
  E E H    E E   W            E E Q  E E Q    E E Q  E E Q
|--------------|----------||----------------|----------------||
|--------------|----------||o---------------|---------------o||
|--------------|----------||----------------|----------------||
|-----8--------|-8--------||------5------5--|-----5------5---||
|-0-0-8----x-x-|-8--------||o-0-0-5--0-0-5--|-0-0-5--0-0-5--o||
|-0-0-8----x-x-|-8--------||--0-0-5--0-0-5--|-0-0-5--0-0-5---||


 Verse
  D5
  PM-------------------------------------------|
  E E H.        Q  E E E E E E   E E H.        W
|-------------|----------------|-------------|------|
|-------------|----------------|-------------|------|
|-------------|----------------|-------------|------|
|-------------|----------------|-------------|------|
|-0-0---------|----0-0---0-0---|-0-0---------|------|
|-0-0---------|----0-0---0-0---|-0-0---------|------|


  PM---------------------------------|
  E E H.        Q  E E E E E E   E E H.        H     H
|-------------|----------------|-------------|-------------|
|-------------|----------------|-------------|-------------|
|-------------|----------------|-------------|-------------|
|-------------|----------------|-------------|-------------|
|-0-0---------|----0-0---0-0---|-0-0---------|------12\----|
|-0-0---------|----0-0---0-0---|-0-0---------|------12\----|


  PM---------------------------------|
  E E H.        Q  E E E E E E   E E H.        W
|-------------|----------------|-------------|------|
|-------------|----------------|-------------|------|
|-------------|----------------|-------------|------|
|-------------|----------------|-------------|------|
|-0-0---------|----0-0---0-0---|-0-0---------|------|
|-0-0---------|----0-0---0-0---|-0-0---------|------|


  PM-----------------------------------|
  E H..         +Q   E E E E E E   E E H.        W
|-------------|------------------|-------------|------|
|-------------|------------------|-------------|------|
|-------------|------------------|-------------|------|
|-------------|------------------|-------------|------|
|-0-0---------|-(0)--0-0---0-0---|-0-0---------|------|
|-0-0---------|-(0)--0-0---0-0---|-0-0---------|------|


 Interlude
  D5
  PM--------------------------------------------
  E E  H.                 Q    E  E  E E  E  E
|----------------------|-----------------------|
|----------------------|-----------------------|
|----------------------|-----------------------|
|----------------------|-----------------------|
|-0-0------------------|-------0--0----0--0----|
|-0-0------------------|-------0--0----0--0----|
|
| Gtr II
| Q    E   E E  E  E E    E  E E  E  E E  E  E
|----------------------|-----------------------|
|----------------------|-----------------------|
|----------------------|-----------------------|
|-0---12--10-0-12-10-0-|-12-10-0-12-10-0-12-10-|
|----------------------|-----------------------|
|----------------------|-----------------------|

  E E  H.                 W
|----------------------|-----------------------|
|----------------------|-----------------------|
|----------------------|-----------------------|
|----------------------|-----------------------|
|-0-0------------------|-----------------------|
|-0-0------------------|-----------------------|
|
| Q    E   E E  E  E E    E  E E  E  E E  E  E
|----------------------|-----------------------|
|----------------------|-----------------------|
|----------------------|-----------------------|
|-0---15--12-0-15-12-0-|-15-12-0-15-12-0-15-12-|
|----------------------|-----------------------|
|----------------------|-----------------------|


  PM--------------------------------------------
  E E  H.                 Q    E  E  E E  E  E
|----------------------|-----------------------|
|----------------------|-----------------------|
|----------------------|-----------------------|
|----------------------|-----------------------|
|-0-0------------------|-------0--0----0--0----|
|-0-0------------------|-------0--0----0--0----|
|
| Q    E   E E  E  E E    E  E E  E  E E  E  E
|----------------------|-----------------------|
|----------------------|-----------------------|
|----------------------|-----------------------|
|-0---14--12-0-14-12-0-|-14-12-0-14-12-0-14-12-|
|----------------------|-----------------------|
|----------------------|-----------------------|


 -----|
  E E  H.                 W
|----------------------|-----------------------|
|----------------------|-----------------------|
|----------------------|-----------------------|
|----------------------|-----------------------|
|-0-0------------------|-----------------------|
|-0-0------------------|-----------------------|
|
| Q    E   E E  E  E E    E  E E  E  E E  E  E
|----------------------|-----------------------|
|----------------------|-----------------------|
|----------------------|-----------------------|
|-0---15--12-0-15-12-0-|-17-15-0-17-15-0-17-15-|
|----------------------|-----------------------|
|----------------------|-----------------------|


  PM--------------------------------------------
  E E  H.                 Q    E  E  E E  E  E
|----------------------|-----------------------|
|----------------------|-----------------------|
|----------------------|-----------------------|
|----------------------|-----------------------|
|-0-0------------------|-------0--0----0--0----|
|-0-0------------------|-------0--0----0--0----|
|
| Q    E   E E  E  E E    E  E E  E  E E  E  E
|----------------------|-----------------------|
|----------------------|-----------------------|
|----------------------|-----------------------|
|-0---12--10-0-12-10-0-|-12-10-0-12-10-0-12-10-|
|----------------------|-----------------------|
|----------------------|-----------------------|


 ---|
  E E  H.                 W
|----------------------|-----------------------|
|----------------------|-----------------------|
|----------------------|-----------------------|
|----------------------|-----------------------|
|-0-0------------------|-----------------------|
|-0-0------------------|-----------------------|
|
| Q    E   E E  E  E E    E  E E  E  E E  E  E
|----------------------|-----------------------|
|----------------------|-----------------------|
|----------------------|-----------------------|
|-0---15--12-0-15-12-0-|-15-12-0-15-12-0-15-12-|
|----------------------|-----------------------|
|----------------------|-----------------------|


  PM--------------------------------------------
  E E  H.                 Q    E  E  E E  E  E
|----------------------|-----------------------|
|----------------------|-----------------------|
|----------------------|-----------------------|
|----------------------|-----------------------|
|-0-0------------------|-------0--0----0--0----|
|-0-0------------------|-------0--0----0--0----|
|
| Q    E   E E  E  E E    E  E E  E  E E  E  E
|----------------------|-----------------------|
|----------------------|-----------------------|
|----------------------|-----------------------|
|-0---14--12-0-14-12-0-|-14-12-0-14-12-0-14-12-|
|----------------------|-----------------------|
|----------------------|-----------------------|


 -----|
  E E  H.               W
|--------------------|-----------|
|--------------------|-----------|
|--------------------|-----------|
|--------------------|-----------|
|-0-0----------------|-----------|
|-0-0----------------|-----------|
|
| Q    E   E E E E E    W
|--------------------|-----------|
|--------------------|-----------|
|--------------------|-----------|
|-0---15--12-0-0-0-0-|-17b18r====|
|--------------------|-----------|
|--------------------|-----------|


 Bridge
  D5
  PM|       PM|         PM---------|
  E E  Q    E E  Q      E E E  E E E  Q
|--------------------|---------------------|
|--------------------|---------------------|
|------7---------7---|----------------7----|
|------7---------7---|----------------7----|
|-0-0--5----0-0--5---|--0-0-0--0-0-0--5----|
|-0-0-------0-0------|--0-0-0--0-0-0-------|
|
| Gtr III
| E E  E E  E E  E E    E E E  E E E  E  E
|--------------------|---------------------|
|--------------------|---------------------|
|--------------------|---------------------|
|-0-0-15-0-14-0-15-0-|-17-0-0-15-0-0-14h15-|
|--------------------|---------------------|
|--------------------|---------------------|


      F5   D5   F5     D5            F5
  PM|       PM|         PM---------|
  E E  Q    E E  Q      E E E  E E E  Q
|--------------------|-------------------|
|--------------------|-------------------|
|-----10--------10---|---------------10--|
|-----10--------10---|---------------10--|
|-0-0--8----0-0--8---|--0-0-0--0-0-0--8--|
|-0-0-------0-0------|--0-0-0--0-0-0-----|
|
| E E  E E  E E  E E    E E E  E E E  Q
|--------------------|-------------------|
|--------------------|-------------------|
|--------------------|-------------------|
|-0-0-15-0-14-0-15-0-|-17-0-0-15-0-0-12--|
|--------------------|-------------------|
|--------------------|-------------------|


  D5  Bb5  D5   Bb5    D5            Bb5
  PM|       PM|         PM---------|
  E E  Q    E E  Q      E E E  E E E  Q
|--------------------|---------------------|
|--------------------|---------------------|
|--------------------|---------------------|
|------8---------8---|----------------8----|
|-0-0--8----0-0--8---|--0-0-0--0-0-0--8----|
|-0-0--8----0-0--8---|--0-0-0--0-0-0--8----|
|
| E E  E E  E E  E E    E E E  E E E  E  E
|--------------------|---------------------|
|--------------------|---------------------|
|--------------------|---------------------|
|-0-0-15-0-14-0-15-0-|-17-0-0-15-0-0-14h15-|
|--------------------|---------------------|
|--------------------|---------------------|


  D5  G5   D5   G5     D5             G5
  PM|       PM|         PM----------|
  E E  Q    E E  Q      E E  E E  E E  Q
|--------------------|--------------------|
|--------------------|--------------------|
|--------------------|--------------------|
|------5---------5---|-----------------5--|
|-0-0--5----0-0--5---|--0-0--0-0--0-0--5--|
|-0-0--5----0-0--5---|--0-0--0-0--0-0--5--|
|
| E E  E E  E E  E E    E E  E E  E E  Q
|--------------------|--------------------|
|--------------------|--------------------|
|--------------------|--------------------|
|-0-0-15-0-14-0-15-0-|-17-0-15-0-14-0-15--|
|--------------------|--------------------|
|--------------------|--------------------|


  D5
  PM|       PM|         PM---------|
  E E  Q    E E  Q      E E E  E E E  Q
|--------------------|---------------------|
|--------------------|---------------------|
|------7---------7---|----------------7----|
|------7---------7---|----------------7----|
|-0-0--5----0-0--5---|--0-0-0--0-0-0--5----|
|-0-0-------0-0------|--0-0-0--0-0-0-------|
|
| E E  E E  E E  E E    E E E  E E E  E  E
|--------------------|---------------------|
|--------------------|---------------------|
|--------------------|---------------------|
|-0-0-15-0-14-0-15-0-|-17-0-0-15-0-0-14h15-|
|--------------------|---------------------|
|--------------------|---------------------|


      F5   D5   F5     D5            F5
  PM|       PM|         PM---------|
  E E  Q    E E  Q      E E E  E E E  Q
|--------------------|-------------------|
|--------------------|-------------------|
|-----10--------10---|---------------10--|
|-----10--------10---|---------------10--|
|-0-0--8----0-0--8---|--0-0-0--0-0-0--8--|
|-0-0-------0-0------|--0-0-0--0-0-0-----|
|
| E E  E E  E E  E E    E E E  E E E  Q
|--------------------|-------------------|
|--------------------|-------------------|
|--------------------|-------------------|
|-0-0-15-0-14-0-15-0-|-17-0-0-15-0-0-12--|
|--------------------|-------------------|
|--------------------|-------------------|


  D5  Bb5  D5   Bb5    D5            Bb5
  PM|       PM|         PM---------|
  E E  Q    E E  Q      E E E  E E E  Q
|--------------------|---------------------|
|--------------------|---------------------|
|--------------------|---------------------|
|------8---------8---|----------------8----|
|-0-0--8----0-0--8---|--0-0-0--0-0-0--8----|
|-0-0--8----0-0--8---|--0-0-0--0-0-0--8----|
|
| E E  E E  E E  E E    E E E  E E E  E  E
|--------------------|---------------------|
|--------------------|---------------------|
|--------------------|---------------------|
|-0-0-15-0-14-0-15-0-|-17-0-0-15-0-0-14h15-|
|--------------------|---------------------|
|--------------------|---------------------|


  D5  G5   D5   G5     D5
  PM|       PM|         PM---------------|
  E E  Q    E E  Q      E E  E E  E E  E E
|--------------------|---------------------|
|--------------------|---------------------|
|--------------------|---------------------|
|------5---------5---|---------------------|
|-0-0--5----0-0--5---|--0-0--0-0--0-0--0-0-|
|-0-0--5----0-0--5---|--0-0--0-0--0-0--0-0-|
|
| E E  E E  E E  E E    E E  E E  E E  Q
|--------------------|---------------------|
|--------------------|---------------------|
|--------------------|---------------------|
|-0-0-15-0-14-0-15-0-|-17-0-15-0-14-0-15---|
|--------------------|---------------------|
|--------------------|---------------------|


 Chorus
  D5
  PM|
  E E  H         E E    W
|--------------------|-------------------|
|--------------------|-------------------|
|--------------------|-------------------|
|-----12-------------|-12----------------|
|-0-0-12---------x-x-|-12----------------|
|-0-0-12---------x-x-|-12----------------|
|
| Gtr II
| E E  E E  E E  E E    Q.    Q.    E  E
|--------------------|-------------------|
|--------------------|-------------------|
|--------------------|-------------------|
|-0-0-15-0-14-0-15-0-|-17----15----14h15-|
|--------------------|-------------------|
|--------------------|-------------------|


      F5
  PM|
  E E  H         E E    W
|--------------------|-----------------|
|--------------------|-----------------|
|-----10-------------|-10--------------|
|-----10-------------|-10--------------|
|-0-0--8---------x-x-|--8--------------|
|-0-0------------x-x-|-----------------|
|
| E E  E E  E E  E E    Q.    Q.    Q
|--------------------|-----------------|
|--------------------|-----------------|
|--------------------|-----------------|
|-0-0-15-0-14-0-15-0-|-17----15----12--|
|--------------------|-----------------|
|--------------------|-----------------|


  D5  Bb5
  PM|
  E E  H         E E    W
|--------------------|-------------------|
|--------------------|-------------------|
|--------------------|-------------------|
|------8-------------|--8----------------|
|-0-0--8---------x-x-|--8----------------|
|-0-0--8---------x-x-|--8----------------|
|
| E E  E E  E E  E E    Q.    Q.    E  E
|--------------------|-------------------|
|--------------------|-------------------|
|--------------------|-------------------|
|-0-0-15-0-14-0-15-0-|-17----15----14h15-|
|--------------------|-------------------|
|--------------------|-------------------|


  D5  G5
  PM|
  E E  H         E E    W
|--------------------|--------------------|
|--------------------|--------------------|
|--------------------|--------------------|
|------5-------------|--5-----------------|
|-0-0--5---------x-x-|--5-----------------|
|-0-0--5---------x-x-|--5-----------------|
|
| E E  E E  E E  E E    E E  E E  E E  Q
|--------------------|--------------------|
|--------------------|--------------------|
|--------------------|--------------------|
|-0-0-15-0-14-0-15-0-|-17-0-15-0-14-0-15--|
|--------------------|--------------------|
|--------------------|--------------------|


  D5
  PM|
  E E  H         E E    W
|--------------------|-------------------|
|--------------------|-------------------|
|--------------------|-------------------|
|-----12-------------|-12----------------|
|-0-0-12---------x-x-|-12----------------|
|-0-0-12---------x-x-|-12----------------|
|
| E E  E E  E E  E E    Q.    Q.    E  E
|--------------------|-------------------|
|--------------------|-------------------|
|--------------------|-------------------|
|-0-0-15-0-14-0-15-0-|-17----15----14h15-|
|--------------------|-------------------|
|--------------------|-------------------|


      F5
  PM|
  E E  H         E E    W
|--------------------|-----------------|
|--------------------|-----------------|
|-----10-------------|-10--------------|
|-----10-------------|-10--------------|
|-0-0--8---------x-x-|--8--------------|
|-0-0------------x-x-|-----------------|
|
| E E  E E  E E  E E    Q.    Q.    Q
|--------------------|-----------------|
|--------------------|-----------------|
|--------------------|-----------------|
|-0-0-15-0-14-0-15-0-|-17----15----12--|
|--------------------|-----------------|
|--------------------|-----------------|


  D5  Bb5
  PM|
  E E  H         E E    W
|--------------------|-------------------|
|--------------------|-------------------|
|--------------------|-------------------|
|------8-------------|--8----------------|
|-0-0--8---------x-x-|--8----------------|
|-0-0--8---------x-x-|--8----------------|
|
| E E  E E  E E  E E    Q.    Q.    E  E
|--------------------|-------------------|
|--------------------|-------------------|
|--------------------|-------------------|
|-0-0-15-0-14-0-15-0-|-17----15----14h15-|
|--------------------|-------------------|
|--------------------|-------------------|


  D5  G5   D5   G5     D5   G5   D5   G5
  PM|       PM|         PM|       PM|
  E E  Q    E E  Q      E E  Q    E E  Q
|--------------------|--------------------|
|--------------------|--------------------|
|--------------------|--------------------|
|------5---------5---|-------5---------5--|
|-0-0--5----0-0--5---|--0-0--5----0-0--5--|
|-0-0--5----0-0--5---|--0-0--5----0-0--5--|
|
| E E  E E  E E  E E    E E  E E  E E  Q
|--------------------|--------------------|
|--------------------|--------------------|
|--------------------|--------------------|
|-0-0-15-0-14-0-15-0-|-17-0-15-0-14-0-15--|
|--------------------|--------------------|
|--------------------|--------------------|


 Out-Chorus
  D5
  PM|       PM|         PM---------|
  E E  Q    E E  Q      E E E  E E E  Q
|--------------------|---------------------|
|--------------------|---------------------|
|------7---------7---|----------------7----|
|------7---------7---|----------------7----|
|-0-0--5----0-0--5---|--0-0-0--0-0-0--5----|
|-0-0-------0-0------|--0-0-0--0-0-0-------|
|
| E E  E E  E E  E E    E E E  E E E  E  E
|--------------------|---------------------|
|--------------------|---------------------|
|--------------------|---------------------|
|-0-0-15-0-14-0-15-0-|-17-0-0-15-0-0-14h15-|
|--------------------|---------------------|
|--------------------|---------------------|


      F5
  PM|       PM|         PM---------|
  E E  Q    E E  Q      E E E  E E E  Q
|--------------------|-------------------|
|--------------------|-------------------|
|-----10--------10---|---------------10--|
|-----10--------10---|---------------10--|
|-0-0--8----0-0--8---|--0-0-0--0-0-0--8--|
|-0-0-------0-0------|--0-0-0--0-0-0-----|
|
| E E  E E  E E  E E    E E E  E E E  Q
|--------------------|-------------------|
|--------------------|-------------------|
|--------------------|-------------------|
|-0-0-15-0-14-0-15-0-|-17-0-0-15-0-0-12--|
|--------------------|-------------------|
|--------------------|-------------------|


  D5  Bb5  D5   Bb5    D5            Bb5
  PM|       PM|         PM---------|
  E E  Q    E E  Q      E E E  E E E  Q
|--------------------|---------------------|
|--------------------|---------------------|
|--------------------|---------------------|
|------8---------8---|----------------8----|
|-0-0--8----0-0--8---|--0-0-0--0-0-0--8----|
|-0-0--8----0-0--8---|--0-0-0--0-0-0--8----|
|
| E E  E E  E E  E E    E E E  E E E  E  E
|--------------------|---------------------|
|--------------------|---------------------|
|--------------------|---------------------|
|-0-0-15-0-14-0-15-0-|-17-0-0-15-0-0-14h15-|
|--------------------|---------------------|
|--------------------|---------------------|


  D5  G5   D5   G5     D5             G5
  PM|       PM|         PM----------|
  E E  Q    E E  Q      E E  E E  E E  Q
|--------------------|--------------------|
|--------------------|--------------------|
|--------------------|--------------------|
|------5---------5---|-----------------5--|
|-0-0--5----0-0--5---|--0-0--0-0--0-0--5--|
|-0-0--5----0-0--5---|--0-0--0-0--0-0--5--|
|
| E E  E E  E E  E E    E E  E E  E E  Q
|--------------------|--------------------|
|--------------------|--------------------|
|--------------------|--------------------|
|-0-0-15-0-14-0-15-0-|-17-0-15-0-14-0-15--|
|--------------------|--------------------|
|--------------------|--------------------|


  D5
  PM|       PM|         PM---------|
  E E  Q    E E  Q      E E E  E E E  Q
|--------------------|---------------------|
|--------------------|---------------------|
|------7---------7---|----------------7----|
|------7---------7---|----------------7----|
|-0-0--5----0-0--5---|--0-0-0--0-0-0--5----|
|-0-0-------0-0------|--0-0-0--0-0-0-------|
|
| E E  E E  E E  E E    E E E  E E E  E  E
|--------------------|---------------------|
|--------------------|---------------------|
|--------------------|---------------------|
|-0-0-15-0-14-0-15-0-|-17-0-0-15-0-0-14h15-|
|--------------------|---------------------|
|--------------------|---------------------|


      F5   D5   F5     D5            F5
  PM|       PM|         PM---------|
  E E  Q    E E  Q      E E E  E E E  Q
|--------------------|-------------------|
|--------------------|-------------------|
|-----10--------10---|---------------10--|
|-----10--------10---|---------------10--|
|-0-0--8----0-0--8---|--0-0-0--0-0-0--8--|
|-0-0-------0-0------|--0-0-0--0-0-0-----|
|
| E E  E E  E E  E E    E E E  E E E  Q
|--------------------|-------------------|
|--------------------|-------------------|
|--------------------|-------------------|
|-0-0-15-0-14-0-15-0-|-17-0-0-15-0-0-12--|
|--------------------|-------------------|
|--------------------|-------------------|


  D5  Bb5  D5   Bb5    D5            Bb5
  PM|       PM|         PM---------|
  E E  Q    E E  Q      E E E  E E E  Q
|--------------------|---------------------|
|--------------------|---------------------|
|--------------------|---------------------|
|------8---------8---|----------------8----|
|-0-0--8----0-0--8---|--0-0-0--0-0-0--8----|
|-0-0--8----0-0--8---|--0-0-0--0-0-0--8----|
|
| E E  E E  E E  E E    E E E  E E E  E  E
|--------------------|---------------------|
|--------------------|---------------------|
|--------------------|---------------------|
|-0-0-15-0-14-0-15-0-|-17-0-0-15-0-0-14h15-|
|--------------------|---------------------|
|--------------------|---------------------|


  D5  G5   D5   G5     D5             G5    D5
  PM|       PM|         PM----------|        PM|
  E E  Q    E E  Q      E E  E E  E E  Q     E  E H.
|--------------------|--------------------|-------------*|
|--------------------|--------------------|-------------*|
|--------------------|--------------------|-------------*|
|------5---------5---|-----------------5--|-------------*|
|-0-0--5----0-0--5---|--0-0--0-0--0-0--5--|--0--0-------*|
|-0-0--5----0-0--5---|--0-0--0-0--0-0--5--|--0--0-------*|
|
| E E  E E  E E  E E    E E  E E  E E  Q     E  E H.
|--------------------|--------------------|-------------*|
|--------------------|--------------------|-------------*|
|-----17---15---14---|-15---14------------|-------------*|
|-0-0----0----0----0-|----0----0-17-0-15--|-12-12-------*|
|--------------------|--------------------|-------------*|
|--------------------|--------------------|-------------*|



3. CRASH

Tuning - Drop D

Intro
Q=158
 4/4
  Gtr I
  D5
  PM------------------------------------------------------------------|
  E E E E E E E E   E E E E E E E E   E E E E E E E E   E E E E E E E E
|-----------------|-----------------|-----------------|-----------------|
|-----------------|-----------------|-----------------|-----------------|
|-----------------|-----------------|-----------------|-----------------|
|-----------------|-----------------|-----------------|-----------------|
|-0-0-0-0-0-0-0-0-|-0-0-0-0-0-0-0-0-|-0-0-0-0-0-0-0-0-|-0-0-0-0-0-0-0-0-|
|-0-0-0-0-0-0-0-0-|-0-0-0-0-0-0-0-0-|-0-0-0-0-0-0-0-0-|-0-0-0-0-0-0-0-0-|


  Bb5                                 A5                        F5
  PM------------------------------------------------------------------|
  E E E E E E E E   E E E E E E E E   E E E E E E E E   E E E E E E E E
|-----------------|-----------------|-----------------|-----------------|
|-----------------|-----------------|-----------------|-----------------|
|-----------------|-----------------|-----------------|-----------------|
|-----------------|-----------------|-----------------|-----------------|
|-8-8-8-8-8-8-8-8-|-8-8-8-8-8-8-8-8-|-7-7-7-7-7-7-7-7-|-7-7-7-7-3-3-3-3-|
|-8-8-8-8-8-8-8-8-|-8-8-8-8-8-8-8-8-|-7-7-7-7-7-7-7-7-|-7-7-7-7-3-3-3-3-|


  D5
  PM------------------------------------------------------------------|
  E E E E E E E E   E E E E E E E E   E E E E E E E E   E E E E E E E E
|-----------------|-----------------|-----------------|-----------------|
|-----------------|-----------------|-----------------|-----------------|
|-----------------|-----------------|-----------------|-----------------|
|-----------------|-----------------|-----------------|-----------------|
|-0-0-0-0-0-0-0-0-|-0-0-0-0-0-0-0-0-|-0-0-0-0-0-0-0-0-|-0-0-0-0-0-0-0-0-|
|-0-0-0-0-0-0-0-0-|-0-0-0-0-0-0-0-0-|-0-0-0-0-0-0-0-0-|-0-0-0-0-0-0-0-0-|


  Bb5                                 A5
  PM------------------------------------------------------------------|
  E E E E E E E E   E E E E E E E E   E E E E E E E E   E E E E E E E E
|-----------------|-----------------|-----------------|-----------------|
|-----------------|-----------------|-----------------|-----------------|
|-----------------|-----------------|-----------------|-----------------|
|-----------------|-----------------|-----------------|-----------------|
|-8-8-8-8-8-8-8-8-|-8-8-8-8-8-8-8-8-|-7-7-7-7-7-7-7-7-|-7-7-7-7-7-7-7-7-|
|-8-8-8-8-8-8-8-8-|-8-8-8-8-8-8-8-8-|-7-7-7-7-7-7-7-7-|-7-7-7-7-7-7-7-7-|


  D5
  E E E  E Q   Q    Q   Q  Q   Q    E E E  E Q   Q    Q   Q  Q   Q
|-----------------|---------------|-----------------|---------------|
|-----------------|---------------|-----------------|---------------|
|-------10----10--|----10-----10--|-------10----10--|----10-----10--|
|-0-0-0----0------|-0------0------|-0-0-0----0------|-0------0------|
|-0-0-0--8-0---8--|-0---8--0---8--|-0-0-0--8-0---8--|-0---8--0---8--|
|-0-0-0----0------|-0------0------|-0-0-0----0------|-0------0------|


 Pre-Chorus
  Bb5                                 A5                 A5         F5
  E E E E E E E E   E E E E E E E E    E E E E E E E E     E  E E E E E E E
|-----------------|-----------------|------------------|--------------------|
|-----------------|-----------------|------------------|--------------------|
|-----------------|-----------------|------------------|--------------------|
|-8-8-8-8-8-8-8-8-|-8-8-8-8-8-8-8-8-|--7-7-7-7-7-7-7-7-|---7--7-7-7-3-3-3-3-|
|-8-8-8-8-8-8-8-8-|-8-8-8-8-8-8-8-8-|--7-7-7-7-7-7-7-7-|---7--7-7-7-3-3-3-3-|
|-8-8-8-8-8-8-8-8-|-8-8-8-8-8-8-8-8-|--7-7-7-7-7-7-7-7-|---7--7-7-7-3-3-3-3-|
|
| Gtr II
| W                 H       H          W                  +H        H
|-----------------|-----------------|------------------|--------------------|
|-----------------|---------8-------|-10---------------|-(10)---------------|
|-----------------|-----------------|------------------|------------5-------|
|-----------------|---------5-------|--7---------------|--(7)---------------|
|-----------------|-----------------|------------------|------------3-------|
|-----------------|-----------------|------------------|--------------------|


 Chorus
  D5      C5        Bb5               F5                A5
  E E E E E E E E   E E E E E E E E   E E E E E E E E   E E E E E E E E
|-----------------|-----------------|-----------------|-----------------|
|-----------------|-----------------|-----------------|-----------------|
|-7-7-7-7-5-5-5-5-|-3-3-3-3-3-3-3-3-|-5-5-5-5-5-5-5-5-|-9-9-9-9-9-9-9-9-|
|-7-7-7-7-5-5-5-5-|-3-3-3-3-3-3-3-3-|-3-3-3-3-3-3-3-3-|-7-7-7-7-7-7-7-7-|
|-5-5-5-5-3-3-3-3-|-1-1-1-1-1-1-1-1-|-3-3-3-3-3-3-3-3-|-7-7-7-7-7-7-7-7-|
|-----------------|-----------------|-3-3-3-3-3-3-3-3-|-7-7-7-7-7-7-7-7-|


  D5      C5        Bb5               F5                C5            D5
  E E E E E E E E   E E E E E E E E   E E E E E E E E   E E E E E E E E
|-----------------|-----------------|-----------------|-----------------|
|-----------------|-----------------|-----------------|-----------------|
|-7-7-7-7-5-5-5-5-|-3-3-3-3-3-3-3-3-|-5-5-5-5-5-5-5-5-|-5-5-5-5-5-5-5---|
|-7-7-7-7-5-5-5-5-|-3-3-3-3-3-3-3-3-|-3-3-3-3-3-3-3-3-|-5-5-5-5-5-5-5-0-|
|-5-5-5-5-3-3-3-3-|-1-1-1-1-1-1-1-1-|-3-3-3-3-3-3-3-3-|-3-3-3-3-3-3-3-0-|
|-----------------|-----------------|-3-3-3-3-3-3-3-3-|---------------0-|


 Verse
  D5
  PM------------------------------------------------------------------|
  E E E E E E E E   E E E E E E E E   E E E E E E E E   E E E E E E E E
|-----------------|-----------------|-----------------|-----------------|
|-----------------|-----------------|-----------------|-----------------|
|-----------------|-----------------|-----------------|-----------------|
|-----------------|-----------------|-----------------|-----------------|
|-0-0-0-0-0-0-0-0-|-0-0-0-0-0-0-0-0-|-0-0-0-0-0-0-0-0-|-0-0-0-0-0-0-0-0-|
|-0-0-0-0-0-0-0-0-|-0-0-0-0-0-0-0-0-|-0-0-0-0-0-0-0-0-|-0-0-0-0-0-0-0-0-|


  Bb5                                 A5                        F5
  PM----------------------------------------------------------|
  E E E E E E E E   E E E E E E E E   E E E E E E E E   E E E E E E E E
|-----------------|-----------------|-----------------|-----------------|
|-----------------|-----------------|-----------------|-----------------|
|-----------------|-----------------|-----------------|---------5-5-5-5-|
|-----------------|-----------------|-----------------|---------3-3-3-3-|
|-8-8-8-8-8-8-8-8-|-8-8-8-8-8-8-8-8-|-7-7-7-7-7-7-7-7-|-7-7-7-7-3-3-3-3-|
|-8-8-8-8-8-8-8-8-|-8-8-8-8-8-8-8-8-|-7-7-7-7-7-7-7-7-|-7-7-7-7-3-3-3-3-|


  D5
  PM------------------------------------------------------------------|
  E E E E E E E E   E E E E E E E E   E E E E E E E E   E E E E E E E E
|-----------------|-----------------|-----------------|-----------------|
|-----------------|-----------------|-----------------|-----------------|
|-----------------|-----------------|-----------------|-----------------|
|-----------------|-----------------|-----------------|-----------------|
|-0-0-0-0-0-0-0-0-|-0-0-0-0-0-0-0-0-|-0-0-0-0-0-0-0-0-|-0-0-0-0-0-0-0-0-|
|-0-0-0-0-0-0-0-0-|-0-0-0-0-0-0-0-0-|-0-0-0-0-0-0-0-0-|-0-0-0-0-0-0-0-0-|


  Bb5                                 A5
  PM------------------------------------------------------------------|
  E E E E E E E E   E E E E E E E E   E E E E E E E E   E E E E E E E E
|-----------------|-----------------|-----------------|-----------------|
|-----------------|-----------------|-----------------|-----------------|
|-----------------|-----------------|-----------------|-----------------|
|-----------------|-----------------|-----------------|-----------------|
|-8-8-8-8-8-8-8-8-|-8-8-8-8-8-8-8-8-|-7-7-7-7-7-7-7-7-|-7-7-7-7-7-7-7-7-|
|-8-8-8-8-8-8-8-8-|-8-8-8-8-8-8-8-8-|-7-7-7-7-7-7-7-7-|-7-7-7-7-7-7-7-7-|


  D5
  E E E  E Q   Q    Q   Q  Q   Q    E E E  E Q   Q    Q   Q  Q   Q
|-----------------|---------------|-----------------|---------------|
|-----------------|---------------|-----------------|---------------|
|-------10----10--|----10-----10--|-------10----10--|----10-----10--|
|-0-0-0----0------|-0------0------|-0-0-0----0------|-0------0------|
|-0-0-0--8-0---8--|-0---8--0---8--|-0-0-0--8-0---8--|-0---8--0---8--|
|-0-0-0----0------|-0------0------|-0-0-0----0------|-0------0------|


 Pre-Chorus
  Bb5                                 A5                            F5
  E E E E E E E E   E E E E E E E E    E E E E E E E E     E  E E E E E E E
|-----------------|-----------------|------------------|--------------------|
|-----------------|-----------------|------------------|--------------------|
|-----------------|-----------------|------------------|--------------------|
|-8-8-8-8-8-8-8-8-|-8-8-8-8-8-8-8-8-|--7-7-7-7-7-7-7-7-|---7--7-7-7-3-3-3-3-|
|-8-8-8-8-8-8-8-8-|-8-8-8-8-8-8-8-8-|--7-7-7-7-7-7-7-7-|---7--7-7-7-3-3-3-3-|
|-8-8-8-8-8-8-8-8-|-8-8-8-8-8-8-8-8-|--7-7-7-7-7-7-7-7-|---7--7-7-7-3-3-3-3-|
|
| Gtr II
| W                 H       H          W                  +H        H
|-----------------|-----------------|------------------|--------------------|
|-----------------|---------8-------|-10---------------|-(10)---------------|
|-----------------|-----------------|------------------|------------5-------|
|-----------------|---------5-------|--7---------------|--(7)---------------|
|-----------------|-----------------|------------------|------------3-------|
|-----------------|-----------------|------------------|--------------------|


   Chorus
    D5      C5        Bb5               F5                A5
    E E E E E E E E   E E E E E E E E   E E E E E E E E   E E E E E E E E
||------------------|-----------------|-----------------|------------------|
||o-----------------|-----------------|-----------------|------------------|
||--7-7-7-7-5-5-5-5-|-3-3-3-3-3-3-3-3-|-5-5-5-5-5-5-5-5-|-9-9-9-9-9-9-9-9--|
||--7-7-7-7-5-5-5-5-|-3-3-3-3-3-3-3-3-|-3-3-3-3-3-3-3-3-|-7-7-7-7-7-7-7-7--|
||o-5-5-5-5-3-3-3-3-|-1-1-1-1-1-1-1-1-|-3-3-3-3-3-3-3-3-|-7-7-7-7-7-7-7-7--|
||------------------|-----------------|-3-3-3-3-3-3-3-3-|-7-7-7-7-7-7-7-7--|


  D5      C5        Bb5               F5                C5            D5
  E E E E E E E E   E E E E E E E E   E E E E E E E E   E E E E E E E E
|-----------------|-----------------|-----------------|------------------||
|-----------------|-----------------|-----------------|-----------------o||
|-7-7-7-7-5-5-5-5-|-3-3-3-3-3-3-3-3-|-5-5-5-5-5-5-5-5-|-5-5-5-5-5-5-5----||
|-7-7-7-7-5-5-5-5-|-3-3-3-3-3-3-3-3-|-3-3-3-3-3-3-3-3-|-5-5-5-5-5-5-5-0--||
|-5-5-5-5-3-3-3-3-|-1-1-1-1-1-1-1-1-|-3-3-3-3-3-3-3-3-|-3-3-3-3-3-3-3-0-o||
|-----------------|-----------------|-3-3-3-3-3-3-3-3-|---------------0--||


 Bridge
  D5
    PM-----------------------------------------------------------------------|
    E E E E E E E E     E E E E E E E E     E E E E E E E E    E E E E E E E E
|-------------------|-------------------|-------------------|------------------|
|-------------------|-------------------|-------------------|------------------|
|-------------------|-------------------|-------------------|------------------|
|-------------------|-------------------|-------------------|------------------|
|---0-0-0-0-0-0-0-0-|---0-0-0-0-0-0-0-0-|---0-0-0-0-0-0-0-0-|--0-0-0-0-0-0-0-0-|
|---0-0-0-0-0-0-0-0-|---0-0-0-0-0-0-0-0-|---0-0-0-0-0-0-0-0-|--0-0-0-0-0-0-0-0-|
|
| Gtr III
|   ~~~~~~~~~~~~~~~~~~~~~~~~~~~~~~~~~~~~~~~~~~~~~~~~~~~~~~~~~~~~~
|   W                   W                   W                  W
|-------------------|-------------------|-------------------|------------------|
|-------------------|-------------------|-------------------|------------------|
|-------------------|-------------------|-------------------|------------------|
|-/12---------------|-/14---------------|-/15---------------|-17---------------|
|-------------------|-------------------|-------------------|------------------|
|-------------------|-------------------|-------------------|------------------|


  Bb5                                     A5                           F5
    PM-----------------------------------------------------------------------|
    E E E E E E E E     E E E E E E E E     E E E E E E E E    E E E E E E E E
|-------------------|-------------------|-------------------|------------------|
|-------------------|-------------------|-------------------|------------------|
|-------------------|-------------------|-------------------|------------------|
|-------------------|-------------------|-------------------|------------------|
|---8-8-8-8-8-8-8-8-|---8-8-8-8-8-8-8-8-|---7-7-7-7-7-7-7-7-|--7-7-7-7-3-3-3-3-|
|---8-8-8-8-8-8-8-8-|---8-8-8-8-8-8-8-8-|---7-7-7-7-7-7-7-7-|--7-7-7-7-3-3-3-3-|
|
|   ~~~~~~~~~~~~~~~~~~~~~~~~~~~~~~~~~~~~~~~~~~~~~~~~~~~~~~~~~~~~~
|   W                   W                   W                  W
|-------------------|-------------------|-------------------|------------------|
|-------------------|-------------------|-------------------|------------------|
|-/19---------------|-/17---------------|-/15---------------|-14---------------|
|-------------------|-------------------|-------------------|------------------|
|-------------------|-------------------|-------------------|------------------|
|-------------------|-------------------|-------------------|------------------|


 Verse
  D5
  PM------------------------------------------------------------------|
  E E E E E E E E   E E E E E E E E   E E E E E E E E   E E E E E E E E
|-----------------|-----------------|-----------------|-----------------|
|-----------------|-----------------|-----------------|-----------------|
|-----------------|-----------------|-----------------|-----------------|
|-----------------|-----------------|-----------------|-----------------|
|-0-0-0-0-0-0-0-0-|-0-0-0-0-0-0-0-0-|-0-0-0-0-0-0-0-0-|-0-0-0-0-0-0-0-0-|
|-0-0-0-0-0-0-0-0-|-0-0-0-0-0-0-0-0-|-0-0-0-0-0-0-0-0-|-0-0-0-0-0-0-0-0-|


  Bb5                                 A5
  PM----------------------------------------------------|
  E E E E E E E E   E E E E E E E E   E E E E E E E E   Q   H.        W
|-----------------|-----------------|-----------------|-------------|------|
|-----------------|-----------------|-----------------|-------------|------|
|-----------------|-----------------|-----------------|-------------|------|
|-----------------|-----------------|-----------------|-------------|------|
|-8-8-8-8-8-8-8-8-|-8-8-8-8-8-8-8-8-|-7-7-7-7-7-7-7-7-|-7\----------|------|
|-8-8-8-8-8-8-8-8-|-8-8-8-8-8-8-8-8-|-7-7-7-7-7-7-7-7-|-7\----------|------|


  D5
  E E E  E Q   Q    Q   Q  Q   Q    E E E  E Q   Q    Q   Q  Q   Q
|-----------------|---------------|-----------------|---------------|
|-----------------|---------------|-----------------|---------------|
|-------10----10--|----10-----10--|-------10----10--|----10-----10--|
|-0-0-0----0------|-0------0------|-0-0-0----0------|-0------0------|
|-0-0-0--8-0---8--|-0---8--0---8--|-0-0-0--8-0---8--|-0---8--0---8--|
|-0-0-0----0------|-0------0------|-0-0-0----0------|-0------0------|


 Pre-Chorus
  Bb5
  E E E E E E E E   E E E E E E E E
|-----------------|-----------------|
|-----------------|-----------------|
|-----------------|-----------------|
|-8-8-8-8-8-8-8-8-|-8-8-8-8-8-8-8-8-|
|-8-8-8-8-8-8-8-8-|-8-8-8-8-8-8-8-8-|
|-8-8-8-8-8-8-8-8-|-8-8-8-8-8-8-8-8-|
|
| Gtr II
| W                 H       H
|-----------------|-----------------|
|-----------------|---------8-------|
|-----------------|-----------------|
|-----------------|---------5-------|
|-----------------|-----------------|
|-----------------|-----------------|


  A5                 C5
   E E E E E E E E    E  E  E  E  E  E  E  E
|------------------|-------------------------|
|------------------|-------------------------|
|------------------|-------------------------|
|--7-7-7-7-7-7-7-7-|-10-10-10-10-10-10-10-10-|
|--7-7-7-7-7-7-7-7-|-10-10-10-10-10-10-10-10-|
|--7-7-7-7-7-7-7-7-|-10-10-10-10-10-10-10-10-|
|
|  W                  W
|------------------|-------------------------|
|-10---------------|-------------------------|
|------------------|-------------------------|
|--7---------------|-------------------------|
|------------------|-------------------------|
|------------------|-------------------------|


 Chorus
  D5      C5        Bb5               F5                A5
  E E E E E E E E   E E E E E E E E   E E E E E E E E   E E E E E E E E
|-----------------|-----------------|-----------------|-----------------|
|-----------------|-----------------|-----------------|-----------------|
|-7-7-7-7-5-5-5-5-|-3-3-3-3-3-3-3-3-|-5-5-5-5-5-5-5-5-|-9-9-9-9-9-9-9-9-|
|-7-7-7-7-5-5-5-5-|-3-3-3-3-3-3-3-3-|-3-3-3-3-3-3-3-3-|-7-7-7-7-7-7-7-7-|
|-5-5-5-5-3-3-3-3-|-1-1-1-1-1-1-1-1-|-3-3-3-3-3-3-3-3-|-7-7-7-7-7-7-7-7-|
|-----------------|-----------------|-3-3-3-3-3-3-3-3-|-7-7-7-7-7-7-7-7-|


  D5      C5        Bb5               F5                C5            D5
  E E E E E E E E   E E E E E E E E   E E E E E E E E   E E E E E E E E
|-----------------|-----------------|-----------------|-----------------|
|-----------------|-----------------|-----------------|-----------------|
|-7-7-7-7-5-5-5-5-|-3-3-3-3-3-3-3-3-|-5-5-5-5-5-5-5-5-|-5-5-5-5-5-5-5---|
|-7-7-7-7-5-5-5-5-|-3-3-3-3-3-3-3-3-|-3-3-3-3-3-3-3-3-|-5-5-5-5-5-5-5-0-|
|-5-5-5-5-3-3-3-3-|-1-1-1-1-1-1-1-1-|-3-3-3-3-3-3-3-3-|-3-3-3-3-3-3-3-0-|
|-----------------|-----------------|-3-3-3-3-3-3-3-3-|---------------0-|


  D5         C5           Bb5
    E E  E E   E E  E E     E E  E E   E E  E E
|-----------------------|-----------------------|
|-----------------------|-----------------------|
|---7-7--7-7---5-5--5-5-|---3-3--3-3---3-3--3-3-|
|---7-7--7-7---5-5--5-5-|---3-3--3-3---3-3--3-3-|
|---5-5--5-5---3-3--3-3-|---1-1--1-1---1-1--1-1-|
|-----------------------|-----------------------|
|
| Gtr IV
|   Q    Q     Q    Q       Q    Q     Q    Q
|-/22---10---/22---10---|-/22---10---/22---10---|
|-----------------------|-----------------------|
|-----------------------|-----------------------|
|-----------------------|-----------------------|
|-----------------------|-----------------------|
|-----------------------|-----------------------|


  F5                      A5
    E E  E E   E E  E E     E E  E E   E E  E E
|-----------------------|-----------------------|
|-----------------------|-----------------------|
|---5-5--5-5---5-5--5-5-|---9-9--9-9---9-9--9-9-|
|---3-3--3-3---3-3--3-3-|---7-7--7-7---7-7--7-7-|
|---3-3--3-3---3-3--3-3-|---7-7--7-7---7-7--7-7-|
|---3-3--3-3---3-3--3-3-|---7-7--7-7---7-7--7-7-|
|
|   Q    Q     Q    Q       Q    Q     Q    Q
|-/22---10---/22---10---|-/22---10---/22---10---|
|-----------------------|-----------------------|
|-----------------------|-----------------------|
|-----------------------|-----------------------|
|-----------------------|-----------------------|
|-----------------------|-----------------------|


  D5         C5           Bb5
    E E  E E   E E  E E     E E  E E   E E  E E
|-----------------------|-----------------------|
|-----------------------|-----------------------|
|---7-7--7-7---5-5--5-5-|---3-3--3-3---3-3--3-3-|
|---7-7--7-7---5-5--5-5-|---3-3--3-3---3-3--3-3-|
|---5-5--5-5---3-3--3-3-|---1-1--1-1---1-1--1-1-|
|-----------------------|-----------------------|
|
|   Q    Q     Q    Q       Q    Q     Q    Q
|-/22---10---/22---10---|-/22---10---/22---10---|
|-----------------------|-----------------------|
|-----------------------|-----------------------|
|-----------------------|-----------------------|
|-----------------------|-----------------------|
|-----------------------|-----------------------|


  F5                      C5                  D5
    E E  E E   E E  E E     E E  E E   E E  E E
|-----------------------|-----------------------|
|-----------------------|-----------------------|
|---5-5--5-5---5-5--5-5-|---5-5--5-5---5-5--5---|
|---3-3--3-3---3-3--3-3-|---5-5--5-5---5-5--5-0-|
|---3-3--3-3---3-3--3-3-|---3-3--3-3---3-3--3-0-|
|---3-3--3-3---3-3--3-3-|---------------------0-|
|
|   Q    Q     Q    Q       Q    Q     Q    Q
|-/22---10---/22---10---|-/22---10---/22---10---|
|-----------------------|-----------------------|
|-----------------------|-----------------------|
|-----------------------|-----------------------|
|-----------------------|-----------------------|
|-----------------------|-----------------------|


 Outro
  D5
  E E E  E Q   Q    Q   Q  Q   Q    E E E  E Q   Q    Q   Q  Q   Q
|-----------------|---------------|-----------------|---------------|
|-----------------|---------------|-----------------|---------------|
|-------10----10--|----10-----10--|-------10----10--|----10-----10--|
|-0-0-0----0------|-0------0------|-0-0-0----0------|-0------0------|
|-0-0-0--8-0---8--|-0---8--0---8--|-0-0-0--8-0---8--|-0---8--0---8--|
|-0-0-0----0------|-0------0------|-0-0-0----0------|-0------0------|


  E E E  E Q   Q       Q   Q     Q   Q
|--------------------|---------------------|
|--------------------|---------------------|
|-------10----11b12--|----12b13-----13b14--|
|-0-0-0----0---------|-0---------0---------|
|-0-0-0--8-0---9b10--|-0--10b11--0--11b12--|
|-0-0-0----0---------|-0---------0---------|


  E E E  E Q   Q       Q   Q     Q   Q
|--------------------|---------------------|
|--------------------|---------------------|
|-------10----11b12--|----12b13-----13b14--|
|-0-0-0----0---------|-0---------0---------|
|-0-0-0--8-0---9b10--|-0--10b11--0--11b12--|
|-0-0-0----0---------|-0---------0---------|


  E E E  E Q   Q       Q   Q     Q   Q
|--------------------|---------------------|
|--------------------|---------------------|
|-------10----11b12--|----12b13-----13b14--|
|-0-0-0----0---------|-0---------0---------|
|-0-0-0--8-0---9b10--|-0--10b11--0--11b12--|
|-0-0-0----0---------|-0---------0---------|


  E E E  E Q   Q       Q   Q     Q   Q
|--------------------|---------------------*|
|--------------------|---------------------*|
|-------10----11b12--|----12b13-----13b14--*|
|-0-0-0----0---------|-0---------0---------*|
|-0-0-0--8-0---9b10--|-0--10b11--0--11b12--*|
|-0-0-0----0---------|-0---------0---------*|



4. THE WORLD AROUND YOU

Drop-D tuning

Intro/verse

E---------10------8----------10------8---------E
B----------------------------------------------B
G----8-------8----------8-------8------8----12-G   
D-10---10------10----10---10------10-----10----D
A----------------------------------------------A
D----------------------------------------------D


Main Riff/Chorus

E--------------------------------------------------------------------E
B--------------------------------------------------------------------B
G--------------------------------------------------------------------G
D-10--10--10-10-10--10-10-10-10--10-10--6-----3-----8-----5-----5--5-D
A-10--10--10-10-10--10-10-10-10--10-10--6-----3-----8-----5-----5--5-A
D-10--10--10-10-10--10-10-10-10--10-10--6--6--3--3--8--8--5--5--5--5-D
                                           X     X     X     X


2nd guitar solo during main riff

E---------------------------------------------------------------------E
B---------------------------------------------------------------------B
G---------8-10-<11>-<11>-8--------------------------------------------G
D-10-8-10------------------10--10-8-10-8----8----------------------10-D
A----------------------------------------10---10-8-6-8-8-6-10-8----10-A
D---------------------------------------------------------------13-10-D
You must listen to rythm of solo, it sounds quite difficult, but it's 
not so hard... 

Bridge

E------I-----------E
B------I-----------B
G------I-----------G
D-6--8-I--10--6--3-D
A-6--8-I--10--6--3-A
D-6--8-I--10--6--3-D
  Once     Repeat


5. FOREVER

Gtr I (D A D G B E) - 'Jerry Backing 1'
Gtr II (D A D G B E) - 'Jerry Clean Main'
Gtr III (D A D G B E) - 'Jerry Clean Delay'
Gtr IV (D A D G B E) - 'Jerry Main'
Gtr V (D A D G B E) - 'Strings'


 Intro
  Q=112
 4/4
  Gtr I
  Wx14
|---------|
|---------|
|---------|
|---------|
|---------|
|---------|


 Verse
  N.C.
  Gtr I
    <
    W            W
|------------|--------|
|-/13--------|-/11----|
|------------|--------|
|------------|--------|
|------------|--------|
|------------|--------|


    W            W            W            W
|------------|------------|------------|--------|
|-/10--------|-/13--------|------------|--------|
|------------|------------|-/10--------|-/12----|
|------------|------------|------------|--------|
|------------|------------|------------|--------|
|------------|------------|------------|--------|


    W            W            W            W
|------------|------------|------------|--------|
|-/10--------|------------|------------|--------|
|------------|-/12--------|-/10--------|-/12----|
|------------|------------|------------|--------|
|------------|------------|------------|--------|
|------------|------------|------------|--------|


 Pre-Chorus
  N.C.
  Gtr II
   Q       E   E    Q        E   E      H.            Q
|-----------------------------------|-----------------------|
|-11------11--10------------10------|-----------------------|
|------------------10-----------12--|---9-------------9-----|
|-----------------------------------|-----------------------|
|-----------------------------------|-----------------------|
|-----------------------------------|-----------------------|
|
| Gtr III
|  E   Q       E    E    Q       E      E   Q.    Q.     E
|-----------------------------------|-----------------------|
|----(11)----(11)-(10)---------(10)-|-----------------------|
|----------------------(10)---------|-(12)-(9)---(9)----(9)-|
|-----------------------------------|-----------------------|
|-----------------------------------|-----------------------|
|-----------------------------------|-----------------------|
|
| Gtr I
|  W                                    W
|-----------------------------------|-----------------------|
|-----------------------------------|-----------------------|
|-/7--------------------------------|--/9-------------------|
|-----------------------------------|-----------------------|
|-----------------------------------|-----------------------|
|-----------------------------------|-----------------------|


                                                             Gtr IV
    E   E  H             Q          E   E  Q.            +S  S S S E
|-------------------------------|--------------------------------------|
|-------------------------------|--------------------------------------|
|---7---9-10------------10------|---9--10-12------------(12)-----------|
|-------------------------------|----------------------------x-x-x-x---|
|-------------------------------|----------------------------x-x-x-x---|
|-------------------------------|----------------------------x-x-x-x---|
|
|  +Q      E   E    H               Q      E    E    H
|-------------------------------|--------------------------------------|
|-------------------------------|--------------------------------------|
|--(9)----(7)-(9)-(10)----------|-(10)----(9)-(10)-(12)----------------|
|-------------------------------|--------------------------------------|
|-------------------------------|--------------------------------------|
|-------------------------------|--------------------------------------|
|
|   H..                     +E      H.                         Q
|-------------------------------|--------------------------------------|
|-/13----------------------(13)s|==11----------------------------------|
|-------------------------------|--------------------------------------|
|-------------------------------|--------------------------------------|
|-------------------------------|--------------------------------------|
|-------------------------------|--------------------------------------|


 Chorus
  D5                 F5
  E. S E E. S E Q     E.  S  E  E.  S  E  Q
|------------------|-------------------------|
|------------------|-------------------------|
|-7--7-7-7--7-7-7--|-10--10-10-10--10-10-10--|
|-7--7-7-7--7-7-7--|-10--10-10-10--10-10-10--|
|-5--5-5-5--5-5-5--|--8---8--8--8---8--8--8--|
|------------------|-------------------------|


  C5                 Bb5           N.C.
  E. S E E. S E Q    E. S E E. S E S S S S
|------------------|-------------------------|
|------------------|-------------------------|
|-5--5-5-5--5-5-5--|-3--3-3-3--3-3-----------|
|-5--5-5-5--5-5-5--|-3--3-3-3--3-3-x-x-x-x---|
|-3--3-3-3--3-3-3--|-1--1-1-1--1-1-x-x-x-x---|
|------------------|---------------x-x-x-x---|


  D5                 F5
  E. S E E. S E Q     E.  S  E  E.  S  E  Q
|------------------|-------------------------|
|------------------|-------------------------|
|-7--7-7-7--7-7-7--|-10--10-10-10--10-10-10--|
|-7--7-7-7--7-7-7--|-10--10-10-10--10-10-10--|
|-5--5-5-5--5-5-5--|--8---8--8--8---8--8--8--|
|------------------|-------------------------|


  C5                 Bb5    N.F5 E5
  E. S E E. S E Q    E. S E E Q  Q
|------------------|----------------|
|------------------|----------------|
|-5--5-5-5--5-5-5--|-3--3-3---------|
|-5--5-5-5--5-5-5--|-3--3-3-x-3--2--|
|-3--3-3-3--3-3-3--|-1--1-1-x-3--2--|
|------------------|--------x-3--2--|


 Verse
  D5
              >
  W          +W           W          W
|----------|------------|----------|------|
|----------|------------|----------|------|
|----------|------------|----------|------|
|-0--------|-(0)--------|----------|------|
|-0--------|-(0)--------|----------|------|
|-0--------|-(0)--------|----------|------|
|
| Gtr V
|                         <
| W           W           W          W
|----------|------------|----------|------|
|----------|------------|----------|------|
|----------|------------|----------|------|
|----------|------------|----------|------|
|----------|------------|-3--------|-1----|
|----------|------------|----------|------|


    N.C.
    Gtr V
    W          W          W          W
||-----------|----------|----------|-------||
||o----------|----------|----------|------o||
||-----------|----------|----------|-------||
||-----------|----------|----------|-------||
||o-5--------|-8--------|-3--------|-1----o||
||-----------|----------|----------|-------||


    Gtr II
     E   E    E    Q        E   E    E      E    E    E    Q        E   E    E
||--------------------------------------|---------------------------------------|
||o----------10-------------------------|-------10---13---10-----------10-------|
||------10--------10-----------10-------|--10----------------------10-------10--|
||--12---------------------12-------12--|---------------------------------------|
||o-------------------------------------|---------------------------------------|
||--------------------------------------|---------------------------------------|
|
|   Gtr III
|    E   E    E    E    Q       E    E      E    E    E    E    Q       E    E
||--------------------------------------|---------------------------------------|
||o--------------(10)-------------------|-----------(10)-(13)-(10)---------(10)-|
||----------(10)------(10)---------(10)-|------(10)-------------------(10)------|
||-----(12)-------------------(12)------|-(12)----------------------------------|
||o-------------------------------------|---------------------------------------|
||--------------------------------------|---------------------------------------|


    E    E    E    Q        E   E    E      E   E    E    Q       E  Q
|---------------------------------------|--------------------------------------||
|------------13-------------------------|-----------11------------------------o||
|-------12--------12-----------12-------|------10--------10---------10---------||
|--10----------------------10-------10--|---8---------------------8------------||
|---------------------------------------|-------------------------------------o||
|---------------------------------------|--------------------------------------||
|
|   E    E    E    E    Q       E    E      E   E    E    E    Q     E    E
|---------------------------------------|--------------------------------------||
|----------------(13)-------------------|---------------(11)------------------o||
|-(10)------(12)------(12)---------(12)-|----------(10)------(10)-------(10)---||
|------(10)-------------------(10)------|-(10)-(8)------------------(8)--------||
|---------------------------------------|-------------------------------------o||
|---------------------------------------|--------------------------------------||


 Pre-Chorus
  N.C.
   Q       E   E    Q        E   E      H.            Q
|-----------------------------------|-----------------------|
|-11------11--10------------10------|-----------------------|
|------------------10-----------12--|---9-------------9-----|
|-----------------------------------|-----------------------|
|-----------------------------------|-----------------------|
|-----------------------------------|-----------------------|
|
|  E   Q       E    E    Q       E      E   Q.    Q.     E
|-----------------------------------|-----------------------|
|----(11)----(11)-(10)---------(10)-|-----------------------|
|----------------------(10)---------|-(12)-(9)---(9)----(9)-|
|-----------------------------------|-----------------------|
|-----------------------------------|-----------------------|
|-----------------------------------|-----------------------|
|
| Gtr V
|  W                                   +W
|-17--------------------------------|-(17)------------------|
|-15--------------------------------|-(15)------------------|
|-----------------------------------|-----------------------|
|-----------------------------------|-----------------------|
|-----------------------------------|-----------------------|
|-----------------------------------|-----------------------|


                                                        Gtr IV
    E  E  H             Q      E   E  Q.            +S  S S S E
|--------------------------|--------------------------------------|
|--------------------------|--------------------------------------|
|---7--9-10------------10--|---9--10-12------------(12)-----------|
|--------------------------|----------------------------x-x-x-x---|
|--------------------------|----------------------------x-x-x-x---|
|--------------------------|----------------------------x-x-x-x---|
|
|  +Q     E   E    H           Q      E    E    H
|--------------------------|--------------------------------------|
|--------------------------|--------------------------------------|
|--(9)---(7)-(9)-(10)------|-(10)----(9)-(10)-(12)----------------|
|--------------------------|--------------------------------------|
|--------------------------|--------------------------------------|
|--------------------------|--------------------------------------|
|
|  +W                         +H.                         Q
|-(17)---------------------|-(17)---------------------------------|
|-(15)---------------------|-(15)---------------------------------|
|--------------------------|--------------------------------------|
|--------------------------|--------------------------------------|
|--------------------------|--------------------------------------|
|--------------------------|--------------------------------------|


 Chorus
  D5                 F5
  Gtr IV
  E. S E E. S E Q     E.  S  E  E.  S  E  Q
|------------------|-------------------------|
|------------------|-------------------------|
|-7--7-7-7--7-7-7--|-10--10-10-10--10-10-10--|
|-7--7-7-7--7-7-7--|-10--10-10-10--10-10-10--|
|-5--5-5-5--5-5-5--|--8---8--8--8---8--8--8--|
|------------------|-------------------------|


  C5                 Bb5           N.C.
  E. S E E. S E Q    E. S E E. S E S S S S
|------------------|-------------------------|
|------------------|-------------------------|
|-5--5-5-5--5-5-5--|-3--3-3-3--3-3-----------|
|-5--5-5-5--5-5-5--|-3--3-3-3--3-3-x-x-x-x---|
|-3--3-3-3--3-3-3--|-1--1-1-1--1-1-x-x-x-x---|
|------------------|---------------x-x-x-x---|


  D5                 F5
  E. S E E. S E Q     E.  S  E  E.  S  E  Q
|------------------|-------------------------|
|------------------|-------------------------|
|-7--7-7-7--7-7-7--|-10--10-10-10--10-10-10--|
|-7--7-7-7--7-7-7--|-10--10-10-10--10-10-10--|
|-5--5-5-5--5-5-5--|--8---8--8--8---8--8--8--|
|------------------|-------------------------|


  C5                 Bb5    N.F5 E5
  E. S E E. S E Q    E. S E E Q  Q
|------------------|----------------|
|------------------|----------------|
|-5--5-5-5--5-5-5--|-3--3-3---------|
|-5--5-5-5--5-5-5--|-3--3-3-x-3--2--|
|-3--3-3-3--3-3-3--|-1--1-1-x-3--2--|
|------------------|--------x-3--2--|


 Bridge
  D5                        F5 E5   C5                        F5 E5
  E E E E E E E E   E E E E Q  Q    E E E E E E E E   E E E E Q  Q
|-----------------|---------------|-----------------|---------------|
|-----------------|---------------|-----------------|---------------|
|-----------------|---------------|-5-5-5-5-5-5-5-5-|-5-5-5-5-------|
|-7-7-7-7-7-7-7-7-|-7-7-7-7-3--2--|-5-5-5-5-5-5-5-5-|-5-5-5-5-3--2--|
|-0-0-0-0-0-0-0-0-|-0-0-0-0-3--2--|-3-3-3-3-3-3-3-3-|-3-3-3-3-3--2--|
|-0-0-0-0-0-0-0-0-|-0-0-0-0-3--2--|-----------------|---------3--2--|


  Bb5                       F5 E5   G5                A5      F5 E5
  E E E E E E E E   E E E E Q  Q    E E E E E E E E   E E E E Q  Q
|-----------------|---------------|-----------------|---------------|
|-----------------|---------------|-----------------|---------------|
|-3-3-3-3-3-3-3-3-|-3-3-3-3-------|-----------------|---------------|
|-3-3-3-3-3-3-3-3-|-3-3-3-3-3--2--|-5-5-5-5-5-5-5-5-|-7-7-7-7-3--2--|
|-1-1-1-1-1-1-1-1-|-1-1-1-1-3--2--|-5-5-5-5-5-5-5-5-|-7-7-7-7-3--2--|
|-----------------|---------3--2--|-5-5-5-5-5-5-5-5-|-7-7-7-7-3--2--|


  D5                        F5 E5   C5                        F5 E5
  E E E E E E E E   E E E E Q  Q    E E E E E E E E   E E E E Q  Q
|-----------------|---------------|-----------------|---------------|
|-----------------|---------------|-----------------|---------------|
|-----------------|---------------|-5-5-5-5-5-5-5-5-|-5-5-5-5-------|
|-7-7-7-7-7-7-7-7-|-7-7-7-7-3--2--|-5-5-5-5-5-5-5-5-|-5-5-5-5-3--2--|
|-0-0-0-0-0-0-0-0-|-0-0-0-0-3--2--|-3-3-3-3-3-3-3-3-|-3-3-3-3-3--2--|
|-0-0-0-0-0-0-0-0-|-0-0-0-0-3--2--|-----------------|---------3--2--|


  Bb5                       F5 E5   G5                A5
  E E E E E E E E   E E E E Q  Q    E E E E E E E E   Q   H.
|-----------------|---------------|-----------------|-----------|
|-----------------|---------------|-----------------|-----------|
|-3-3-3-3-3-3-3-3-|-3-3-3-3-------|-----------------|-----------|
|-3-3-3-3-3-3-3-3-|-3-3-3-3-3--2--|-5-5-5-5-5-5-5-5-|-7\--------|
|-1-1-1-1-1-1-1-1-|-1-1-1-1-3--2--|-5-5-5-5-5-5-5-5-|-7\--------|
|-----------------|---------3--2--|-5-5-5-5-5-5-5-5-|-7\--------|


 Chorus
  D5                 F5
  E. S E E. S E Q     E.  S  E  E.  S  E  Q
|------------------|-------------------------|
|------------------|-------------------------|
|-7--7-7-7--7-7-7--|-10--10-10-10--10-10-10--|
|-7--7-7-7--7-7-7--|-10--10-10-10--10-10-10--|
|-5--5-5-5--5-5-5--|--8---8--8--8---8--8--8--|
|------------------|-------------------------|


  C5                 Bb5           N.C.
  E. S E E. S E Q    E. S E E. S E S S S S
|------------------|-------------------------|
|------------------|-------------------------|
|-5--5-5-5--5-5-5--|-3--3-3-3--3-3-----------|
|-5--5-5-5--5-5-5--|-3--3-3-3--3-3-x-x-x-x---|
|-3--3-3-3--3-3-3--|-1--1-1-1--1-1-x-x-x-x---|
|------------------|---------------x-x-x-x---|


  D5                 F5
  E. S E E. S E Q     E.  S  E  E.  S  E  Q
|------------------|-------------------------|
|------------------|-------------------------|
|-7--7-7-7--7-7-7--|-10--10-10-10--10-10-10--|
|-7--7-7-7--7-7-7--|-10--10-10-10--10-10-10--|
|-5--5-5-5--5-5-5--|--8---8--8--8---8--8--8--|
|------------------|-------------------------|


  C5                 Bb5    N.F5 E5
  E. S E E. S E Q    E. S E E Q  Q
|------------------|----------------|
|------------------|----------------|
|-5--5-5-5--5-5-5--|-3--3-3---------|
|-5--5-5-5--5-5-5--|-3--3-3-x-3--2--|
|-3--3-3-3--3-3-3--|-1--1-1-x-3--2--|
|------------------|--------x-3--2--|


  D5                F5
  E E E E E E E E    E  E  E  E  E  E  E  E
|-----------------|-------------------------|
|-----------------|-------------------------|
|-7-7-7-7-7-7-7-7-|-10-10-10-10-10-10-10-10-|
|-7-7-7-7-7-7-7-7-|-10-10-10-10-10-10-10-10-|
|-5-5-5-5-5-5-5-5-|--8--8--8--8--8--8--8--8-|
|-----------------|-------------------------|


  C5                Bb5
  E E E E E E E E   E E E E E E E E
|-----------------|-----------------|
|-----------------|-----------------|
|-5-5-5-5-5-5-5-5-|-3-3-3-3-3-3-3-3-|
|-5-5-5-5-5-5-5-5-|-3-3-3-3-3-3-3-3-|
|-3-3-3-3-3-3-3-3-|-1-1-1-1-1-1-1-1-|
|-----------------|-----------------|


  D5                F5                        C5                Bb5   N.F5 E5
  E E E E E E E E    E  E  E  E  E  E  E  E   E E E E E E E E   E E E E Q  Q
|-----------------|-------------------------|-----------------|---------------|
|-----------------|-------------------------|-----------------|---------------|
|-7-7-7-7-7-7-7-7-|-10-10-10-10-10-10-10-10-|-5-5-5-5-5-5-5-5-|-3-3-3---------|
|-7-7-7-7-7-7-7-7-|-10-10-10-10-10-10-10-10-|-5-5-5-5-5-5-5-5-|-3-3-3-x-3--2--|
|-5-5-5-5-5-5-5-5-|--8--8--8--8--8--8--8--8-|-3-3-3-3-3-3-3-3-|-1-1-1-x-3--2--|
|-----------------|-------------------------|-----------------|-------x-3--2--|


 Outro
  D5                                   N.C.
                                       Gtr V
                           >            <
  W          +W           +W            W
|----------|------------|------------|-------|
|----------|------------|------------|-10----|
|----------|------------|------------|--7----|
|-0--------|-(0)--------|-(0)--------|-------|
|-0--------|-(0)--------|-(0)--------|-------|
|-0--------|-(0)--------|-(0)--------|-------|


  Gtr V
   +W            +W            +W            +W           W
|-------------|-------------|-------------|-------------|------*|
|-(10)--------|-(10)--------|-(10)--------|-(10)--------|------*|
|--(7)--------|--(7)--------|--(7)--------|--(7)--------|------*|
|-------------|-------------|-------------|-------------|------*|
|-------------|-------------|-------------|-------------|------*|
|-------------|-------------|-------------|-------------|------*|


6. I DEVISE MY OWN DEMISE

Tuning - Drop C (CGCFAD)

Notes: There is two guitars in the recording, but since Papa Roach only has one 
they only use one to play live. Both guitars are here. The second guitar is hard to hear most of 
song so you have to listen real closely.

Intro/Guitar 1
|-------------------------------------------------------------------|
|-------------------------------------------------------------------|
|-----------------10-10-10-10-10-10-10-10-9-9-9-9-9-9-9-9-9/10-9/10-|
|-7-7-7-7-7-7-7-7-10-10-10-10-10-10-10-10-9-9-9-9-9-9-9-9-9/10-9/10-|
|-7-7-7-7-7-7-7-7-8--8--8--8--8--8--8--8--7-7-7-7-7-7-7-7-7/8--7/8--|
|-7-7-7-7-7-7-7-7---------------------------------------------------|

Intro/Guitar 2 - Comes in after you play above twice.
|---------------------------------------------------------------------|
|---------------------------------------------------------------------|
|-14-14-14-14-14-14-14-14-10-10-10-10-10/12-9-9-9-9-9-9-9-9-9/10-9/10-|
|-x--x--x--x--x--x--x--x--x--x--x--x--x-x---x-x-x-x-x-x-x-x-x-x--x-x--|
|-12-12-12-12-12-12-12-12-8--8--8--8--8-/10-7-7-7-7-7-7-7-7-7/8--7/8--|
|---------------------------------------------------------------------|

Verse/Guitar 1
|---------------------------------------------------------------------------|
|---------------------------------------------------------------------------|
|---------------------------------------------------------------------------|
|-7-7-7-x-7--7-7-7---7-7-7-x-7--7-7-7---3-3-3-x-3--3-3-3---3-3-3-x-3--3-3-3-|
|-7-7-7-x-7--7-7-7---7-7-7-x-7--7-7-7---3-3-3-x-3--3-3-3---3-3-3-x-3--3-3-3-|
|-7-7-7-x-7--7-7-7---7-7-7-x-7--7-7-7---3-3-3-x-3--3-3-3---3-3-3-x-3--3-3-3-|

Verse/Guitar 2 - Comes in after you play above once.
|----------------------------------------------|
|----------------------------------------------|
|----------------------------------------------|
|----------10-----10h14-----------10-----10----|
|-12-12-12-----12--------12-12-12-----12----10-|  x2
|----------------------------------------------|
P.M.......     ..        ........     ..

|----------------------------------------------------|
|----------------------------------------------------|
|----------------------------------------------------|
|-------7----7h9--------7----9h10--------10----10/12-|
|-8-8-8----8------8-8-8----8-------8-8-8-----8-------|
|----------------------------------------------------|
P.M....    .      .....    .       .....     .

Verse Ending/Both Guitars
|-----------------|
|-----------------|
|-----------------|
|-5-5-5-5-5-5-5-5-|
|-5-5-5-5-5-5-5-5-|
|-5-5-5-5-5-5-5-5-|

Chorus/Guitar 1
|---------------------------------------------------------------------------------|
|---------------------------------------------------------------------------------|
|-----------------10-10-10-10-10-10-10-10-12-12-12-12-12-12-12-12-----------------|
|-7-7-7-7-7-7-7-7-10-10-10-10-10-10-10-10-12-12-12-12-12-12-12-12-------10-12b-10-|
|-7-7-7-7-7-7-7-7-8--8--8--8--8--8--8--8--10-10-10-10-10-10-10-10-10-12-----------|
|-7-7-7-7-7-7-7-7-----------------------------------------------------------------|

|-----------------------------------------------------------------------------------|
|-----------------------------------------------------------------------------------|
|-----------------10-10-10-10-10-10-10-10-12-12-12-12-12-12-12-12-------------------|
|-7-7-7-7-7-7-7-7-10-10-10-10-10-10-10-10-12-12-12-12-12-12-12-12-------10-------10-|
|-7-7-7-7-7-7-7-7-8--8--8--8--8--8--8--8--10-10-10-10-10-10-10-10-10-12----10-12----|
|-7-7-7-7-7-7-7-7-------------------------------------------------------------------|

|---------------------------------------------------------------------------------|
|---------------------------------------------------------------------------------|
|-----------------10-10-10-10-10-10-10-10-12-12-12-12-12-12-12-12-----------------|
|-7-7-7-7-7-7-7-7-10-10-10-10-10-10-10-10-12-12-12-12-12-12-12-12-------10-12b-10-|
|-7-7-7-7-7-7-7-7-8--8--8--8--8--8--8--8--10-10-10-10-10-10-10-10-10-12-----------|
|-7-7-7-7-7-7-7-7-----------------------------------------------------------------|

|------------------------------------------------------------------------------------|
|------------------------------------------------------------------------------------|
|-----------------10-10-10-10-10-10-10-10-12-12-12-12-12-12-12-12--------------------|
|-7-7-7-7-7-7-7-7-10-10-10-10-10-10-10-10-12-12-12-12-12-12-12-12-------10----10-----|
|-7-7-7-7-7-7-7-7-8--8--8--8--8--8--8--8--10-10-10-10-10-10-10-10-10-12----12----12\-|
|-7-7-7-7-7-7-7-7--------------------------------------------------------------------|

Chorus/Guitar 2 - Almost impossible to hear this part.
|-------------------------------------------------------------------------------------|
|-------------------------------------------------------------------------------------|
|-------------------------------------------------------------------------------------|
|-------14-14-------14-14-----10-10-----10-10-------12-12-------12-12-------10-12b-10-|
|-12-12-------12-12-------8-8-------8-8-------10-10-------10-10-------10-12-----------|
|-------------------------------------------------------------------------------------|

|---------------------------------------------------------------------------------------|
|---------------------------------------------------------------------------------------|
|---------------------------------------------------------------------------------------|
|-------14-14-------14-14-----10-10-----10-10-------12-12-------12-12-------10-------10-|
|-12-12-------12-12-------8-8-------8-8-------10-10-------10-10-------10-12----10-12----|
|---------------------------------------------------------------------------------------|

|-------------------------------------------------------------------------------------|
|-------------------------------------------------------------------------------------|
|-------------------------------------------------------------------------------------|
|-------14-14-------14-14-----10-10-----10-10-------12-12-------12-12-------10-12b-10-|
|-12-12-------12-12-------8-8-------8-8-------10-10-------10-10-------10-12-----------|
|-------------------------------------------------------------------------------------|

|----------------------------------------------------------------------------------------|
|----------------------------------------------------------------------------------------|
|----------------------------------------------------------------------------------------|
|-------14-14-------14-14-----10-10-----10-10-------12-12-------12-12-------10----10-----|
|-12-12-------12-12-------8-8-------8-8-------10-10-------10-10-------10-12----12----12\-|
|----------------------------------------------------------------------------------------|

Fill/Guitar 1
|-------------------|
|-------------------|
|-------------------|
|-7-7-7-x-7--7-7-7\-|
|-7-7-7-x-7--7-7-7\-|
|-7-7-7-x-7--7-7-7\-|

Fill/Guitar 2
|-------------------------|
|-------------------------|
|-9-9-9-x-9--7-5----------|
|----------------7-7-x-7\-|
|-------------------------|
|-------------------------|

Play Verse without Guitar 1

Play Verse Ending

Play Chorus

Play Intro x2

Bridge/Both Guitars
|--------------------------------------------|
|--------------------------------------------|
|-----------------------5-5-5-x-5------------|
|-7-7-7-x-7--3-3-3-x-3--5-5-5-x-5--5-5-5-x-5-|
|-7-7-7-x-7--3-3-3-x-3--3-3-3-x-3--5-5-5-x-5-|
|-7-7-7-x-7--3-3-3-x-3-------------5-5-5-x-5-|

Play Verse w/ Both Guitars

Play Chorus

Post-Chorus/Both Guitars
|-------------------------------------------------|
|-------------------------------------------------|
|-----------------5-5-5-5-5-5-5-5-----------------|
|-3-3-3-3-3-3-3-3-5-5-5-5-5-5-5-5-5-5-5-5-5-5-5-5-|
|-3-3-3-3-3-3-3-3-3-3-3-3-3-3-3-3-5-5-5-5-5-5-5-5-|
|-3-3-3-3-3-3-3-3-----------------5-5-5-5-5-5-5-5-|

Ending/Both Guitars
|------------------|
|------------------|
|--------5-x-5-----|
|-3-x-3--5-x-5--5~-|
|-3-x-3--3-x-3--5~-|
|-3-x-3---------5~-|

End On
|-------|
|-------|
|-------|
|-5~~~~-|
|-5~~~~-|
|-5~~~~-|


7. TIME IS RUNNING OUT

Tuning: DADGBE

Intro/Bridge (Light Distortion)
|----------------------------------------------------|
|----------------------------------------------------|
|-10--10-10-10--10-10-10--10-10-2--2-2-2--2-2-2--2-2-|
|-10--10-10-10--10-10-10--10-10-2--2-2-2--2-2-2--2-2-|
|-8---8--8--8---8--8--8---8--8--0--0-0-0--0-0-0--0-0-|
|----------------------------------------------------|

End with
|---------|
|---------|
|-12~~~~~-|
|-12~~~~~-|
|-10~~~~~-|
|---------|

Chorus
|--------------------------------------------------------------------------|
|--------------------------------------------------------------------------|
|-10-10-10--10-10-10--12-12-12--12-12-12-----------------------------------|
|-10-10-10--10-10-10--10-10-10--10-10-10--7-7-7--7-7-7--10-10-10--10-10-10-|
|-8--8--8---8--8--8---10-10-10--10-10-10--5-5-5--5-5-5--7--7--7---7--7--7--|
|-----------------------------------------5-5-5--5-5-5--7--7--7---7--7--7--|

Verse
|------------------------------------------|
|------------------------------------------|
|-10-10-10--10-10-10-----------------------|
|-10-10-10--10-10-10----10-10-10--10-10-10-|
|-8--8--8---8--8--8-----7--7--7---7--7--7--|
|-----------------------7--7--7---7--7--7--|

End with (Guitar 1)      End with (Guitar 2)
|-------|                |--------|
|-------|                |--------|
|-------|                |-12~~~~-|
|-5~~~~-|                |-12~~~~-|
|-5~~~~-|                |-10~~~~-|
|-5~~~~-|                |--------|

Play Chorus

Play Verse

Play Chorus

Play Intro

Bridge (Guitar 2)- he does this very quietly in the background.
|-----------------------------|
|-----------------------------|
|-10~---10-8-7-10---10-8-7-10-|
|-----------------------------| Keeps repeating, my be a few variations here
|-----------------------------| and there, but basically this is it.
|-----------------------------|

Play Chorus

Final Chorus Variation (Guitar 1)
|--------------------------------------------------------------|
|--------------------------------------------------------------|
|--------------------------------------------------------------|
|-3-3-3--3-3-3--10-10-10--10-10-10--7-7-7--7-7-7--7-7-7--7-7-7-|
|-3-3-3--3-3-3--7--7--7---7--7--7---5-5-5--5-5-5--5-5-5--5-5-5-|
|-3-3-3--3-3-3--7--7--7---7--7--7---5-5-5--5-5-5--5-5-5--5-5-5-|

Final Chorus Variation (Guitar 2)-lightly palm muted
|----------------------------------|
|----------------------------------|
|---554455--554455--554455--557755-|
|-55------55------55------55-------|
|----------------------------------|
|----------------------------------|

Ending (Guitar 1)
|--------------|
|--------------|
|--------------|
|-7~---10~~~~~-|
|-5~---7~~~~~~-|
|-5~---7~~~~~~-|

Ending (Guitar 2)
|--------------|
|--------------|
|-7~---9~~~~~~-|
|--------------|
|--------------|
|--------------|


8. WHAT DO YOU DO?

Intro
E|-----------------|
B|-----------------|
G|-7766776677699996|
D|-----------------| x4
A|-----------------|
D|-----------------|

Verse
E|-------5--------------5--------------5--------------5---------|
G|---------5~--3~---------5~--3~---------5~--3~---------5~--3~--|
B|--------------------------------------------------------------|
D|-----0~-------------0~-------------5~-------------5~----------| x2
A|---0~-------------0~-------------5~-------------5~------------|
D|-0~-------------0~-------------5~-------------5~--------------|

Pre Chorus
E|-------5--------------4---|
G|---------5~--3----------5-|
B|-----2--------------------|
D|---2----------------5-----|
A|-0----------------5-------|
D|----------------5---------|
PM		           .

Chorus (notes in fill are not one two one zero, they’re twelve ten)
E|-----------------------------------------------------------------------|
B|-----------------------------------------------------------------------|
G|----5~--5~--5~--------------9-7----------------------------------------|
D|0~--7~--7~--7~--7~--7~--7~------7-6--9~--9~--7~--7~--5~--5~--5~--5~----|
A|0~--7~--7~--7~--7~--7~--7~-----------9~--9~--7~--7~--5~--5~--5~--5~----|
D|0~--0~--0~--0~--7~--7~--7~-----------9~--9~--7~--7~--5~--5~--5~--5~--\-|

Repeat Verse, Pre Chorus, and Chorus

Bridge (play twice, again it’s eight tens and ten twelves not ones, twos, and zeros)
E|--------------------------------------------------------------------------------|
B|--------------------------------------------------------------------------------|
G|----------------------------------------777777777777777777777777------------1012|
D|8-8-8-8-8-8-8-8-10-10-10-10-10-10-10-10-777777777777777777777777--------1012----|
A|8-8-8-8-8-8-8-8-10-10-10-10-10-10-10-10-555555555555555555555555----1012--------|
D|8-8-8-8-8-8-8-8-10-10-10-10-10-10-10-10-------------------------1012------------|

Repeat Chorus

Outtro (end on the twelves)
E|------------------------------------------------------------------------|----|
B|------------------------------------------------------------------------|----|
G|------------------------------------------------------------------------|----|
D|0-0-0-0-0-0-0-0-7-7-7-7-7-7-7-7-8-8-8-8-8-8-8-8-10-10-10-10-10-10-10-10-|12~-|
A|0-0-0-0-0-0-0-0-7-7-7-7-7-7-7-7-8-8-8-8-8-8-8-8-10-10-10-10-10-10-10-10-|12~-|
D|0-0-0-0-0-0-0-0-7-7-7-7-7-7-7-7-8-8-8-8-8-8-8-8-10-10-10-10-10-10-10-10-|12~-|



9. MY HEART IS A FIST

Tuning: DADGBE

Pre-Chorus - x1
-----------------|-----------------|-----------------|-------------|
----------8---11-|----------8---11-|----------8---11-|-10----8-----|
-7---10----------|-7---10----------|-7---10----------|----------10-|
-----------------|-----------------|-----------------|-------------|
-----------------|-----------------|-----------------|-------------|
-----------------|-----------------|-----------------|-------------|

Chorus - x1 *play each chord 8 times
-------------------------------|
-------------------------------|
-------------------------------|
-5---3---1---8---5---3---1---3-|
-5---3---1---8---5---3---1---3-|
-5---3---1---8---5---3---1---3-|

Post-Chorus - x1
-------------------------|
---------------15-----18-|
-14-----17---------------|
-------------------------|
-------------------------|
-------------------------|

Verse - x4 *PM
-----------|
-----------|
-----------|
-----------|
-----------|
-0-0-0-0-0-|

Verse - x2 *Fast Strum
-10--13-12-|-10--6-8-|
-x----x-x--|-x---x-x-|
-7---10-9--|-7---3-5-|
-----------|---------|
-----------|---------|
-----------|---------|

Pre-Chorus - x1
-----------------|-----------------|-----------------|-------------|
----------8---11-|----------8---11-|----------8---11-|-10---8------|
-7---10----------|-7---10----------|-7---10----------|----------10-|
-----------------|-----------------|-----------------|-------------|
-----------------|-----------------|-----------------|-------------|
-----------------|-----------------|-----------------|-------------|

Chorus - x2 *play each chord 8 times
---------------|---------------|
---------------|---------------|
---------------|---------------|
-5---3---1---8-|-5---3---1---3-|
-5---3---1---8-|-5---3---1---3-|
-5---3---1---8-|-5---3---1---3-|

End - x4 *let each chord ring
-----------------------------|
-----------------------------|
-----------------------------|
-5---5---3---5---1---1---8-7-|
-5---5---3---5---1---1---8-7-|
-5---5---3---5---1---1---8-7-|

End on
---
---
---
-5-
-5-
-5-



10. NO MORE SECRETS

Intro (after a pick slide)
e|---------------|
B|---------------|
G|-7---5---3-----| (x2)
D|-7---5---3---5-|
A|-5---3---1---5-|
D|-------------5-|

Intro Solo (during second repeat of the Intro)
e|---------------|
B|---------------|
G|-12b--12-10----|
D|------------10-|
A|---------------|
D|---------------|

e|----------------------------------------------------------|
B|----------------------------------------------------------|
G|-7-0-7p0-7p0-5p0-7p0-5-7-5-10-0-7p0-7p0-5p0-7p0-5-7-5--10-|
D|----------------------------------------------------------|
A|----------------------------------------------------------|
D|----------------------------------------------------------|

e|--------------------------------------------|
B|--------------------------------------------|
G|-0-7p0-7p0-5p0-7p0-5-7-5--10-0-7p0-7p0-5p0--|
D|--------------------------------------------|
A|--------------------------------------------|
D|--------------------------------------------|

e|---------------------------|
B|---------------------------|
G|-12b--10-12-10-12-10----7\-|
D|---------------------10----|
A|---------------------------|
D|---------------------------|

This chord is played in sync with the last solo note

e|----
B|----
G|-7\-
D|-7\-
A|-5\-
D|----

Verse

e|------------------------------------------------------|
B|------------------------------------------------------|
G|-7-7--------------------------------------------------|
D|-7-7--3~--3---3-3--8~--8---8-8--10~--10--x-x-5-0-7b---|
A|-5-5--3~--3---3-3--8~--8---8-8--10~--10--x-x-3-0-5b-0-|
D|------3~--3---3-3--8~--8---8-8--10~--10--x-x--------0-|

e|--------------------------------------------|
B|--------------------------------------------|
G|----7-7-------------------------------------|
D|-xx-7-7--3~--3---3-3--8~--8---8-8--10~--10~-|
A|-xx-5-5--3~--3---3-3--8~--8---8-8--10~--10~-|
D|-xx------3~--3---3-3--8~--8---8-8--10~--10~-|

Another Pick slide before the chorus

Chorus
e|----------------|
B|----------------|
G|--7---5---3-----|
D|--7---5---3---5-|
A|--5---3---1---5-|
D|--------------5-|

e|--------------------|
B|--------------------|
G|--7---5-------5---7-|
D|--7---5---5---5---7-|
A|--5---3---5---3---5-|
D|----------5---------|

A small solo before continuing the verse
e|------------------------------------------------|
B|------------------------------------------------|
G|--7-0-7p0-7p0-5p0-7p0-5-7-5-10-0-7p0-7p0-5p0-7/-|
D|------------------------------------------------|
A|------------------------------------------------|
D|------------------------------------------------|

Verse
e|-------------------------------------------------------------|
B|-------------------------------------------------------------|
G|-7~-7---7-7--------------------------------------------------|
D|-7~-7---7-7--3~--3---3-3--8~--8---8-8--10~--10--x-x-5-0-7b---|
A|-5~-5---5-5--3~--3---3-3--8~--8---8-8--10~--10--x-x-3-0-5b-0-|
D|-------------3~--3---3-3--8~--8---8-8--10~--10--x-x--------0-|


e|------------------------------------|
B|------------------------------------|
G|-7-7--------------------------------|
D|-7-7--3~--3---3-3--8~--8---8-8--10~-|
A|-5-5--3~--3---3-3--8~--8---8-8--10~-|
D|------3~--3---3-3--8~--8---8-8--10~-|

[Pick slide and Chorus]

Bridge
e|-----------------------------|
B|-----------------------------|
G|-0-7p0-7p0-5p0-7p0-5-7-5--10-| (x7)
D|-----------------------------|
A|-----------------------------|
D|-----------------------------|

e|---------------|
B|---------------|
G|-12b--12-10----|
D|------------10-|
A|---------------|
D|---------------|

Guitar 2 plays this with the bridge solo. Listen for the timing.
e|---------|
B|---------|
G|----7~-7-|
D|-x--7~-7-| (x4)
A|-x--5~-5-|
D|-x-------|

e|---------------------------------------------|
B|---------------------------------------------|
G|---7~-7---7-7--------------------------------|
D|-x-7~-7---7-7--3~--3---3-3--8~--8---8-8--10~-|
A|-x-5~-5---5-5--3~--3---3-3--8~--8---8-8--10~-|
D|-x-------------3~--3---3-3--8~--8---8-8--10~-|

[Chorus] (x1)

Outro
e|---------------|
B|---------------|
G|-7---5---3-----|
D|-7---5---3---5-|
A|-5---3---1---5-|
D|-------------5-|

e|---------------|
B|---------------|
G|-7---5---3---5-|
D|-7---5---3---5-|
A|-5---3---1---3-|
D|---------------|

e|------|
B|------|
G|---7~-| (x4)
D|---7~-
A|---5~-
D|------

This solo is played with the chord above.
Exempt the last note during the 4th time.
e|-----------------------------|
B|-----------------------------|
G|-0-7p0-7p0-5p0-7p0-5-7-5--10-| (x4)
D|-----------------------------|
A|-----------------------------|
D|-----------------------------|

e|------|
B|------|
G|---7\-
D|---7\-
A|---5\-
D|------


11. RECKLESS

Intro
e|------------------------|
B|------------------------|
G|----------4b-4-2--------| x2
D|--4-2-4-2--------4-2-4--|
A|------------------------|
E|------------------------|

Intro Alternate,
e|--------------------------|
B|--------------------------|
G|--------------------------| x2
D|----------9b--9-7---------|
A|--9-7-9-7----------9-7-9\-|
E|--------------------------|

Slide down on last note 2nd time round

Pre Chours
e|------------------------------------------|
B|------------------------------------------|
G|--777777--999999--777777--999999--777777--|
D|--xxxxxx--xxxxxx--xxxxxx--xxxxxx--xxxxxx--|
A|--555555--777777--555555--777777--555555--|
E|------------------------------------------|

Chorus
e|------------------------------------------|
B|------------------------------------------|
G|----------------------77777777------------| x2
D|--77777777--44444444--77777777--22222222--| 
A|--77777777--44444444--55555555--22222222--|
E|--55555555--22222222------------00000000--|

Intro
e|------------------------|
B|------------------------|
G|----------4b-4-2--------| x2
D|--4-2-4-2--------4-2-4--|
A|------------------------|
E|------------------------|

Pre Chours
e|------------------------------------------|
B|------------------------------------------|
G|--777777--999999--777777--999999--777777--|
D|--xxxxxx--xxxxxx--xxxxxx--xxxxxx--xxxxxx--|
A|--555555--777777--555555--777777--555555--|
E|------------------------------------------|

Chorus
e|------------------------------------------|
B|------------------------------------------|
G|----------------------77777777------------| x2
D|--77777777--44444444--77777777--22222222--| 
A|--77777777--44444444--55555555--22222222--|
E|--55555555--22222222------------00000000--|

Solo thing
e|----------------------------------------|
B|----------------------------------------|
G|--9~-9-10-7~-7-9-55555555-77777777-99~--|
D|----------------------------------------|
A|----------------------------------------|
E|----------------------------------------|

Palm muted part before chorus
e|----------------|
B|----------------|
G|----------------|
D|--22222--55555--|
A|--22222--55555--|
E|--00000--33333--|
    xxxxx 

Chorus
e|------------------------------------------|
B|------------------------------------------|
G|----------------------77777777------------| x2
D|--77777777--44444444--77777777--22222222--| 
A|--77777777--44444444--55555555--22222222--|
E|--55555555--22222222------------00000000--|

--End Chorus i'm working on now--

End with
e|----------------------|
B|----------------------|
G|----------4b-4-2------| x2
D|--4-2-4-2--------4-2--|
A|----------------------|
E|----------------------|

Drop D Tuning
Song: Reckless
Artist: Papa Roach
Tuning: DADGBe Standard
Tabber: Dan Fallows (Sick of you)

Intro
e|------------------------|
B|------------------------|
G|----------4b-4-2--------| x2
D|--4-2-4-2--------4-2-4--|
A|------------------------|
D|------------------------|

Pre Chours
e|------------------------------------------|
B|------------------------------------------|
G|--777777--999999--777777--999999--777777--|
D|--xxxxxx--xxxxxx--xxxxxx--xxxxxx--xxxxxx--|
A|--555555--777777--555555--777777--555555--|
D|------------------------------------------|

Chorus
e|------------------------------------------|
B|------------------------------------------|
G|----------------------77777777------------| x2
D|--77777777--44444444--77777777--22222222--| 
A|--77777777--44444444--55555555--22222222--|
D|--77777777--44444444------------22222222--|

Intro
e|------------------------|
B|------------------------|
G|----------4b-4-2--------| x2
D|--4-2-4-2--------4-2-4--|
A|------------------------|
D|------------------------|

Pre Chours
e|------------------------------------------|
B|------------------------------------------|
G|--777777--999999--777777--999999--777777--|
D|--xxxxxx--xxxxxx--xxxxxx--xxxxxx--xxxxxx--|
A|--555555--777777--555555--777777--555555--|
D|------------------------------------------|

Chorus
e|------------------------------------------|
B|------------------------------------------|
G|----------------------77777777------------| x2
D|--77777777--44444444--77777777--22222222--| 
A|--77777777--44444444--55555555--22222222--|
D|--77777777--44444444------------22222222--|

Solo thing
e|----------------------------------------|
B|----------------------------------------|
G|--9~-9-10-7~-7-9-55555555-77777777-99~--|
D|----------------------------------------|
A|----------------------------------------|
D|----------------------------------------|

Palm muted part before chorus
e|----------------|
B|----------------|
G|----------------|
D|--22222--55555--|
A|--22222--55555--|
D|--22222--55555--|
    xxxxx 

Chorus
e|------------------------------------------|
B|------------------------------------------|
G|----------------------77777777------------| x2
D|--77777777--44444444--77777777--22222222--| 
A|--77777777--44444444--55555555--22222222--|
D|--77777777--44444444------------22222222--|

--End Chorus i'm working on now--

End with
e|------------------------|
B|------------------------|
G|----------4b-4-2--------| x2
D|--4-2-4-2--------4-2-4--|
A|------------------------|
E|------------------------|



12. THE FIRE

Tuning: Dropped D Tuning

Intro||
e|--------------||
B|-------7--8---||
G|-6h7-6-7--7---|| repeat 4 times
D|-------9--9---||
A|--------------||
D|--------------||

Verse 1
e|--------------------|
B|---7--7----8--8-----|
G|--7-7--7--7-7--7----| repeat 8 times
D|-9---9---9---9------|
A|--------------------|
D|--------------------|

Pre Chorus
e|------------------|
B|------------------|
G|------------------|
D|----5-0-5---------| repeat 4 times
A|--9-5-0-----------|
D|-9--5-0-----------|

Chorus
e|----------------|
B|----------------|
G|----------------|
D|-5--0--2--5-7---| 
A|-5--0--2--5-7---|
D|-5--0--2--5-7---|

Verse 2					Bridge -&gt; Verse 2 to Chorus
e|-------------------|			E----------|-----|
B|---7--7-----8--8---|			B-7-7--8-8-|-7-7—|
G|--7-7--7---7-7--7--| repeat 8 times 	G-7-7--7-7-|-7-7-|
D|-9---9----9---9----|			D----------|-----|
A|-------------------|			A----------|-----|
D|-------------------|			D----------|-----|

Pre Chorus
e|------------------|
B|------------------|
G|------------------|
D|----5-0-5---------| repeat 4 times
A|--9-5-0-----------|
D|-9--5-0-----------|

Chorus
e|----------------|
B|----------------|
G|----------------|
D|-5--0--2--5-7---| 
A|-5--0--2--5-7---|
D|-5--0--2--5-7---|
Pre Chorus
e|------------------|
B|------------------|
G|------------------|
D|----5-0-5---------| repeat 2 times
A|--9-5-0-----------|
D|-9--5-0-----------|

Chorus
e|----------------|
B|----------------|
G|----------------|
D|-5--0--2--5-7---| 
A|-5--0--2--5-7---|
D|-5--0--2--5-7---|

Pre Chorus
e|------------------|
B|------------------|
G|------------------|
D|----5-0-5---------| repeat 2 time
A|--9-5-0-----------|
D|-9--5-0-----------|

Solo 
e|------------------------------------------------------------------------|
B|-----------------------------------------7-8-7-----7-8-7----7-8-7-------|
G|-----------------------------------------------7-9-------7--------7-9-9~|
D|-9--7-9-11--9-11-12--11-12-14--14~&gt;14-12-9-----------------9------------|
A|------------------------------------------------------------------------|
D|------------------------------------------------------------------------|

Pre Chorus
e|------------------|				
B|------------------|				
G|------------------|				
D|----5-0-5---------| repeat 4 times		
A|--9-5-0-----------|
D|-9--5-0-----------|

Chorus
e|----------------|
B|----------------|
G|----------------|
D|-5--0--2--5-7---| 
A|-5--0--2--5-7---|
D|-5--0--2--5-7---|

Pre Chorus
e|------------------|				
B|------------------|				
G|------------------|				
D|----5-0-5---------| repeat 4 times		
A|--9-5-0-----------|
D|-9--5-0-----------|

Chorus
e|----------------|
B|----------------|
G|----------------|
D|-5--0--2--5-7---| 
A|-5--0--2--5-7---|
D|-5--0--2--5-7---|
Pre Chorus
e|------------------|			-------|
B|------------------|			-------|
G|------------------|			-------|
D|----5-0-5---------| repeat 4 times	-9~----| Outro 
A|--9-5-0-----------|			-9~----|
D|-9--5-0-----------|			-9~----|



13. ROSES ON MY GRAVE

No guitar parts




ALL CREDIT GOES TO ORIGINAL TABBERS AS LISTED AT THE TOP OF THE PAGE.
comments
We did not receive enough feedback on this tab! Please rate:
print report bad tab
1 2 3 4 5
5 comments total. Showing first comments.
0 reply
JL Sevenfold wrote on April 11 2007, 09:39 pm

haven't really looked at the tab yet, but Roses on my Grave has a guitar before the ochestra comes in which I haven't gotten yet & in the outro where Jacoby sings, "It's my redemption! Time for redemption!" that goes:
|-----------|
|-----------|
|-----------|
|-0---3---5-|
|-0---3---5-|
|-0---3---5-|
...or maybe it's a bass line? I'm not sure. Anyway, thanks for mentioning me for What Do You Do?, I appreciate the credit & am glad I could help.

0 reply
JL Sevenfold wrote on April 22 2007, 10:57 pm

BTW I also went back to my tab (What Do You Do) and changed it a little so you might want to update. Cool.

0 reply
JL Sevenfold wrote on May 7 2007, 10:44 pm

1 more note- I checked out your BYOB tab, I agree that kids are coming in and screwing things up, even though I'm new too, but I don't try to show off or be a jerk. Good luck getting 2000 pts and "retiring". Your tabs rule, dude.

I want to post or [tab]
guest
You may want to rate the tab now too:
select rating
Please do not post tabs as comments. Select "correction" instead!