Oops, an error
Loading. Please wait.

All We Know Is Falling Bass Tab

10,381 views 31 this week
2 commentsread comments
1 2 3 4 5
accurate
x 3
Autoscroll
+/-
esc
set tempo
stop
Contributor
Hey! There's an official Ultimate Guitar app which is ideal
for learning songs when you're away from computer. Get the app
WARNING: You are trying to view
                                    content from Ultimate-Guitar.com
                                    in an unauthorized application,
                                    which is prohibited.

                                    Please use an official Ultimate
                                    Guitar Tabs application for iPhone,
                                    iPad or Android to access legitimate
                                    chords, guitar, bass, and drum tabs
                                    from Ultimate-Guitar.com database.

                                    Type "ultimate guitar tabs" in Apple
                                    App Store's or Android Market's
                                    search to find the application.
 Paramore
 All We Know Is Falling

 1.All We Know(dvanwyk)
 2.Pressure(DarfnageL)
 3.Emergency(iheart_a7x)
 4.Brighter(iheart_a7x)
 5.Here We Go Again(iheart_a7x)
 6.Never Let This Go(dvanwyk)
 7.Whoa(dvanwyk)
 8.Conspiracy(Xb4mvluvrX)
 9.Franklin(iheart_a7x)
 10.My Heart(iheart_a7x)

===============================================================================
 
 1.All We Know(dvanwyk)

 Verse x2
G|-----------------------------------------|
D|----------------------------5------------|
A|----------------------333333--3--333333--|
D|222/777--222/555--222-----------5--------|
 (Tens not One and Zeros)
G|-----------------------------------------------|
D|---------------------------------5-------------|
A|-----------777-----------3333-33---3--33333-3--|
D|222/777--------1010--222-------------5---------|
 Chorus x2
G|------------------------------------|
D|------------------------------------|
A|---------2223333333-----------------|
D|22222222-----------22-7777-22-5555--|
 Verse x2
G|-----------------------------------------|
D|----------------------------5------------|
A|----------------------333333--3--333333--|
D|222/777--222/555--222-----------5--------|

 Chorus x2
G|------------------------------------|
D|------------------------------------|
A|---------2223333333-----------------|
D|22222222-----------22-7777-22-5555--|

 Bridge
G|--------------------------------|
D|--------------------------------|
A|3~-5-7-3~-5-7-3~--5-7-----3-----|
D|-----------------------22---22--|

G|--------------------------------------|
D|--------------------------------------|
A|33----------------33------------------|
D|2222222244444444-----222222223333333--|

G|-----------------------------------------------------------------------------|
D|----------------------------------------------------------------5------------|
A|33333333333------------------33333333------------------33333-33---3---33333--|
D|------------2222222244444444---------2222222244444444---------------3--------|

 Chorus x2
G|------------------------------------|
D|------------------------------------|
A|---------2223333333-----------------|
D|22222222-----------22-7777-22-5555--|

===============================================================================

 2.Pressure(DarfnageL)

 Intro/Bridge - Guitar first, bass enters 0:06
 
G|-------------------------------|
D|-------------------------------|
A|2-22222------------------------|
D|--------0-00000-5-55555-0-00000|
  
  Verse
G|--------------------------------------------------|
D|------------------------------------------------4~|
A|----------------------------------------------45--|
D|99--9\55--5\00--0/44--4/99--9\55--5\00--0/44------|

G|----------------------------------------------------------------|
D|----------------------------------------------------------------|
A|2-2-2-20-----------------------02-2-2-20------------------------|
D|--------5-5-5-570-0-0-024-4-4-4---------5-5-5-570-0-0-0244444444|

  Chorus                                                     1st        2nd
G|----------------------------------------------------------|----------|--------|
D|------------------------------4~--------------------------|------4--.|--------|
A|-----------------------------5----------------------------|----45-54.|--------|
D|5555555-00000000-4444444-5555----5555555-00000000-4444444-|5555------|55555555|

  verse 2     (1:04)
G|---|---r---|-------------------------------|
D|---|---e---|-----------------------------4~|
A|2 2|---s---|-2/14\---------------------45--|
D|---|---t---|------99--9\55--5\00--0/44-----|

G|----------------------------------------------------------------|
D|----------------------------------------------------------------|
A|2-2-2-20-----------------------02-2-2-20------------------------|
D|--------5-5-5-570-0-0-024-4-4-4---------5-5-5-570-0-0-0244444444|

  Chorus
  
  Guitar   Bass fill (1:52)
G|---r---|14---------|
D|---e---|--16 14 16\|
A|---s---|-----------|
D|---t---|-----------|

  Intro/Bridge x2

  Bass solo                                        1st               2nd
G|------------------------------------------------|-----------------|----------------|
D|------------------------------------------------|----------------.|----------------|
A|2-2-2-20---------------------02-2-2-2-24--------|---------------0.|----------------|
D|--------5-5-5-570-0-0-024-4-4-----------5-5-5-54|0-0-0-024-4-4-4--|0-0-0-0244444444|

  Outro Chorus 
G|-----------------------------------------------------------------|-r-|
D|--------------------------------4--------------------------------|-e-|
A|------------------------------45-54------------------------------|-s-|
E|5555555-00000000-44444444-5555-----5555555-00000000-4444444-55555|-t-|

G|-----------------------------------------------------------------------------------|
D|------------------------------4~-------------------------------4~------------------|
A|-----------------------------5--------------------------------5--------------------|
D|5555555-00000000-4444444-5555----5555555-00000000-4444444-5555----0----------------|

===============================================================================

 3.Emergency(iheart_a7x)

 Intro/verse
G|---------------------------------------------------|
D|---------------------------------------------------|
A|---------------------------------------------------| x5
D|-0-0-0-0-0-0-0-0-244-4-4-4-4-4-222244-4-4-4-4-2222-|

Pre-Chorus:
it's really not your fault...
G|-------------------------------------------|
D|----6p7h6----------2h4---------------------|
A|----------7----2h4---------------2222-4444-|
D|-22---------44---------00~-0-00~-----------|

Chorus:
G|-------------------------------------------------------|
D|-------------------------------------------------------|
A|--2222--------------------------2222-------------------|
D|-------0-0-0-0-0-0-4444-777-7-7------0-0-0-0-4444-2222-| x2

Intro/Verse not sure how many times it repeats. 
G|----------------------------------------------------|
D|----------------------------------------------------|
A|----------------------------------------------------|
D|-0-0-0-0-0-0-0-0-2h44-4-4-4-4-4-222244-4-4-4-4-2222-|

Back to Pre-Chorus
Then to Chorus.

Breakdown. really fast sliding. this part is hard.
G|----------------------------------------------|   |-------------------|
D|----------------------------------------------|   |-------------------|
A|------------------------------------------4---|x2 |------4-555-----555-|x2
D|-0-0-0-0-0-0-0-0-222-22h4/6-2-444-444/6h7---7-|   |--000-------0-------|

Solo
G|--------------------------------------------------|
D|--------------------------------------------------|
A|-----------------4h55----555----4h55---55---------|
D|-222222-444444-00-----00-----00------0----222-444-|

End the last chorus with this:
G|-----------------------|
D|-----------------------|
A|-----------------------|
D|-------0-0-0-0-0-0-0-4~|

===============================================================================

 4.Brighter(iheart_a7x)

  Intro/Chorus:
G|-------------------------------------------|
D|-------------------------------------2-----|
A|-----------------------------------2-------|
D|-7(x16)-9999-4(x16)-0(x16)-2~--4-2---------|


Verse: So this is how it goes...
G|---------------------------------------------------------------------------|
D|-444-222-----------444-222-----------444-222------------444-666------------|
A|---------555-5h------------555-5h------------555-5h------------------------|
E|----------------70----------------70----------------70----------0000000000-|

Chorus:
G|----------------------------------------|
D|-------------------------------------2--|
A|-----------------------------------2----|
D|-7(x16)-9999-4(x16)-0(x16)-2~--4-2------|

Back to verse

During guitar solo (2:04)
G|---------------------|
D|---------------------|
A|---------------------|
D|-444-222-000-00020---|x2

If you run away now...
G|------------------------------------------------------------|
D|-----------------------------------------4~--2~2----4~-6----|
A|-------------------------------------------------5~---------|
D|-4(x8)-2(x8)-0(x10)-20-44444444-66666-0~------------------0-|

===============================================================================

 5.Here We Go Again(iheart_a7x)

 Intro
G|--------------------------------------------------|
D|---------------------------------------------6----|
A|-------6h7p6-------7p6h7-------6h7p6-----7-9---7--|
E|-5-5-5-------9-9-9-------5-5-5-------9-9----------|

Verse
G|---------------------------------------------------|
D|-----------------------------------------------2---|
A|-------6h7p6-------7p6h7-------6h7p6---------------|
E|-5-5-5-------9-9-9-------5-5-5-------9-9--22-4---4-|

G|--------------------------------------------------|
D|---------------------------------------------6----|
A|-------6h7p6-------7p6h7-------6h7p6-----7-9---7--|
E|-5-5-5-------9-9-9-------5-5-5-------9-9----------|

Chorus 
G|-----------------------------------------------|
D|-----------------------------------------------|
A|-------------7--------------44444444-6666-7777-|
E|-5555-5-5-5----5555-5-5-5-5--------------------| x2

G|-----------------------------------------------|
D|-----------------------------------------------|
A|-------------7--------------44444444-----------|
E|-5555-5-5-5----5555-5-5-5-5----------444444-5~-|

Intro x1

Verse
G|---------------------------------------------------|
D|-----------------------------------------------2---|
A|-------6h7p6-------7p6h7-------6h7p6---------------|
E|-5-5-5-------9-9-9-------5-5-5-------9-9--22-4---4-|

G|--------------------------------------------------|
D|---------------------------------------------6----|
A|-------6h7p6-------7p6h7-------6h7p6-----7-9---7--|
E|-5-5-5-------9-9-9-------5-5-5-------9-9----------|

Chorus 
G|-----------------------------------------------|
D|-----------------------------------------------|
A|-------------7--------------44444444-6666-7777-|
E|-5555-5-5-5----5555-5-5-5-5--------------------| x2

G|-----------------------------------------------|
D|-----------------------------------------------|
A|-------------7--------------44444444-----------|
E|-5555-5-5-5----5555-5-5-5-5----------444444-5~-|

Bridge (2:05)
G|----------------------------------------------|
D|----------------------------------------------|
A|-00000----2----44444-----00000---2---44444444-|
E|--------2----4-------020-------2---4----------|

(2:13)
G|-----------------------------------------------------------------|
D|-----------------------------------------------------------------|
A|-0000000000000000-44444444-6666-7777-0000000000000000-44444444---|
E|---------------------------------------------------------------4-|

Chorus 
G|-----------------------------------------------|
D|-----------------------------------------------|
A|-------------7--------------44444444-6666-7777-|
E|-5555-5-5-5----5555-5-5-5-5--------------------| x2

G|-----------------------------------------------|
D|-----------------------------------------------|
A|-------------7--------------44444444-----------|
E|-5555-5-5-5----5555-5-5-5-5----------444444-5~-|

Breakdown:
G|---------------------------------------|    |----------------------|
D|---------------------------------------|    |----------------------|
A|0-0-0-0-0-0---2---2--44----------------|    |-44444444-66666666-7~-|
E|------------2---4-------4-2-2-2-2-2020-| x4 |----------------------|

===============================================================================

 6.Never Let This Go(dvanwyk)
  
 Intro
G|-------------------------------|
D|-------------------------------|
A|-------------------------------|
D|11111111-44444444-99999999-0~--|
 Verse,Maybe if my heart stops beating
G|------------------------------------------------------|
D|------------------------------------------------------|
A|------------------------------------------------------|
D|999-6~-999-6~-68-111~-34---999-6~-46--999-6~-86-111~--|
 Pre-Chorus
G|----------------------|
D|----------------------|
A|----------------------|
D|999-6~-999-666666666--|
 Chorus
G|----------------------------------------------------------------64------|
D|------------------------------------------------------------------6-42--|
A|---------22222222------------------------22222222-----------------------|
D|44444444----------666-6-888-89~-44444444----------666-6-888-89----------|
 Verse
G|------------------------------------------------------|
D|------------------------------------------------------|
A|------------------------------------------------------|
D|999-6~-46--999-6~-86-111~--999-6~-46--999-6~-86-111~--|
 Pre Chorus
G|----------------------|
D|----------------------|
A|----------------------|
D|999-6~-999-666666666--|
 Chorus
G|------------------------------------------------------------------|
D|------------------------------------------------------------------|
A|---------22222222-------------------------22222222----------------|
D|44444444----------666-6-888-89~--44444444-----------666-6-888-89--|
 Bridge
G|---------------------------------------------|
D|---------------------------------------------|
A|---------------------------------------------|
D|9/1~--4~-9~--(11111111-44444444-99999999)x4--|
 After the bridge when haley sings alone(listen to find out when)
G|-4h6p~-------|
D|-------------|
A|-------------|
D|-------------|
 Final Chorus
G|--------------------------|
D|--------------------------|
A|--------------------------|
D|xxx-x-666-6-888-89999999--|

G|-----------------------------------------------------------------|
D|-----------------------------------------------------------------|
A|---------122222222-----------------------22222222----------------|
D|44444444-----------666-6-888-89~44444444----------666-6-888-89~--|
 Outro
G|---------------------------|
D|---------------------------|
A|---------------------------|
D|666-6-888-89~--------------|

===============================================================================

 7.Whoa(dvanwyk)

   Intro x2
G|-------------------------|
D|-------------------------|
A|-------------------------|
E|55-55-55-55-00-00-77-77--|
  
 Verse1:Do this Four times
G|-------------------------|
D|-------------------------|
A|-------------------------|
E|55-55-55-55-00-00-77-77--|
  
 chorus1:Do this twice
G|------------------------------------------|
D|------------------------------------------|
A|------------------------------------------|
E|4444444455555555-000-0-000-0-000-0-000-0--|
 
 Verse2:Do this Four times
G|-------------------------|
D|-------------------------|
A|-------------------------|
E|55-55-55-55-00-00-77-77--|
 
 chorus2:Do this twice
G|------------------------------------------|
D|------------------------------------------|
A|------------------------------------------|
E|4444444455555555-000-0-000-0-000-0-000-0--|
 
 Bridge1:Do this Four times(the same as the verse)
G|-------------------------|
D|-------------------------|
A|-------------------------|
E|55-55-55-55-00-00-77-77--|
 
 Chorus3:Do Twice
G|-------------------------|
D|-------------------------|
A|-------------------------|
E|000-0-000-0-000-0-000-0--|

G|------------------------------------------|
D|------------------------------------------|
A|------------------------------------------|
E|4444444455555555-000-0-000-0-000-0-000-0--|
 
 Bridge1:Do this six times
G|-------------------------|
D|-------------------------|
A|-------------------------|
E|55-55-55-55-00-00-77-77--|

===============================================================================

 8.Conspiracy(dvanwyk)

  Intro
G|----------------------------------|
D|----------------------------------|
A|----------------------------------|
D|8~-8\10-0~--35---8~-8\10--0-0-0~--|

G|------------------------------------------------------|
D|------------------------------------------------------|
A|------------------------------------------------------|
D|88888-8-88-88-8--88888-8-88-88-10\3333-33-00000-------|
 Verse x4
G|-------------------------------------------|
D|-------------------------------------------|
A|---------------8----------------3----------|
D|8888-8-88-8h10----0000-0-00-3h5------------|
 Chorus
G|-------------------------------------------------------|
D|-------------------------------------------------------|
A|----------------------------------------------------3--|
D|88888-8-88-88-8--88888-8-88-88-10\3333-33-00000-1\3----|
 Verse x4
G|-------------------------------------------|
D|-------------------------------------------|
A|---------------8----------------3----------|
D|8888-8-88-8h10----0000-0-00-3h5------------|
 Chorus

G|-------------------------------------------------------|
D|-------------------------------------------------------|
A|----------------------------------------------------3--|
D|88888-8-88-88-8--88888-8-88-88-10\3333-33-00000-1\3----|
 Bridge x4
G|-----------------------------------------------------------------------------|
D|-----------------------------------------------------------------------------|
A|-----------------------------------------------------------------------------|
D|5555555555555555888888888888888800000000000000008888888888888888-------------|

 Chorus x2
G|-------------------------------------------------------|
D|-------------------------------------------------------|
A|----------------------------------------------------3--|
D|88888-8-88-88-8--88888-8-88-88-10\3333-33-00000-1\3----|
 Outro
G|----------------------------------|
D|----------------------------------|
A|----------------------------------|
E|8~-8\10-0~--35---8~-8\10--0-0-0~--|


===============================================================================

 9.Franklin(iheart_a7x)

  Verse
G|--------------------------------------------------|
D|---------33~--------------------------------------|
A|----33~-------33---2h3--------33~-----33---2h3----|
E|55~--------------3-----3--55~-----11~----3-----3--|

pre-Chorus
G|-------------------------------|
D|--------------------33~--------|
A|----33~-2-------33~-----33-2~--|
E|55~--------55~-----------------|

Chorus
G|---------------------------------------------------------------|   |-----|
D|---------------------------------------------------------------|   |0~---|
A|---------------------------22-3--------------------------------|   |-----|
E|1-1-1-11-11-1-1-3-5-5-5-55------3-1-1-1-11-11-113-5-5-5-3-3-01~|x2 |-----|

Verse
G|-----------------------|  |-------------------------|
D|-----------------------|  |--------33~--------------|
A|-----33~------33-2-----|  |----33~------33---2h3----|
E|55~-------11~------3---|  |55~-------------3-----3--| x2

Pre-Chorus
G|------------------------|
D|----------3/5-3---------|
A|------33~-------33------|
E|-55~---------------3----|

Chorus
G|----------------------------------------------------------------|
D|----------------------------------------------------------------|
A|------------------------22-3------------------------------------|
E|11-1-11-11-1-135-5-5-55------3-1-1-1-11-11-1-1-3-55-5-55-33-0~--|

G|-----------------------------------------|
D|-----------------------------------------|
A|-------------------3-2------------22-3---|
E|1-1-1-11-11-1-11-1-----3-5-5-5-55------3-|

G|---------------------------------------|
D|-------------------------------------0~|
A|---------------------------------------|
E|1-1-1-11-11-1-11-3-5-5-5-555-33-0-~----|

Bridge "Taking up our time..."
G|-------------------------------7/9-7~-9-----------|
D|----------------------------------------10p9------|
A|8~--5-8h10--8-5--7-10--5-10-12---------------8~---|
E|--------------------------------------------------|

outro chorus
G|---------------------------------------------------------|
D|---------------------------------------------------------|
A|---------------------------2h3---------------5-5-5-5-5-5-|
E|1-1-1-11-11-1-135-5-5-5555-----1-1-1-1-111-1-------------|

===============================================================================

 10.My Heart(iheart_a7x)

 Intro                                         
G|-----------------------------------------------------|   
D|-----------------------------------------------------|  
A|-----------------------------------------------------|  
E|-00000000444-55555555-777-999999-444444-5555555555555|

G|-------------------------------------------|   
D|-------------------------------------------|  
A|-------------------------------------------|  
E|-00000000444-55555555-777-999999-444444-5~-|
 
Verse "I am finding out..."
G|---------------------------------------------------------------|
D|---------------7-6---------------------------------------------|
A|-------------7-----7-------------------------------------------|
E|-9~--7~--5~----------9~--7~--5~-45--9~--7~--5~-4-5--9~--7~--5~-|

Chorus
G|--------------------------------------------------------|
D|--------------------------------------------------------|
A|--------------------------------------------------------|
E|-000000000-444-555555555-777-999999-444444-555555555555-|

G|----------------------------------------------|
D|----------------------------------------------|
A|----------------------------------------------|
E|-000000000-444-555555555-777-999999-444444-5~-|

Verse "I am nothing now..."
G|-------6~--------------------------|   
D|-----7------9----7---7-6-----------|  
A|-7h9------7----7---7-----7---------|  
E|---------------------------7~--4-5-|

Pre-Chorus
G|-------------------------------------------------|   
D|-------------------------------------------------|  
A|-------------------------------7-----------------|  
E|-999999-7777777-555555-4--5--9----7--4--5-555555-|

Chorus x1

Bridge (2:18) "This heart...it beats.."
G|---6~-----------------------6~---------------| |----------------|
D|-7-----9----67----7-4/99999-----976-----76~--| |----------------|
A|---------7~-----7-------------------7~-------| |----------------|
E|---------------------------------------------| |--555555-777777-|

G|------------------------------------------------------|   
D|------------------------------------------------------|  
A|------------------------------------------------------|  
E|-9-99-99-9-97--0-00-00-4445-5-55-5-5555-555-55-5-7-777| x3

G|-----------------------------------------------------|   
D|-----------------------------------------------------|  
A|-----------------------------------------------------|  
E|-9999999999-0000000000-444-555555555555555555-777777-| x2

===============================================================================
comments
We did not receive enough feedback on this tab! Please rate:
print report bad tab
1 2 3 4 5
2 comments total.
0 reply
MusicMan24 wrote on June 12 2009, 10:50 pm

You're basically stealing what other people tabbed out

0 reply
AlexD97 wrote on July 20 2010, 08:33 am

This is just stupid...

I mean, a tab is supposed to be something that you made yourself with your ear.

I want to post or [tab]
guest
You may want to rate the tab now too:
select rating
Please do not post tabs as comments. Select "correction" instead!