Oops, an error
Loading. Please wait.

All We Know Is Falling Tab

56,166 views 33 this week
2 commentsread comments
1 2 3 4 5
excellent!
x 6
add to favorites launch autoscroll
font size
0
reset
Autoscroll
+/-
esc
set tempo
stop
Contributor
Difficulty
Tuning
intermediate
D A D G B E
WARNING: You are trying to view
                                    content from Ultimate-Guitar.com
                                    in an unauthorized application,
                                    which is prohibited.

                                    Please use an official Ultimate
                                    Guitar Tabs application for iPhone,
                                    iPad or Android to access legitimate
                                    chords, guitar, bass, and drum tabs
                                    from Ultimate-Guitar.com database.

                                    Type "ultimate guitar tabs" in Apple
                                    App Store's or Android Market's
                                    search to find the application.
i did'nt tab this. i just took the best of these songs. 

1. All We Know
2. Pressure
3. Emergency
4. Brighter
5. Here We Go Again
6. Never Let This Go
7. Whoa 
8. Conspiracy
9. Franklin
10. My Heart



| Song  | All We Know             |
| Band  | Paramore                |
| Album | All We Know Is Falling  |
| Tabber| lackofcolor             |

Intro: X2

e|-----------------------------------------------------------------------|
B|-----------------------------------------------------------------------|
G|-------------------------------------------------5-5555-5-5555-5555----|
D|--2-0-2---7-xxxxxxx---2-0-2---5-xxxxxxx--2-0-2---5-5555-5-5555-5555----|
A|--2-0-2---7-xxxxxxx---2-0-2---5-xxxxxxx--2-0-2---3-3333-3-3333-3333----|
D|--2-0-2---7-xxxxxxx---2-0-2---5-xxxxxxx--2-0-2-------------------------|

Pre-Chorus: X1

e|-----------------------------------------------------------------------|
B|-----------------------------------------------------------------------|
G|-------------------------------------------------5-5555-5-5555-5555----|
D|--2-0-2---77777777777-99999-5555555555---2-0-2---5-5555-5-5555-5555----|
A|--2-0-2---77777777777-99999-5555555555---2-0-2---3-3333-3-3333-3333----|
D|--2-0-2---77777777777-99999-5555555555---2-0-2-------------------------| 
            ........... ..... ..........

Chorus: X2  then Ending
                                                            Ending
e|-------------------------------------------------|------------------------|
B|-------------------------------------------------|------------------------|
G|------------------555555555----------------------|------------------------|
D|-0-222222222222---555555555----0--7-777-0--5-555-|---22222222222222222----|
A|-0-222222222222---333333333----0--7-777-0--5-555-|---22222222222222222----|
D|-0-222222222222----------------0--7-777-0--5-555-|---22222222222222222----|
                                                       .................

Chorus Guitar 2: 
Note: listen for timing. Those are 10’s 11’s and 12’s

e|-----------------------------------------------------------------------|
B|-----------------------------------------------------------------------|
G|---999999999999999999-1111111111111111-1212121212121212121212121212----|
D|---xxxxxxxxxxxxxxxxxx-xxxxxxxxxxxxxxxx--x-x-x-x-x-x-x-x-x-x-x-x-x-x----|
A|---777777777777777777-9999999999999999-1010101010101010101010101010----|
D|-----------------------------------------------------------------------|

Verse: X4  Then Ending

e|------5---------7---------3-----------|---------------|
B|------5---------7---------3-----------|---------------|
G|------7---------9---------5-----------|---------------|
D|------7---------9---------5-----------|--0000-2222----|
A|------5---------7---------3-----------|--0000-2222----|
D|--------------------------------------|--0000-2222----|
                                           .... ....

Bridge: X1                   
e|------------------------------------------------------------|
B|-------------------------------------5*---------------------|
G|--5-5----5*---------------------5-5-------------------------|
D|--5-5--------0--22222-4444-555--5-5------0--22222-0000------|
A|--3-3--------0--22222-4444-555--3-3------0--22222-0000------|
D|-------------0--22222-4444-555-----------0--22222-0000------|

Solo: 2:35

e|---------------------------------------------------------|
B|---------------------------------------------------------|
G|--16-16-16-16-14-14-14-14-19-19-19-19-19-21-21-21-21-21--|
D|---x--x--x--x--x--x--x--x--x--x--x--x--x--x--x--x--x--x--| Continued
A|--14-14-14-14-12-12-12-12-17-17-17-17-17-19-19-19-19-19--|
D|---------------------------------------------------------|

e|----------------------------19-19-19-19---------------------------|
B|-19-19-19-19-19-20-20-20-20--------------17-17-17-17--20-20-20-20-|
G|--x--x--x--x--x--x--x--x--x---------------------------------------|
D|-16-16-16-16-16-17-17-17-17---------------------------------------| continued
A|------------------------------------------------------------------|
D|------------------------------------------------------------------|

e|---17-17-17-17------------------------------------------------------------|
B|---------------15-15-15-15-15-17-17-17-17-19-19-19-19-20-20-20-20-20—12~~-|
G|--------------------------------------------------------------------------|
D|--------------------------------------------------------------------------|
A|--------------------------------------------------------------------------|
D|--------------------------------------------------------------------------|

End On

e|-----|
B|-----|
G|-----|
D|--2--|
A|--2--|
D|--2--|




Paramore
PRESSURE
All We Know is Falling
2005 Fueled by Rammen Records
Submitted by boxcar_avie@yahoo.com

Tuning: Drop D on Jason and Josh then standard EADGBe on Hayley

You will confuse what x means so I will explain it to you briefly
"x means" palm mute
"9(x3)" means that you have to hit that string 3 times at 9th fret.
"(x3) this part" means you have to repeat that riff 3 times
"Hayley: (x3)" means that you have to repeat Hayley's part 3 times

Players:

Jason: Guitar 1(rhythm)-DADGBe
Josh: Guitar 2(lead)-DADGBe
Hayley: Guitar 3(Rhythm)-EADGBe


Intro:

Part 1:

Jason only:
e|--------------------------------------------------------------|
B|--------------------------------------------------------------|
G|-11--11-11\9-9--14--14-14\11-11--11--11-11\9-9--6--6-6/7\6/7--|
D|--x---x--x-------x---x--x--x--x---x---x--x-x-x--x--x-x-x-x-x--|
A|--9---9--9\7-7--12--12-12\-9--9---9---9--9\7-7--4--4-4/5\4/5--|
D|--------------------------------------------------------------|

Part 2: (Drum starts)

Jason :
e|--------------------------------------------------------------|
B|--------------------------------------------------------------|
G|-11--11-11\9-9--14--14-14\11-11--11--11-11\9-9--6--6-6/7\6/7--|
D|--x---x--x-------x---x--x--x--x---x---x--x-x-x--x--x-x-x-x-x--|
A|--9---9--9\7-7--12--12-12\-9--9---9---9--9\7-7--4--4-4/5\4/5--|
D|--------------------------------------------------------------|

Josh:
e|---------------------------|
B|---------------------------|
G|---------------------------|
D|-9(x8)-0(x8)-5(x8)-7(x8)---|
A|-9(x8)-0(x8)-5(x8)-7(x8)---|
D|-9(x8)-0(x8)-5(x8)-7(x8)---|

Hayley: On simple chords Bm-D-G-A
e|-2(x8)-2(x8)-3(x8)-0(x8)---|
B|-3(x8)-3(x8)-3(x8)-2(x8)---|
G|-4(x8)-2(x8)-0(x8)-2(x8)---|
D|-4(x8)-0(x8)-0(x8)-2(x8)---|
A|-2(x8)-x(x8)-2(x8)-0(x8)---|
E|-x(x8)-x(x8)-3(x8)-x(x8)---|


Verses:

Part 1: (tell me where our time went/now that I'm losing hope)

Jason: (x2)
e|--------------------------------------|
B|--------------------------------------|
G|--------------------------------------|
D|--------------------------------------|
A|-9(x2)-12\-5(x2)-5p-0(x2)-0h-4(x2)-4--|
D|-9(x2)-12\-5(x2)-5p-0(x2)-0h-4(x2)-4--|

Josh: (x2)
e|--------------------------------------|
B|--------------------------------------|
G|-4(x2)--------------------------------|
D|-4(x2)----5(x2)-5p-0(x2)-0h-4(x2)-4---|
A|-2(x2)-0h-5(x2)-5p-0(x2)-0h-4(x2)-4---|
D|-------0h-5(x2)-5p-0(x2)-0h-4(x2)-4---|

Hayley: (x2) In chords Bm-G-D-F#
e|-2(x2)-3(x2)-2(x2)-2(x2)---|
B|-2(x2)-3(x2)-3(x2)-2(x2)---|
G|-4(x2)-0(x2)-2(x2)-3(x2)---|
D|-4(x2)-0(x2)-0(x2)-4(x2)---|
A|-2(x2)-2(x2)-x(x2)-4(x2)---|
E|-x(x2)-3(x2)-x(x2)-2(x2)---|


Part 2: (Cause I fear I might break/Somethings I'll Never Know)

Jason: (x2)
e|---------------------------|
B|---------------------------|
G|---------------------------|
D|---------------------------|
A|-9(x4)-5(x4)-0(x4)-4(x4)---|
D|-9(x4)-5(x4)-0(x4)-4(x4)---|

Josh: (at time 0:30 only)
e|-----5\2----|
B|-2/3--------|
G|------------|
D|------------|
A|------------|
D|------------|

Hayley: (x2) In chords Bm-G-D-F#
e|-2(x4)-3(x4)-2(x4)-2(x4)---|
B|-2(x4)-3(x4)-3(x4)-2(x4)---|
G|-4(x4)-0(x4)-2(x4)-3(x4)---|
D|-4(x4)-0(x4)-0(x4)-4(x4)---|
A|-2(x4)-2(x4)-x(x4)-4(x4)---|
E|-x(x4)-3(x4)-x(x4)-2(x4)---|


Chorus:

Jason: (x2)
e|----------------------------------|--------------------------|
B|----------------------------------|--------------------------|
G|----------------------------------|--------------------------|
D|-5(x8)-0(x8)-4(x8)-5(x3)-11/12\11-|-5(x8)-0(x8)-4(x8)-5(x8)--|
A|-5(x8)-0(x8)-4(x8)-5(x3)-11/12\11-|-5(x8)-0(x8)-4(x8)-5(x8)--|
D|-5(x8)-0(x8)-4(x8)-5(x3)--9/10\-9-|-5(x8)-0(x8)-4(x8)-5(x8)--|

Josh: (x2)
      (x3) this part                                    (x4) this part
e|----------17-------------|-----------5/7\5-|----------17-------------|
B|----15----------15----15-|----15-----------|----15----------15----15-|
G|-14----14----14----14----|-14----14--------|-14----14----14----14----|
D|-------------------------|-----------4/5\4-|-------------------------|
A|-------------------------|-----------------|-------------------------|
D|-------------------------|-----------------|-------------------------|

Hayley: (x4) at chords G-D-F#-G
e|-3(x4)-2(x4)-2(x4)-3(x4)---|
B|-3(x4)-3(x4)-2(x4)-3(x4)---|
G|-0(x4)-2(x4)-3(x4)-0(x4)---|
D|-0(x4)-0(x4)-4(x4)-0(x4)---|
A|-2(x4)-x(x4)-4(x4)-2(x4)---|
E|-3(x4)-x(x4)-2(x4)-3(x4)---|


Interlude: (without you)

Josh only: (x2)
e|--------------|
B|--------------|
G|--------------|
D|-x-x-7--7(x5)-|
A|-x-x-5--5(x5)-|
D|-x-x-0--0(x5)-|

(Repeat Intro Part 2)

Bridge:

Part 1: (Somethings I'll never know and I had to let them go)

Jason: (x2)
e|--------------------------------------|
B|--------------------------------------|
G|--------------------------------------|
D|--------------------------------------|
A|--------------------------------------|
D|-9(x3)-9/12\5(x3)-5\4-0(x3)-0h2-4(x4)-|

Josh: (x8)
e|----------9--------------|
B|----10---------10----10--|
G|-11----11---11----11-----|
D|-------------------------|
A|-------------------------|
D|-------------------------|

Hayley: Idle

Part 2: (Starts at 2:18)

Jason: (x2)
e|--------------------------|
B|--------------------------|
G|--------------------------|
D|-9(x4)-5(x4)-0(x4)-4(x4)--|
A|-9(x4)-5(x4)-0(x4)-4(x4)--|
D|-9(x4)-5(x4)-0(x4)-4(x4)--|

Josh: (x10) So in x9 & x10, Jason and Hayley are idle before chorus
e|----------9--------------|
B|----10---------10----10--|
G|-11----11---11----11-----|
D|-------------------------|
A|-------------------------|
D|-------------------------|

Hayley: (x2) In chords Bm-G-D-F#
e|-2(x4)-3(x4)-2(x4)-2(x4)---|
B|-2(x4)-3(x4)-3(x4)-2(x4)---|
G|-4(x4)-0(x4)-2(x4)-3(x4)---|
D|-4(x4)-0(x4)-0(x4)-4(x4)---|
A|-2(x4)-2(x4)-x(x4)-4(x4)---|
E|-x(x4)-3(x4)-x(x4)-2(x4)---|

(Repeat Chorus Twice)

Coda: (better off without me)

Jason & Josh
e|---------------|
B|---------------|
G|-11/12\11------|
D|-11/12\11--7~--|
A|--9/10\-9--5~--|
D|-----------0~--|

Hayley: in chord D
e|----2~--|
B|----3~--|
G|----2~--|
D|----0~--|
A|----x~--|
E|----x~--|




           Emergency
This is my second tab.. =)
my first tab was The Used-BMA(Shortcut)
Well yah anyway..This song is
easy to and easy to tab out so
it shouldn't be such a problem to
play..

I combine this together into one
guitar I know theres 3 but you know...
Have fun..

V=Vibrant
~=Ring
/=Slide
x=Mute the string
r=Release quick
______________________________
|Updated July 23rd, 2007!!!!!|
|I fixed the Intro, Solo and |
|some parts on the chorus and|
|everything else seems pretty|
|good so yay, Enjoy!         |
|                            |
------------------------------

-----------------------------|
Updated! - Sept. 1st 2007    |
I updated just the solo =)   |
_____________________________|

Intro(Do The Rythem)
E|----9--9--9-------7--7--7-----||-----------------------------------------|
B|--7--7--7--7----7--7--7--7-7--||-----------------------------------------|
G|-9-9--9--9--9--9-9--9--9--9-9-||-9\-11-11-11-11--11--11--11--11--11--11--|
D|------------------------------||-x--x--x--x--x---x---x---x---x---x---x---|
A|------------------------------||-7/-9--9--9--9---9---9---9---9---9---9---|
D|------------------------------||-x--x--x--x--x---x---x---x---x---x---x---|

E|-----------------------------------------------------|
B|-----------------------------------------------------|
G|-9-9-9-9\--11-11--11--11--11--11--11--11\-9-9--------|
D|-x-x-x-x---x--x---x---x---x---x---x---x---x-x--8/0~--|
A|-7-7-7-7\--9--9---9---9---9---9---9---9\--7-7--0~----|
D|-x-x-x-x---x--x---x---x---x---x---x---x---x-x--0~----|

Verse
I think we have an emergency
I think we have an emergency
E|----9--9--9-------7--7--7-----| 
B|--7--7--7--7----7--7--7--7-7--| 
G|-9-9--9--9--9--9-9--9--9--9-9-| 
D|------------------------------|
A|------------------------------| 
D|------------------------------|
If you thought I'd leave, then you were wrong
Cause I won't stop holding on
E|-----------------------------------------|
B|-----------------------------------------|
G|-9\-11-11-11-11--11--11--11--11--11--11--|
D|-x--x--x--x--x---x---x---x---x---x---x---|
A|-7/-9--9--9--9---9---9---9---9---9---9---|
D|-x--x--x--x--x---x---x---x---x---x---x---|

E|---------------------------------------------------|
B|---------------------------------------------------|
G|-9-9-9-9\--11-11--11--11--11--11--11--11\-9-9------|
D|-x-x-x-x---x--x---x---x---x---x---x---x---x-x--0~--|
A|-7-7-7-7\--9--9---9---9---9---9---9---9\--7-7--0~--|
D|-x-x-x-x---x--x---x---x---x---x---x---x---x-x--0~--|
So are you listening?
So are you watching me?
E|----9--9--9-------7--7--7-----| 
B|--7--7--7--7----7--7--7--7-7--| 
G|-9-9--9--9--9--9-9--9--9--9-9-| 
D|------------------------------|
A|------------------------------| 
D|------------------------------|
If you thought I'd leave, then you were wrong
So I won't stop holding on.
E|-----------------------------------------|
B|-----------------------------------------|
G|-9\-11-11-11-11--11--11--11--11--11--11--|
D|-x--x--x--x--x---x---x---x---x---x---x---|
A|-7/-9--9--9--9---9---9---9---9---9---9---|
D|-x--x--x--x--x---x---x---x---x---x---x---|

E|---------------------------------------------------|
B|---------------------------------------------------|
G|-9-9-9-9\--11-11--11--11--11--11--11--11\-9-9------|
D|-x-x-x-x---x--x---x---x---x---x---x---x---x-x--0~--|
A|-7-7-7-7\--9--9---9---9---9---9---9---9\--7-7--0~--|
D|-x-x-x-x---x--x---x---x---x---x---x---x---x-x--0~--|
This is an emergency
So are you listening?
E|----9--9--9-------7--7--7-----| 
B|--7--7--7--7----7--7--7--7-7--| 
G|-9-9--9--9--9--9-9--9--9--9-9-| 
D|------------------------------|
A|------------------------------| 
D|------------------------------|
And I can't pretend that I don't see this
E|-----------------------------------------|
B|-----------------------------------------|
G|-9\-11-11-11-11--11--11--11--11--11--11--|
D|-x--x--x--x--x---x---x---x---x---x---x---|
A|-7/-9--9--9--9---9---9---9---9---9---9---|
D|-x--x--x--x--x---x---x---x---x---x---x---|

E|-------------------------------------------------|
B|-------------------------------------------------|
G|-9-9-9-9\--11-11--11--11--11--11--11--11\-9-9----|
D|-x-x-x-x---x--x---x---x---x---x---x---x---x-x----|
A|-7-7-7-7\--9--9---9---9---9---9---9---9\--7-7----|
D|-x-x-x-x---x--x---x---x---x---x---x---x---x-x----|
It's really not your fault
That no one cares to talk about it,
Talk about it
E|-----12--12--12-----|      |---------------|
B|--10---10--10--10---|      |---------------|
G|-9--9----9---9---9--|(8xs?)|-4-4-4--6-6-6--|
D|--------------------|      |-x-x-x--x-x-x--|
A|--------------------|      |-2-2-2--4-4-4--|
D|--------------------|      |---------------|

Chorus(If you follow the song, you might get the rythem of this tab)
Cause I've seen love die
Way too many times
When it deserved to be alive
(When it deserved to be alive)
I've seen you cry
Way too many times
When you deserve to be alive, alive
E|---------------------------------------------------------|
B|-----------------------------------------------------e---|
G|-----------------------------------------------------s---|
D|-9--9--9-9-9-9--5-5--4--4--4-4-4-4--9--9--9-9-9-9\/--u---|
A|-9--9--9-9-9-9--0-0--4--4--4-4-4-4--9--9--9-9-9-9\/--a---|
D|-9--9--9-9-9-9--0-0--4--4--4-4-4-4--7--7--7-7-7-7\/--p---|
(The "\/" means you do a quick slide by going forward and backward)
E|-------------------------------------------------------------
B|-------------------------------------------------------------
G|-------------------------------------------------------------
D|-9--9--9-9-9-9--4--4--4-4-4-4--2--2--2-2-2-2--9--9--9-9-9-9--
A|-9--9--9-9-9-9--4--4--4-4-4-4--2--2--2-2-2-2--9--9--9-9-9-9--
D|-9--9--9-9-9-9--4--4--4-4-4-4--2--2--2-2-2-2--9--9--9-9-9-9-- Continue..

E|---------------------------------------------------------------
B|---------------------------------------------e-----------------
G|---------------------------------------------s-----------------
D|-4-4--5-5-5-5--4-4--4-4-4-4--9--9--9-9-9-9\/-u-9--9--9-9-9-9---
A|-4-4--0-0-0-0--4-4--4-4-4-4--9--9--9-9-9-9\/-a-9--9--9-9-9-9---
D|-4-4--0-0-0-0--4-4--4-4-4-4--7--7--7-7-7-7\/-p-9--9--9-9-9-9--- Continue..

E|------------------------------------------------|
B|------------------------------------------------|
G|------------------------------------------------|
D|-4-4--5-5-5-5--4--4--4-4-4-4--2--2--2-2-2-2p0~--|
A|-4-4--0-0-0-0--4--4--4-4-4-4--2--2--2-2-2-2p0~--|
D|-4-4--0-0-0-0--4--4--4-4-4-4--2--2--2-2-2-2p0~--|

End of the Chorus
E|----9--9--9-------7--7--7-----| 
B|--7--7--7--7----7--7--7--7-7--| 
G|-9-9--9--9--9--9-9--9--9--9-9-| 
D|------------------------------|
A|------------------------------| 
D|------------------------------|

Verse II
So you give up every chance you get
Just to feel new again
E|-----------------------------------------|
B|-----------------------------------------|
G|-9\-11-11-11-11--11--11--11--11--11--11--|
D|-x--x--x--x--x---x---x---x---x---x---x---|
A|-7/-9--9--9--9---9---9---9---9---9---9---|
D|-x--x--x--x--x---x---x---x---x---x---x---|

E|-----------------------------------------------------|
B|-----------------------------------------------------|
G|-9-9-9-9\--11-11--11--11--11--11--11--11\-9-9--------|
D|-x-x-x-x---x--x---x---x---x---x---x---x---x-x--8/0~--|
A|-7-7-7-7\--9--9---9---9---9---9---9---9\--7-7--0~----|
D|-x-x-x-x---x--x---x---x---x---x---x---x---x-x--0~----|
I think we have an emergency
I think we have an emergency
E|----9--9--9-------7--7--7-----| 
B|--7--7--7--7----7--7--7--7-7--| 
G|-9-9--9--9--9--9-9--9--9--9-9-| 
D|------------------------------|
A|------------------------------| 
D|------------------------------|
And you do your best to show me love,
but you don't know what love is.
E|-----------------------------------------|
B|-----------------------------------------|
G|-9\-11-11-11-11--11--11--11--11--11--11--|
D|-x--x--x--x--x---x---x---x---x---x---x---|
A|-7/-9--9--9--9---9---9---9---9---9---9---|
D|-x--x--x--x--x---x---x---x---x---x---x---|

E|---------------------------------------------------|
B|---------------------------------------------------|
G|-9-9-9-9\--11-11--11--11--11--11--11--11\-9-9------|
D|-x-x-x-x---x--x---x---x---x---x---x---x---x-x--0~--|
A|-7-7-7-7\--9--9---9---9---9---9---9---9\--7-7--0~--|
D|-x-x-x-x---x--x---x---x---x---x---x---x---x-x--0~--|
So are you listening?
So are you watching me?
E|----9--9--9-------7--7--7-----| 
B|--7--7--7--7----7--7--7--7-7--| 
G|-9-9--9--9--9--9-9--9--9--9-9-| 
D|------------------------------|
A|------------------------------| 
D|------------------------------|
Well I can't pretend that I don't see this
E|-----------------------------------------|
B|-----------------------------------------|
G|-9\-11-11-11-11--11--11--11--11--11--11--|
D|-x--x--x--x--x---x---x---x---x---x---x---|
A|-7/-9--9--9--9---9---9---9---9---9---9---|
D|-x--x--x--x--x---x---x---x---x---x---x---|

E|------------------------------------------------|
B|------------------------------------------------|
G|-9-9-9-9\--11-11--11--11--11--11--11--11\-9-9---|
D|-x-x-x-x---x--x---x---x---x---x---x---x---x-x---|
A|-7-7-7-7\--9--9---9---9---9---9---9---9\--7-7---|
D|-x-x-x-x---x--x---x---x---x---x---x---x---x-x---|
It's really not your fault
That no one cares to talk about it,
Talk about it
E|-----12--12--12-----|      |---------------|
B|--10---10--10--10---|      |---------------|
G|-9--9----9---9---9--|(8xs?)|-4-4-4--6-6-6--|
D|--------------------|      |-x-x-x--x-x-x--|
A|--------------------|      |-2-2-2--4-4-4--|
D|--------------------|      |---------------|

Chorus II
Cause I've seen love die
Way too many times
When it deserved to be alive
(When it deserved to be alive)
I've seen you cry
Way too many times
When you deserve to be alive, alive
E|---------------------------------------------------------|
B|-----------------------------------------------------e---|
G|-----------------------------------------------------s---|
D|-9--9--9-9-9-9--5-5--4--4--4-4-4-4--9--9--9-9-9-9\/--u---|
A|-9--9--9-9-9-9--0-0--4--4--4-4-4-4--9--9--9-9-9-9\/--a---|
D|-9--9--9-9-9-9--0-0--4--4--4-4-4-4--7--7--7-7-7-7\/--p---|
(The "\/" means you do a quick slide by going forward and backward)
E|-------------------------------------------------------------
B|-------------------------------------------------------------
G|-------------------------------------------------------------
D|-9--9--9-9-9-9--4--4--4-4-4-4--2--2--2-2-2-2--9--9--9-9-9-9--
A|-9--9--9-9-9-9--4--4--4-4-4-4--2--2--2-2-2-2--9--9--9-9-9-9--
D|-9--9--9-9-9-9--4--4--4-4-4-4--2--2--2-2-2-2--9--9--9-9-9-9-- Continue..

E|---------------------------------------------------------------
B|---------------------------------------------e-----------------
G|---------------------------------------------s-----------------
D|-4-4--5-5-5-5--4-4--4-4-4-4--9--9--9-9-9-9\/-u-9--9--9-9-9-9---
A|-4-4--0-0-0-0--4-4--4-4-4-4--9--9--9-9-9-9\/-a-9--9--9-9-9-9---
D|-4-4--0-0-0-0--4-4--4-4-4-4--7--7--7-7-7-7\/-p-9--9--9-9-9-9--- Continue..

E|------------------------------------------------|
B|------------------------------------------------|
G|------------------------------------------------|
D|-4-4--5-5-5-5--4--4--4-4-4-4--2--2--2-2-2-2p0~--|
A|-4-4--0-0-0-0--4--4--4-4-4-4--2--2--2-2-2-2p0~--|
D|-4-4--0-0-0-0--4--4--4-4-4-4--2--2--2-2-2-2p0~--|
These scars, they will not fade away.

Solo
E|---------4-5-4-----------4-5-4---4-7-9-7----7-9-5-4-----
B|-----4-5-------5-----4-5-------5---------5v-------------
G|-2/4-------------2/4------------------------------------
D|--------------------------------------------------------
A|--------------------------------------------------------
D|--------------------------------------------------------

E|---------4-5-4---4-7-9-12---------17-16--------17-16-------12----9r------|
B|-----4-5-------5----------10v--14-------17-14v-------17-14----10----9~v--|
G|-2/4---------------------------------------------------------------------|
D|-------------------------------------------------------------------------|
A|-------------------------------------------------------------------------|
D|-------------------------------------------------------------------------|

End of the Solo
No one cares to talk about it, talk about it
E|----9--9--9-------7--7--7-----| 
B|--7--7--7--7----7--7--7--7-7--| 
G|-9-9--9--9--9--9-9--9--9--9-9-| 
D|------------------------------|
A|------------------------------| 
D|------------------------------|

Outro
Cause I've seen love die
Way too many times
When it deserved to be alive
(When it deserved to be alive)
I've seen you cry
Way too many times
When you deserve to be alive, alive
E|--------------------------------------------------------|
B|----------------------------------------------------e---|
G|----------------------------------------------------s---|
D|-9--9--9-9-9-9--2/5-4--4--4-4-4-4--9--9--9-9-9-9\/--u---|
A|-9--9--9-9-9-9--0---4--4--4-4-4-4--9--9--9-9-9-9\/--a---|
D|-9--9--9-9-9-9--0---4--4--4-4-4-4--7--7--7-7-7-7\/--p---|
(The "\/" means you do a quick slide by going forward and backward)
E|-------------------------------------------------------------
B|-------------------------------------------------------------
G|-------------------------------------------------------------
D|-9--9--9-9-9-9--4--4--4-4-4-4--2--2--2-2-2-2--9--9--9-9-9-9--
A|-9--9--9-9-9-9--4--4--4-4-4-4--2--2--2-2-2-2--9--9--9-9-9-9--
D|-9--9--9-9-9-9--4--4--4-4-4-4--2--2--2-2-2-2--9--9--9-9-9-9-- Continue..

E|---------------------------------------------------------------
B|---------------------------------------------e-----------------
G|---------------------------------------------s-----------------
D|-4-4--5-5-5-5--4-4--4-4-4-4--9--9--9-9-9-9\/-u-9--9--9-9-9-9---
A|-4-4--0-0-0-0--4-4--4-4-4-4--9--9--9-9-9-9\/-a-9--9--9-9-9-9---
D|-4-4--0-0-0-0--4-4--4-4-4-4--7--7--7-7-7-7\/-p-9--9--9-9-9-9--- Continue..

E|---------------------------------------------|
B|---------------------------------------------|
G|---------------------------------------------|
D|-4-4--2/5---4--4--4-4-4-4--2--2--2-2-2-2-----|
A|-4-4--0-----4--4--4-4-4-4--2--2--2-2-2-2-----|
D|-4-4--0-----4--4--4-4-4-4--2--2--2-2-2-2-----|

E|--------------------------------------|
B|--------------------------------------|
G|-2--2--2--2--2--2--6--x--6--x--0--4~--|
D|-0--x--0--x--0--x--8--x--8--x--0--4~--|
A|-0--x--0--x--0--x--7--x--7--x--0--4~--|
D|-0--x--0--x--0--x--------------0--4~--|





         Brighter
===============================
Lead Guitar: Dropped D Tuning
(note: On lead, you don't ever use the E string. But, I suggest D-drop if you feel like 
through the album, and you just happen to want to play Brighter.)
Rythm Guitar: Dropped D Tuning
===============================

=======
Intro |
=======
============
Lead Guitar |
============
(Intro and Chorus)
e------------------------------------------------|
B-----------9-9--------9-9-----------------------|
G-----------9-9--------9-9---6h7p6h7-------------|  x4
D-----6h7--------6h7-----------------------------|
A------------------------------------------------|
D------------------------------------------------|

e---------5---7---9------------------------------|
B---------------------10-10-9--------------------|
G-----6-7---7---7---9----------------------------|  x1
D------------------------------------------------|
A------------------------------------------------|
D------------------------------------------------|

=============
Rythm Guitar |
=============
(This part comes in when Guitar A starts playing the first riff the third time.)
e-----------------------------------------------------------|
B-----------------------------------------------------------|
G---------------------------7-------------------------------|
D-------7---------4---------7--x16---7-7--x---6-------------|
A-------7--x16----4--x16----5--------7-7--x---6-------------|
D-------7---------4------------------7-7--x---6-------------|

======
Verse |
======

============
Lead Guitar |
============
e------------------------------------------------------- /
B------------------------------------------------------- /
G---------14----------------------14-------------------- / \
D---11-14----14-14--11----(11)-14----14-14-------------- /  \
A------------------------------------------------------- /   \
D------------------------------------------------------- /    \
                                                             \
                                                              x 4
e------------------------------------------------------|    -- /
B-------------12--------12-----------------------------|   --- /
G----------14----14--------14--------------------------|  ---- /
D---11-14-----------14--------14-----------------------| ----- /
A------------------------------------------------------|------ /
D------------------------------------------------------------- /

=======
Chorus |
=======

============
Lead Guitar |
============
e------------------------------------------------|
B-----------9-9--------9-9-----------------------|
G-----------9-9--------9-9---6h7p6h7-------------|  x2
D-----6h7--------6h7-----------------------------|
A------------------------------------------------|
D------------------------------------------------|


e---------5---7---9------------------------------|
B---------------------10-10-9--------------------|
G-----6-7---7---7---9----------------------------|  x1
D------------------------------------------------|
A------------------------------------------------|
D------------------------------------------------|


Play the chorus twice each time.


=============
Rythm Guitar |
=============
e-----------------------------------------------------------|
B-----------------------------------------------------------|
G---------------------------7-------------------------------|
D-------7---------4---------7--x16---7-7--xx--6-------------|
A-------7--x16----4--x16----5--------7-7--xx--6-------------|
D-------7---------4------------------7-7--xx--6-------------|


Play this twice
======
Verse |
======
=======
Chorus |
=======

=====
Solo |
=====

============
Lead guitar |
============
e---------------17-------------------------------|
B---14---------------14--------------------------|
G------14-13-14---------14-13-14-11-9------------|
D------------------------------------------------|
A------------------------------------------------|
D------------------------------------------------|


e---------------17-------------------------------|
B---14-------------------------------------------|
G------14-13-14----------------------------------|
D------------------------------------------------|
A------------------------------------------------|
D------------------------------------------------|

Ok there are two ways to play the end of the solo

The way josh plays it live:

e--17-17-17-16-16-16-14-14-14--------------------|
B------------------------------14-15-14----------|
G------------------------------------------------|
D------------------------------------------------|
A------------------------------------------------|
D------------------------------------------------|


OR the way it is in the album

e--17-16-14---------------------------------------|
B-----------14-15-17------------------------------|
G-------------------------------------------------|
D-------------------------------------------------|
A-------------------------------------------------|
D-------------------------------------------------|


After the solo, play THIS:


e-------------12----------------12---------------|
B--9-----9-10----9---9-----9-10----9-------------|
G------------------------------------------------|
D------------------------------------------------|
A------------------------------------------------|
D------------------------------------------------|
   ^ 8 times         ^ 8 times

======
Ryhthm|
======


e------------------------------------------------|
B------------------------------------------------|
G------------------------------------------------|
D--4-----------2--------0-------000-222----------|
A--4-x8--------2--x8----0-x8----000-222----------|
D--4-----------2--------0-------000-222----------|


e------------------------------------------------|
B------------------------------------------------|
G------------------------------------------------|
D--4-----------2--------0-(let ring)-------------|
A--4-x8--------2--x3----0------------------------|
D--4-----------2--------0------------------------|

=====
Lead |
=====


e------------------------------------------------------|
B------------------------------------------------------|
G---------14----------------------14-------------------|
D---11-14----14-14--11----(11)-14----14-14-------------|
A------------------------------------------------------|
D------------------------------------------------------|


e------------------------------------------------------|
B-------------12--------12-----------------------------|
G----------14----14--------14--------------------------|
D---11-14-----------14--------14-----------------------|
A------------------------------------------------------|
D------------------------------------------------------|


e------------------------------------------------------|
B------------------------------------------------------|
G---------14----------------------14-------------------|
D---11-14----14-14--11----(11)-14----14-14-------------|
A------------------------------------------------------|
D------------------------------------------------------|


=======
Chorus |
=======

============
Solo (again) |
============

======
Outro |
======

=====
Lead |
=====
e--------12--------------------------------------|
B---9-10-----x(about twelve)-9-10----------------|
G----------------------------------11b\9---------|
D------------------------------------------------|
A------------------------------------------------|
D------------------------------------------------|


e--------12--------------------------------------|
B---9-10----x(a few more times)---9-10-(let ring)|
G------------------------------------------------|
D------------------------------------------------|
A------------------------------------------------|
D------------------------------------------------|

======
Ryhthm|
======

e------------------------------------------------|
B------------------------------------------------|
G------------------------------------------------|
D--4-----------2--------0-------000-222----------|
A--4-x8--------2--x8----0-x8----000-222----------|
D--4-----------2--------0-------000-222----------|
                                *** ***

e------------------------------------------------|
B------------------------------------------------|
G------------------------------------------------|
D--4-----------2--------0-(let ring)-------------|
A--4-x8--------2--x3----0------------------------|
D--4-----------2--------0------------------------|



          Here We Go Again

Intro/Pre-Verse


Guitar 1 – Josh
E-----------------------------------------------|
B-----------------------------------------------|
G--16-16--11--13--9--8-8---8/9/8----------------|
D--x--x---x---x---x--x-x---x/x/x----------------|
A--14-14--9---11—-7--6-6---6/7/6----------------|
E-----------------------------------------------|

E-----------------------------------------------|
B-----------------------------------------------|
G--16-16--11--13--9--8--4---4/6-6---4/6~--------|
D--x--x---x---x---x--x--x---x/x-x---x/x~--------|
A--14-14--9---11—-7--6--2---2/4-4---2/4~--------|
E-----------------------------------------------|

Guitar 2 – Hunter
E-----------------------------------------------|
B-----------------------------------------------|
G--2-2-2-2-6-6-6-6------------------------------|  x2
D--2-2-2-2-6-6-6-6------------------------------|
A--0-0-0-0-4-4-4-4------------------------------|
E-----------------------------------------------|


Verse

Guitar 1 – Josh
E-----------------------------------------|
B--9---9---10---10---12---12---12---12----|
G----9---9----9----9----9----9----9----9--|  x4
D-----------------------------------------|
A-----------------------------------------|
E-----------------------------------------|

Guitar 2 – Hunter
E-----------------------------------------|
B-----------------------------------------|
G--2-2-2-2-6-6-6-6------------------------|  x4
D--2-2-2-2-6-6-6-6------------------------|
A--0-0-0-0-4-4-4-4------------------------|
E-----------------------------------------|


Chorus

Guitar 2 - Hunter

E-----------------------------------------------|   x2
B-----------------------------------------------|
G--2---------6--------8------9------------------|
D--2-(x16)---6-(x8)---8-(x4)-9-(x4)-------------|
A--0---------4--------6------7------------------|
E-----------------------------------------------|


Guitar 1 - Josh

E-----------------------------------------------|
B---9-(x4)---10-(x4)---12-(x4)---10-(x2)---9(x2)|
G-----------------------------------------------|
D-----------------------------------------------|
A-----------------------------------------------|
E-----------------------------------------------|
                                                     x3
E---12-(x4)---11-(x12)--------------------------|
B-----------------------------------------------|
G-----------------------------------------------|
D-----------------------------------------------|
A-----------------------------------------------|
E-----------------------------------------------|

Then on the fourth it changes to:

E-----------------------------------------------|
B---9-(x4)---10-(x4)---12-(x4)---10-(x2)---9(x2)|
G-----------------------------------------------|
D-----------------------------------------------|
A-----------------------------------------------|
E-----------------------------------------------|

E---12-(x4)---11-(x4)---7-(x8)------------------|
B-----------------------9-----------------------|
G-----------------------------------------------|
D-----------------------------------------------|
A-----------------------------------------------|
E-----------------------------------------------|


Pre-verse (same notes, slight variation but you’ll figure it out)

Verse and Chorus

Pre-Solo

Guitar 1 – Josh (this guitar plays this part alone)
E-----------------------------------------------|
B-----------------------------------------------|
G--16-16--11--13--9--8-8---8/9/8----------------|
D--x--x---x---x---x--x-x---x/x/x----------------|
A--14-14--9---11—-7--6-6---6/7/6----------------|
E-----------------------------------------------|

E-----------------------------------------------|
B-----------------------------------------------|
G--16-16--11--13--9--8--4---4/6-6---4/6~--------|
D--x--x---x---x---x--x--x---x/x-x---x/x~--------|
A--14-14--9---11—-7--6--2---2/4-4---2/4~--------|
E-----------------------------------------------|

E-----------------------------------------------|
B-----------------------------------------------|
G--16-16--11--13--9--8-8---8/9/8----------------|
D--x--x---x---x---x--x-x---x/x/x----------------|
A--14-14--9---11—-7--6-6---6/7/6----------------|
E-----------------------------------------------|

E-----------------------------------------------|
B-----------------------------------------------|
G--16-16--11--13--9--999-88888------------------|
D--x--x---x---x---x--xxx-xxxxx------------------|
A--14-14--9---11—-7--777-66666------------------|
E-----------------------------------------------|


Solo

Guitar 2 – Hunter
E-----------------------------------------------|
B-----------------------------------------------|
G--2---------6--------8------9------------------|
D--2-(x16)---6-(x8)---8-(x4)-9-(x4)-------------|
A--0---------4--------6------7------------------|
E-----------------------------------------------|

Guitar 1 – Josh

E-----------------------------------------------|
B-----------------------------------------------|
G--13------11-------13------11------------------| x3
D--x—(x3)--x—-(x2)--x—(x2)--x—(x1)--------------|
A--11------9---—----11------9-------------------|
E-----------------------------------------------|

E-----------------------------------------------|
B-----------------------------------------------|
G--16------14-------13------11------------------|
D--x—(x2)--x—-(x2)--x—(x2)--x—(x1)--------------|
A—-14------12---—---11------9-------------------|
E-----------------------------------------------|

Guitar 2 – Hunter
E-----------------------------------------------|
B-----------------------------------------------|
G--2---------6----------------------------------|
D--2-(x16)---6-(x8)-----------------------------|
A--0---------4----------------------------------|
E-----------------------------------------------|

Guitar 1 – Josh

E-----------------------------------------------|
B-----------------------------------------------|
G--13------11-------13------11------------------| x3
D--x—(x3)--x—-(x2)--x—(x2)--x—(x1)--------------|
A--11------9---—----11------9-------------------|
E-----------------------------------------------|

E-----------------------------------------------|
B-----------------------------------------------|
G--9-------8------------------------------------|
D--x—(x4)--x—-(x4)---—--------------------------|
A--7-------6---—--------------------------------|
E-----------------------------------------------|

Chorus


Outro

Guitar 2 – Hunter                                end on
E-----------------------------------------------|-------|
B-----------------------------------------------|-------|
G--2---------6--------8------9------------------|---2---|
D--2-(x16)---6-(x8)---8-(x4)-9-(x4)-------------|---2---|
A--0---------4--------6------7------------------|---0---|
E-----------------------------------------------|-------|

Guitar 1 – Josh                              end on
E-----16--------16-------16----14----16-----|--12--|
B--14----14--14----14-14----14----14----14--|------|
G-------------------------------------------|------|
D-------------------------------------------|------|
A-------------------------------------------|------|
E-------------------------------------------|------|



Song Title:  Never Let This Go
Band/Artist: Paramore
Tuning:      Standard

cool song. one of my favorite songs. hope this tab can help. 

Intro:  
	    Eb		 F#		  B
	e----------|----4-----4-|----2---2---2---2-|
	b---7---7--|------------|------------------|
	g----------|--6-----6---|---4---4---4---4--|
	d--8---8---|-4-----4----|------------------|
	a-6---6----|------------|--2---2---2---2---|
	e----------|------------|------------------|

 	Then:

	   Eb   F#     B     B 
	e|------------------------------------------|
	b|------------------------------------------|
	g|-8888------44444444-4---------------------|
	d|-8888-4444-44444444-4-let it ring---------|
	a|-6666-4444-22222222-2---------------------|
	e|------2222--------------------------------|

	
	
	    B      G#m
	e|----9---|---------------------------------|
	b|-----12-|-----11/12---11/12---11/12-------|
	g|--11----|---11------11------11------------|
	d|-9------|---------------------------------| 2 times
	a|--------|-11------------------------------|
	e|--------|---------------------------------|

Verse 1:
	    B      G#m
	e|----9---|---------------------------------|
	b|-----12-|-----11/12---11/12---11/12-------|
	g|--11----|---11------11------11------------|
	d|-9------|---------------------------------|  2 times
	a|--------|-11------------------------------|
	e|--------|---------------------------------|
	   Maybe if my heart stops beating
           It won't hurt 
	
	e|-----------------|
	b|---7-7-----------|
	g|-------6-6-------|
	d|-----------8-8---|
	a|-6---------------|
	e|-----------------|
	   this much
	

 		B      G#m
	e|----9---|---------------------------------|
	b|-----12-|-----11/12---11/12---11/12-------|
	g|--11----|---11------11------11------------|
	d|-9------|---------------------------------|  2 times
	a|--------|-11------------------------------|
	e|--------|---------------------------------|
	   And never will I have to answer
	   Again to 

	e|-----------------|
	b|---7-7-----------|
	g|-------6-6-------|
	d|-----------8\-1--|
	a|-6---------------|
	e|-----------------|
           anyone

   		 B      G#m
	e|----9---|---------------------------------|
	b|-----12-|-----11/12---11/12---11/12-------|
	g|--11----|---11------11------11------------|
	d|-9------|---------------------------------|  2 times
	a|--------|-11------------------------------|
	e|--------|---------------------------------|
	    Please don't get me wrong
	    Because 

Chorus:  
		   F#			B
	e|------------------------------------------|
	b|------------------------------------------|
	g|------------------------------------------|
	d|-444444444444444444--9999999999999999-----|
	a|-444444444444444444--9999999999999999-----|
	e|-222222222222222222--7777777777777777-----|
	   I'll never let this go

	    G#m - G#m  	    Bbm     Bbm   B
	e|------------------------------------------|
	b|------------------------------------------|
	g|------------------------------------------|
	d|-666-666----------888-------8---9---------|
	a|-666-666----------888-------8---9-let it ring-|
	e|-444-444----------666-------6---7---------|
      But I can't find the words to tell you	
	
		   F#			B
	e|------------------------------------------|
	b|------------------------------------------|
	g|------------------------------------------|
	d|-444444444444444444--9999999999999999-----|
	a|-444444444444444444--9999999999999999-----|
	e|-222222222222222222--7777777777777777-----|
	I don't want to be alone

	   G#m - G#m  	    Bbm     Bbm   B
	e|------------------------------------------|
	b|------------------------------------------|
	g|------------------------------------------|
	d|-666-666----------888-------8---9---------|
	a|-666-666----------888-------8---9-let it ring-|
	e|-444-444----------666-------6---7---------|
	But now I feel like I don't know you

Verse2: (Repeat patterns of Verse1)
Repeat Chorus

Then:
	    Eb		 F#		  B
	e----------|----4-----4-|----2---2---2---2-|
	b---7---7--|------------|------------------|
	g----------|--6-----6---|---4---4---4---4--|
	d--8---8---|-4-----4----|------------------|	2 times
	a-6---6----|------------|--2---2---2---2---|
	e----------|------------|------------------| 
	   let this go


    Solo:
           Eb     F#       B
	e|---------------|-------------------------|
	b|---------------|---------9-9-------------|
	g|-----11--------|-----11------11-11-11----|
	d|-8-9----8-9----|-8-9---------------------|
	a|------------11-|-------------------------|
	e|---------------|-------------------------|
	       
           Eb      F#       B
	e|---------------|-------------------------|
	b|---------------|-------------------------|
	g|-----11--------|-------------------------|
	d|-8-9----8-9----|----------------88888888-| 
	a|------------11-|-9999-11111111-----------|
	e|---------------|-------------------------|
	
           Eb     F#       B
	e|---------------|-------------------------|
	b|------------9--|---------9-9-------------|
	g|-----11--------|-----11------11-11-11----|
	d|-8-9----8-9----|-8-9---------------------|
	a|---------------|-------------------------|
	e|---------------|-------------------------|

          Eb     F#       B
	e|-----------------------------------------|
	b|-------------9---------------------------|
	g|-----11----------11--let it ring---------|
	d|-8-9----8-9------------------------------|
	a|-----------------------------------------|
	e|-----------------------------------------|

Repeat Chorus




                   Whoa

----------------
Guitar 1: Lead:
----------------

Intro/Verse:
---------------------------------------------------------------|
---------------------------------------------------------------|
----4--/--6----13~----4--/--6----13--\--11---------------------|
----x--/--x----x------x--/--x-----x--\--x----------------------|
----2--/--4----11~----2--/--4----11--\--9----------------------|
---------------------------------------------------------------|

Chorus:
------------14-----------12------------------------------------|
--------12-----------12----------------------------------------|
----13-----------13--------------------------------------------|
---------------------------------------22xxx22xxx22xxx22xxx----|
---------------------------------------22xxx22xxx22xxx22xxx----|
---------------------------------------22xxx22xxx22xxx22xxx----|
'We've got everybody singing...'

Bridge:
---------------------------------------------------------------|
---------------------------------------------------------------|
----------------------99-999-4-44-444--------------------------|
----77-777-777-777----99-999-4-44-444--------------------------|
----77-777-777-777----77-777-2-22-222--------------------------|
----77-777-777-777---------------------------------------------|
'I'll confess...'

Soloy Bit: (Tremelo pick with a wah type thing)
---------------------------------------------------------------|
---------------------------------------------------------------|
----------------------44444444-22222222------------------------|
----77777777---------------------------------------------------|
-------------77777777------------------------------------------|
---------------------------------------------------------------|

Interlude:
---------------------------------------------------------------|
---------------------------------------------------------------|
----------9~----4~---------------------------------------------|
----7~----9~----4~------xxx22xxx22xxxxxx2~---------------------|
----7~----7~----2~------xxx22xxx22xxxxxx2~---------------------|
----7~------------------xxx22xxx22xxxxxx2~---------------------|
'We've got everybody singing'

Final Chorus:
-----14-----12-------11---------11----------14-12-11-----------|
---12-----12------12----12----12--12----12-----------12----12--|
-13-----13-----13----------13--------13------------------13----|
---------------------------------------------------------------|
---------------------------------------------------------------|
---------------------------------------------------------------|

------------14-----------12------------------------------------|
--------12-----------12----------------------------------------|
----13-----------13--------------------------------------------|
---------------------------------------22xxx22xxx22xxx22xxx----|
---------------------------------------22xxx22xxx22xxx22xxx----|
---------------------------------------22xxx22xxx22xxx22xxx----|

Order:
Intro x6
Chorus x2
Verse x4
Chorus x2
Bridge x4
Solo x2
Interlude x1
Final Chorus x2
Bridge x4
Solo x2

------------------
Guitar 2: Rhythm:
------------------

Intro/Verse:
---------------------------------------------------------------|
---------------------------------------------------------------|
----------------------99-999-4-44-444--------------------------|
----77-777-777-777----99-999-4-44-444--------------------------|
----77-777-777-777----77-777-2-22-222--------------------------|
----77-777-777-777---------------------------------------------|


Chorus:
---------------------------------------------------------------|
---------------------------------------------------------------|
----4----------------------------------------------------------|
----4-x16--2-------------22xxx22xxx22xxx22xxx------------------|
----2------2-x16---------22xxx22xxx22xxx22xxx------------------|
-----------2-------------22xxx22xxx22xxx22xxx------------------|
'We've got everybody singing...'

Bridge:
---------------------------------------------------------------|
---------------------------------------------------------------|
----------------------99-999-4-44-444--------------------------|
----77-777-777-777----99-999-4-44-444--------------------------|
----77-777-777-777----77-777-2-22-222--------------------------|
----77-777-777-777---------------------------------------------|
'I'll confess...'

Solo Backing:
---------------------------------------------------------------|
---------------------------------------------------------------|
----------------------99-999-4-44-444--------------------------|
----77-777-777-777----99-999-4-44-444--------------------------|
----77-777-777-777----77-777-2-22-222--------------------------|
----77-777-777-777---------------------------------------------|

Interlude:
---------------------------------------------------------------|
---------------------------------------------------------------|
----------9~----4~---------------------------------------------|
----7~----9~----4~------xxx22xxx22xxxxxx2~---------------------|
----7~----7~----2~------xxx22xxx22xxxxxx2~---------------------|
----7~------------------xxx22xxx22xxxxxx2~---------------------|
'We've got everybody singing'

Final Chorus:
---------------------------------------------------------------|
---------------------------------------------------------------|
----4----------------------------------------------------------|
----4-x16--2-------------22xxx22xxx22xxx22xxx------------------|
----2------2-x16---------22xxx22xxx22xxx22xxx------------------|
-----------2-------------22xxx22xxx22xxx22xxx------------------|
'We've got everybody singing...'

Order:
Intro x6 (First 4 palm muted)
Chorus x2
Verse x4 (First 2 palm muted)
Chorus x2
Bridge x4
Solo x2
Interlude x1
Final Chorus x2
Bridge x4
Solo x2





song; Conspiracy
band; Paramore
CD; All We Know Is Falling
tabbed by; Xb4mvluvrX

if u have ne ?s then message me or comment... rate it plz?
this is my first tab and i really tried on it

UPDATED!!! well i was playing with the song and i forgot a palm mute part so i just put tht in

| x Mute note
| / slide up
| \ slide down
| h hammer-on
| p pull-off
| ~ let it ring
| X scrachy-ish sound
| P palm mute

========
Guitar 1
========

Intro 0:07

e|-151515121212-------------------|------------|
B|-------------101010101010h11p10-|-11-10------|
G|--------------------------------|-------10~--|
D|--------------------------------|------------|
A|--------------------------------|------------|
D|--------------------------------|------------|

(this comes in rite after the first intro part)
0:13

e|--------------------------------------------------------------------------|
B|-------101010101010101010101010101010-10/13\555555555-5~------------------|
G|-------101010101010101010101010101010-10/12\555555555-5~-141414\99-9/10\5-|
D|XXX(5)--8-8-8-8-8-8-8-8-8-8-8-8-8-8-8--8/10\333333333-0~--x-x-x-xx-x--x-x-|
A|XXX(5)--8-8-8-8-8-8-8-8-8-8-8-8-8-8-8--8/10\333333333-0~-121212\77-7/-8\3-|
D|XXX(5)--8-8-8-8-8-8-8-8-8-8-8-8-8-8-8--8/10\333333333-0~------------------|
                                                      P

Verse 1   0:40

e|-------12-------12--------12--------12------12-|------13-------13--------13-------13------13--|
B|----13--------13--------13--------13-----------|----13-------13--------13--------13-----------|
G|-10--------10--------10--------10--------------|-10--------10--------10--------10-------------|
D|-----------------------------------------------|----------------------------------------------|
A|-----------------------------------------------|----------------------------------------------|
D|-----------------------------------------------|----------------------------------------------|

Chorus 1    0:54
e|--------------------------------------------------------------------|
B|-101010101010101010101010101010-10/13\555555555-5~------------------|
G|-101010101010101010101010101010-10/12\555555555-5~-141414\99-9/10\5-|
D|--8-8-8-8-8-8-8-8-8-8-8-8-8-8-8--8/10\333333333-0~--x-x-x-xx-x--x-x-|
A|--8-8-8-8-8-8-8-8-8-8-8-8-8-8-8--8/10\333333333-0~-121212\77-7/-8\3-|
D|--8-8-8-8-8-8-8-8-8-8-8-8-8-8-8--8/10\333333333-0~------------------|
                                                P

e|---------------------------------------------------------------------|
B|-101010101010101010101010101010-10/13\555555555-5~-------------------|
G|-101010101010101010101010101010-10/12\555555555-5~-141414\99-9/10\13-|
D|--8-8-8-8-8-8-8-8-8-8-8-8-8-8-8--8/10\333333333-0~--x-x-x-xx-x--x--x-|
A|--8-8-8-8-8-8-8-8-8-8-8-8-8-8-8--8/10\333333333-0~-121212\77-7/-8\11-|
D|--8-8-8-8-8-8-8-8-8-8-8-8-8-8-8--8/10\333333333-0~-------------------|
                                                P

Verse 2   1:33

e|------12------12-------12-------12------12-|-----13-------13--------13-------13------13--|
B|---13-------13-------13-------13-----------|---13-------13--------13--------13-----------|
G|-10-------10-------10-------10-------------|-10-------10--------10--------10-------------|
D|-------------------------------------------|---------------------------------------------|
A|-------------------------------------------|---------------------------------------------|
D|-------------------------------------------|---------------------------------------------|x2

e|-----15------15------15------15--------12-|-----17------17------17------17------17-----|
B|---13------13------13------13-------------|---15------15------15------15---------------|
G|-10------10------10------10---------------|-14------14------14------14-----------------|
D|------------------------------------------|--------------------------------------------|
A|------------------------------------------|--------------------------------------------|
D|------------------------------------------|--------------------------------------------|

Chorus 2  1:46

e|--------------------------------------------------------------------|
B|-101010101010101010101010101010-10/13\555555555-5~------------------|
G|-101010101010101010101010101010-10/12\555555555-5~-141414\99-9/10\5-|
D|--8-8-8-8-8-8-8-8-8-8-8-8-8-8-8--8/10\333333333-0~--x-x-x-xx-x--x-x-|
A|--8-8-8-8-8-8-8-8-8-8-8-8-8-8-8--8/10\333333333-0~-121212\77-7/-8\3-|
D|--8-8-8-8-8-8-8-8-8-8-8-8-8-8-8--8/10\333333333-0~------------------|
                                                P

e|--------------------------------------------------------------------|
B|-101010101010101010101010101010-10/13\555555555-5~------------------|
G|-101010101010101010101010101010-10/12\555555555-5~-141414\99-9/10\9-|
D|--8-8-8-8-8-8-8-8-8-8-8-8-8-8-8--8/10\333333333-0~--x-x-x-xx-x--x-x-|
A|--8-8-8-8-8-8-8-8-8-8-8-8-8-8-8--8/10\333333333-0~-121212\77-7/-8\7-|
D|--8-8-8-8-8-8-8-8-8-8-8-8-8-8-8--8/10\333333333-0~------------------|
                                                P

Interlude  2:26

e|-151515--------------------------151515---------------------------|
B|-------171717--------------------------171717---------------------|
G|-------------141414141414h15p1414------------141414141414h15p1414-|
D|------------------------------------------------------------------|
A|------------------------------------------------------------------|
D|------------------------------------------------------------------|

e|-151515------------151515------------171717------------171717-------------|
B|-------171717------------171717------------151515------------151515-------|
G|-------------141414------------141414------------141414------------141414-|
D|--------------------------------------------------------------------------|
A|--------------------------------------------------------------------------|
D|--------------------------------------------------------------------------|

e|-151515------------151515------------151515------------151515-------------|
B|-------171717------------171717------------171717------------171717-------|
G|-------------141414------------141414------------141414------------141414-|
D|--------------------------------------------------------------------------|
A|--------------------------------------------------------------------------|
D|--------------------------------------------------------------------------|

e|-151515------------151515--------------|-17------------|
B|-------171717------------171717--------|----15-----15\-|
G|-------------141414------------141414--|-------14~-14\-|
D|---------------------------------------|---------------|
A|---------------------------------------|---------------|
D|---------------------------------------|---------------|

Chorus 3   2:53

e|--------------------------------------------------------------------|
B|-101010101010101010101010101010-10/13\555555555-5~------------------|
G|-101010101010101010101010101010-10/12\555555555-5~-141414\99-9/10\5-|
D|--8-8-8-8-8-8-8-8-8-8-8-8-8-8-8--8/10\333333333-0~--x-x-x-xx-x--x-x-|
A|--8-8-8-8-8-8-8-8-8-8-8-8-8-8-8--8/10\333333333-0~-121212\77-7/-8\3-|
D|--8-8-8-8-8-8-8-8-8-8-8-8-8-8-8--8/10\333333333-0~------------------|
                                                P

e|-------------------------------------------------------------|
B|-101010101010101010101010101010-10/13\555555555-5~-----------|
G|-101010101010101010101010101010-10/12\555555555-5~-141414\99-|
D|--8-8-8-8-8-8-8-8-8-8-8-8-8-8-8--8/10\333333333-0~--x-x-x-xx-|
A|--8-8-8-8-8-8-8-8-8-8-8-8-8-8-8--8/10\333333333-0~-121212\77-|
D|--8-8-8-8-8-8-8-8-8-8-8-8-8-8-8--8/10\333333333-0~-----------|
                                                P

Outro     3:26

e|-151515121212-------------------|------------|
B|-------------101010101010h11p10-|-11-10------|
G|--------------------------------|-------10~--|
D|--------------------------------|------------|
A|--------------------------------|------------|
D|--------------------------------|------------|


========
Guitar 2
========

Intro  0:01

e|------8-------8----------------------|------0-------0--------------------------|
B|--------10------10----10----10----10-|--------10------10----10----10----10-----|
G|---10------10------10----10----10----|---10------10------10----10----10--------|
D|-8-----------------------------------|-0---------------------------------------|
A|-------------------------------------|-----------------------------------------|
D|-------------------------------------|-----------------------------------------|

(this part comes rite after the first intro part)

e|------8-------8----------------------|-----------|
B|--------10------10----10----10----10-|-11-10-----|
G|---10------10------10----10----10----|-------10~-|
D|-8-----------------------------------|-----------|
A|-------------------------------------|-----------|
D|-------------------------------------|-----------|

(this part comes rite after the second intro part)

e|-------------------------------------------------------|
B|-1010101010101010101010101010-10/13\555555555-55555555-|
G|-1010101010101010101010101010-10/12\555555555-55555555-|
D|--8-8-8-8-8-8-8-8-8-8-8-8-8-8--8/10\333333333-00000000-|
A|--8-8-8-8-8-8-8-8-8-8-8-8-8-8--8/10\333333333-00000000-|
D|--8-8-8-8-8-8-8-8-8-8-8-8-8-8--8/10\333333333-00000000-|
                                              P

Verse 1   0:27

e|------------------------------------------------------------|
B|-1010101010--101010101010--101010101010--101010101010101010-|
G|-1010101010--101010101010--101010101010--101010101010101010-|
D|--8-8-8-8-8---8-8-8-8-8-8---8-0-0-0-0-0---0-0-0-0-0-0-0-0-0-|
A|--8-8-8-8-8---8-8-8-8-8-8---8-0-0-0-0-0---0-0-0-0-0-0-0-0-0-|
D|--8-8-8-8-8---8-8-8-8-8-8---8-0-0-0-0-0---0-0-0-0-0-0-0-0-0-|
    x x x x       x x x x       x x x x       x x x x

Chorus 1   0:54

x2
e|-------------------------------------------------------|
B|-1010101010101010101010101010-10/13\555555555-55555555-|
G|-1010101010101010101010101010-10/12\555555555-55555555-|
D|--8-8-8-8-8-8-8-8-8-8-8-8-8-8--8/10\333333333-00000000-|
A|--8-8-8-8-8-8-8-8-8-8-8-8-8-8--8/10\333333333-00000000-|
D|--8-8-8-8-8-8-8-8-8-8-8-8-8-8--8/10\333333333-00000000-|
                                              P

Verse 2   1:20

e|------------------------------------------------------------|
B|-1010101010--101010101010--101010101010--101010101010101010-|
G|-1010101010--101010101010--101010101010--101010101010101010-|
D|--8-8-8-8-8---8-8-8-8-8-8---8-0-0-0-0-0---0-0-0-0-0-0-0-0-0-|
A|--8-8-8-8-8---8-8-8-8-8-8---8-0-0-0-0-0---0-0-0-0-0-0-0-0-0-|
D|--8-8-8-8-8---8-8-8-8-8-8---8-0-0-0-0-0---0-0-0-0-0-0-0-0-0-|
    x x x x       x x x x       x x x x       x x x x

e|------------------------------------------------------------|
B|-1010101010--101010101010--101010101010--101010101010101010-|
G|-1010101010--101010101010--101010101010--101010101010101010-|
D|--8-8-8-8-8---8-8-8-8-8-8---8-0-0-0-0-0---0-0-0-0-0-0-0-0-0-|
A|--8-8-8-8-8---8-8-8-8-8-8---8-0-0-0-0-0---0-0-0-0-0-0-0-0-0-|
D|--8-8-8-8-8---8-8-8-8-8-8---8-0-0-0-0-0---0-0-0-0-0-0-0-0-0-|
    x x x x       x x x x       x x x x       x x x x x x x x

Chorus 2   1:46

x2
e|-------------------------------------------------------|
B|-1010101010101010101010101010-10/13\555555555-55555555-|
G|-1010101010101010101010101010-10/12\555555555-55555555-|
D|--8-8-8-8-8-8-8-8-8-8-8-8-8-8--8/10\333333333-00000000-|
A|--8-8-8-8-8-8-8-8-8-8-8-8-8-8--8/10\333333333-00000000-|
D|--8-8-8-8-8-8-8-8-8-8-8-8-8-8--8/10\333333333-00000000-|
                                              P

Interlude   2:13

e|----------------------------------------------------------|
B|-----------------1010101010101010101010101010101010101010-|
G|-77777777777777771010101010101010101010101010101010101010-|
D|-5555555555555555-8-8-8-8-8-8-8-8-8-8-8-8-8-8-8-8-0-0-0-0-|
A|-5555555555555555-8-8-8-8-8-8-8-8-8-8-8-8-8-8-8-8-0-0-0-0-|
D|-5555555555555555-8-8-8-8-8-8-8-8-8-8-8-8-8-8-8-8-0-0-0-0-|

e|----------------------------------------------------------|
B|-10101010101010101010101010101010101010101010101010101010-|
G|-10101010101010101010101010101010101010101010101010101010-|
D|--0-0-0-0-0-0-0-0-0-0-0-0-8-8-8-8-8-8-8-8-8-8-8-8-8-8-8-8-|
A|--0-0-0-0-0-0-0-0-0-0-0-0-8-8-8-8-8-8-8-8-8-8-8-8-8-8-8-8-|
D|--0-0-0-0-0-0-0-0-0-0-0-0-8-8-8-8-8-8-8-8-8-8-8-8-8-8-8-8-|

(distortion)
e|-----------------------------------------------------------------|
B|-----------------------------------------------------------------|
G|-----------------------------------------------------------------|
D|-555555555555555588888888888888800000000000000008888888888888888-|
A|-555555555555555588888888888888800000000000000008888888888888888-|
D|-555555555555555588888888888888800000000000000008888888888888888-|

e|------------------------------------------------10~-1010~-\--|
B|------------------------------------------------10~-1010~-\--|
G|------------------------------------------------10~-1010~-\--|
D|-55555555555555558888888888888880000000000000000-8~--8-8~-\--|
A|-55555555555555558888888888888880000000000000000-8~--8-8~-\--|
D|-55555555555555558888888888888880000000000000000-8~--8-8~-\--|

Chorus 3   2:53

e|-------------------------------------------------------|
B|-1010101010101010101010101010-10/13\555555555-55555555-|
G|-1010101010101010101010101010-10/12\555555555-55555555-|
D|--8-8-8-8-8-8-8-8-8-8-8-8-8-8--8/10\333333333-00000000-|
A|--8-8-8-8-8-8-8-8-8-8-8-8-8-8--8/10\333333333-00000000-|
D|--8-8-8-8-8-8-8-8-8-8-8-8-8-8--8/10\333333333-00000000-|
                                              P

e|-------------------------------------------------------|
B|-1010101010101010101010101010-10/13\555555555----------|
G|-1010101010101010101010101010-10/12\555555555----------|
D|--8-8-8-8-8-8-8-8-8-8-8-8-8-8--8/10\333333333-00-------|
A|--8-8-8-8-8-8-8-8-8-8-8-8-8-8--8/10\333333333-00-------|
D|--8-8-8-8-8-8-8-8-8-8-8-8-8-8--8/10\333333333-00-------|
                                              P
Outro   3:20

e|------8-------8----------------------|------0-------0--------------------------|
B|--------10------10----10----10----10-|--------10------10----10----10----10-----|
G|---10------10------10----10----10----|---10------10------10----10----10--------|
D|-8-----------------------------------|-0---------------------------------------|
A|-------------------------------------|-----------------------------------------|
D|-------------------------------------|-----------------------------------------|

e|------8-------8----------------------|-----------|
B|--------10------10----10----10----10-|-11-10-----|
G|---10------10------10----10----10----|-------10~-|
D|-8-----------------------------------|-----------|
A|-------------------------------------|-----------|
D|-------------------------------------|-----------|

========
Guitar 3
========

it comes in on Verse 2 at 1:33

e|----------------------------------------------------|
B|----------------------------------------------------|
G|-10101010-5-/10101010-5-/--12121212/-12/14-14-15-14-|
D|--x-x-x-x-x---x-x-x-x-x-----x-x-x-x---x--x--x--x--x-|
A|--8-8-8-8-3---8-8-8-8-3-/--10101010/-10/12-12-13-12-|
D|----------------------------------------------------|

e|----------------------------------------------------|
B|----------------------------------------------------|
G|-10101010-5-/10101010-5-/--12121212/12/14-15-14-12--|
D|--x-x-x-x-x---x-x-x-x-x-----x-x-x-x--x--x--x--x--x--|
A|--8-8-8-8-3-/-8-8-8-8-3-/--10101010/10/12-13-12-10--|
D|----------------------------------------------------|





Band: Paramore
Song: Franklin
Album: All We Know Is Falling
Tabber: Matt Florio, www.myspace.com/mattflorio or Shempashland@yahoo.com

Guitar 1: Acoustic Capo 5th Fret
Guitar 2: Electric Standard

Chords:
Em7 022033
G 320033
Cadd9 X32033
Gadd9 2XX033
Asus X02233

Intro/Verse 1

Guitar 1
  Em7  G  Cadd9  G   Gadd9

Guitar 2
e-3------3-------3----------------|
b-----0------0-------0---3-5-3----|
g---5---5--5---5---5---5-------5--|
d---------------------------------|
a---------------------------------|
E---------------------------------|
** This could be played with the Capo like this:

e-----------------------------------|
b-3-------3-------3-----------------|
g---0---0---0---0---0---0-2-4-2-0---|
d-----4-------4-------4-------------|
a-----------------------------------|
E-----------------------------------|

Chorus

Guitar 1

Cadd9   Em7   Dadd9

Guitar 2

e------------------------|
b------------------------|
g------------------------|
d--3----7----5-----------|
a--3----7----5-----------|
E--1----5----3-----------|

Pre Verse 2

Guitar 1 is silent

Guitar 2 (1x)
e-3------3-------3----------------|
b-----0------0-------0---3-5-3----|
g---5---5--5---5---5---5-------5--|
d---------------------------------|
a---------------------------------|
E---------------------------------|

Verse 2

Guitar 1

Em7  G  Cadd9  G  Gadd9

Guitar 2

e-3------3-------3----------------|
b-----0------0-------0---3-5-3----|
g---5---5--5---5---5---5-------5--|
d---------------------------------|
a---------------------------------|
E---------------------------------|

Chorus

Guitar 1

Cadd9   Em7   Dadd9

Guitar 2

e------------------------|
b------------------------|
g------------------------|
d--3----7----5-----------|
a--3----7----5-----------|
E--1----5----3-----------|

Breakdown

Guitar 1

  (Cadd9)   (Asus)
e------------------------|
b----3--------3----------|
g---0-0------2-2---------|
d--2---2----2---2--------|
a-3-----3--0-----0-------|
E------------------------|

Guitar 2 is silent

Guitar 1

  (Cadd9)   (Asus)
e------------------------|
b----3--------3----------|
g---0-0------2-2---------|
d--2---2----2---2--------|
a-3-----3--0-----0-------|
E------------------------|

Guitar 2

  ~ = let ring out
e-------------------|
b--13~--------------|
g-------------------|
d-------------------|
a-------------------|
E-------------------|

Guitar 1

  (Cadd9)   (Asus)
e------------------------|
b----3--------3----------|
g---0-0------2-2---------|
d--2---2----2---2--------|
a-3-----3--0-----0-------|
E------------------------|

Guitar 2

e---10~--------------------|
b--------------------------|
g------------12~-----------|
d--------------------------|
a--------------------------|
E--------------------------|

Guitar 1

  (Cadd9)   (Asus)
e------------------------|
b----3--------3----------|
g---0-0------2-2---------|
d--2---2----2---2--------|
a-3-----3--0-----0-------|
E------------------------|

Guitar 2
e----------3/5--8-----------|
b---------------------------|
g-------9-------------------|
d-10--9---------------------|
a---------------------------|
E---------------------------|

Bridge

Guitar 1

Cadd9  Em7  Dadd9 (3x)

Guitar 2 (3x)
e--15(16x)-12-13-12---------------|
b-------------------15-13-12------|
g----------------------------12---|
d---------------------------------|
a---------------------------------|
E---------------------------------|

Guitar 1

Cadd9  Em7  Dadd9

Guitar 2
e---15(16x)-12-13-12------------|
b--------------------15-13------|
g-------------------------------|
d-------------------------------|
a-------------------------------|
E-------------------------------|

Outro

Guitar 1
Cadd9  Em7  Dadd9  (2x)





Title: My Heart
Artist: Paramore
Album: All We Know Is Falling


guitar tab by Trevor Shintaku =D

This tab, if not 100% perfect, is very close =) enjoy.

standard tuning

intro/chorus


guitar 1 (0:00)

E--------------------------------------------------|
B--------------------------------------------------|
G--------6-----------------------------------------|
D--2--7--6--6--7-----------------------------------|
A--2--7--4--6--7-----------------------------------|
E--0--5-----4--5-----------------------------------|


guitar 2 (0:00)

E--4-4-4-7-2-2-2/4-4-4-4-4-4-----------------------|
B--------------------------------------------------|
G--------------------------------------------------|
D--------------------------------------------------|
A--------------------------------------------------|
E--------------------------------------------------|

E--7-4-4-2-2-2-7-7-7-7-7-7-------------------------|
B--------------------------------------------------|
G--------------------------------------------------|
D--------------------------------------------------|
A--------------------------------------------------|
E--------------------------------------------------|

E--4-4-4-7-2-2-2/4-4-4-4-4-4-----------------------|
B--------------------------------------------------|
G--------------------------------------------------|
D--------------------------------------------------|
A--------------------------------------------------|
E--------------------------------------------------|

E--7-4-4-2-2-2-0-----------------------------------|
B--------------------------------------------------|
G--------------------------------------------------|
D--------------------------------------------------|
A--------------------------------------------------|
E--------------------------------------------------|

verse 1


guitar 1 (0:22)

E--0--0--0--------------------------------------------|
B--0--0--0--------------------------------------------|
G--6--4--2--------------------------------------------|
D--6--4--2--------------------------------------------|
A--4--2--0--------------------------------------------|
E-----------------------------------------------------|


guitar 2 (0:33)

E-12-7-7-7-4-5-5-0----12-7-7-4-5-7-12--------------|
B--------------------------------------------------|
G--------------------------------------------------|
D--------------------------------------------------|
A--------------------------------------------------|
E--------------------------------------------------|

chorus (0:54)

verse 2


guitar 1 (1:16)

E--0--0--0--------------------------------------------|
B--0--0--0--------------------------------------------|
G--6--4--2--------------------------------------------|
D--6--4--2--------------------------------------------|
A--4--2--0--------------------------------------------|
E-----------------------------------------------------|


guitar 2 (1:26)

E--7-7-7-4-4-4-5-5-5-5-5-5-------------------------|
B---5-5-5-5-5-5-5-5-5-5-5-5------------------------|
G--------------------------------------------------|
D--------------------------------------------------|
A--------------------------------------------------|
E--------------------------------------------------|

chorus (1:47)

bridge (2:16)


guitar 1 (2:10)

E--------------------------------------------------|
B--------------------------------------------------|
G--9-----------------------------------------------|
D--9----( strum until breakdown )------------------|
A--7-----------------------------------------------|
E--------------------------------------------------|


guitar 2 (2:11)

E------7-------------------------------------------|
B--9-7---7-9---------------------------------------|
G--------------------------------------------------|
D--------------------------------------------------|
A--------------------------------------------------|
E--------------------------------------------------|

breakdown


guitar 1 (2:39)    (2:42) play till the end

E-----------------|--------------------------------|
B-----------------|--------------------------------|
G-----------------|-------6------------------------|
D--7--9-----------|-------6--2--7--7--9------------|
A--7--9-----------|-------4--2--7--7--9------------|
E--5--7-----------|----------0--5--5--7------------|


guitar 2

E--------------7-----------------------------------|
B--9-7-9-7-9-7---7-9-------------------------------|
G--------------------------------------------------|
D--------------------------------------------------|
A--------------------------------------------------|
E--------------------------------------------------|

(3:22)
E----------------------------------------------------|
B--------------------9-9-9---------------------------|
G--6-6-6-8-8-8-9-9-9--------6-6-6-8-8-8-9-9-9--------|
D---------------------------------------------7-7-7--|
A----------------------------------------------------|
E----------------------------------------------------|

play 3 times then


E--11-(x8)--9-(x8)---------------------------------|
B--------------------------------------------------|
G--------------------------------------------------|
D--------------------------------------------------|
A--------------------------------------------------|
E--------------------------------------------------|


guitar 1 end on

E--------------------------------------------------|
B--------------------------------------------------|
G--6-----------------------------------------------|
D--6-----------------------------------------------|
A--4-----------------------------------------------|
E--------------------------------------------------|

INTRO/CHORUS
VERSE 1
CHORUS
VERSE 2
CHORUS
BRIDGE
BREAKDOWN


comments
print report bad tab
2 comments total.
+3 reply
Linkerman wrote on March 18 2008, 01:45 pm

Thank you very much for compiling all songs into a single tab.
It saved me some time, so i really apreciate it.
Good work, man!

0 reply
elvishpresley wrote on August 7 2008, 10:23 am

hey. this is the yoda guy. ultimate guitar screwed my profile so if you need to ask anything, this is me

I want to post or [tab]
guest
You may want to rate the tab now too:
select rating
Please do not post tabs as comments. Select "correction" instead!