Oops, an error
Loading. Please wait.

Born For This Tab

ver3
ver3
More versions @911Tabs.com
26,160 views 51 this week
4 commentsread comments
1 2 3 4 5
worth learning
x 3
Autoscroll
+/-
esc
set tempo
stop
Contributor
WARNING: You are trying to view
                                    content from Ultimate-Guitar.com
                                    in an unauthorized application,
                                    which is prohibited.

                                    Please use an official Ultimate
                                    Guitar Tabs application for iPhone,
                                    iPad or Android to access legitimate
                                    chords, guitar, bass, and drum tabs
                                    from Ultimate-Guitar.com database.

                                    Type "ultimate guitar tabs" in Apple
                                    App Store's or Android Market's
                                    search to find the application.
I love this song, and nobody has tabbed it out correctly yet, so... here you go. This 
correct! PARAMORE roxx :D

Standard Tuning - EADGBE

E||-----------------------|----------------------|
B||--6--7--6--------------|----------------------|
G||-------------8----6----|-----------13----5----|
D||-----------------------|--8~------------------|
A||-----------------------|----------------------|
E||-----------------------|----------------------|


----------------------|----------------------|
----------------------|----------------------|
--L----5----5----5----|--8----5----8----5----|
----------------------|----------------------|
----------------------|----------------------|
----------------------|----------------------|  [play twice]


--------------------------|--------------------------|
--------------------------|--------------------------|
--10----10----10----10----|--10----10----10----10----|
---8-----8-----8-----8----|---8-----8-----8-----8----|
--------------------------|--------------------------|
--------------------------|--------------------------|


Verse:

----------------------|----------------------|--------------------------------|
-------|----------------------|----------------------|------------------------|
-------|----------------------|----------------------|------------------------|
-------|----------------------|----------------------|------------------------|
-------|--8----8----8----8----|--8----8----8----8----|--4----4----4----4------|
-------|--6----6----6----6----|--6----6----6----6----|--2----2----2----2------|

----------------------|----------------------|----------------------|
----------------------|----------------------|----------------------|
----------------------|----------------------|----------------------|
----------------------|----------------------|----------------------|
--3----3----3----3----|--8----8----8----8----|--8----8----8----8----|
--1----1----1----1----|--6----6----6----6----|--6----6----6----6----|
[play 4 times]


Oh no I just keep on falling
(Back to the same old)
Where's hope when misery comes crawling?
(Oh, oh way hey)
With your faith you'll trigger a landslide
(Victory)
Kill off this common sense of mind


Bridge:

----------------------|-------------------|-------------------|
----------------------|-------------------|-------------------|
----------------------|--8---------L------|-------------------|
----------------------|--8---------L------|--8--------L-------|
--3----3----3----3----|--6---------L------|--8--------L-------|
--1----1----1----1----|-------------------|--6--------L-------|


|-------------------|
|-------------------|
|-------------------|
|--4----------L-----|
|--4----------L-----|
|--2----------L-----|


------------------------|-----------------------|------------------------|
------------------------|-----------------------|------------------------|
--8--8----8--8----8--8--|--L--8--8----8----8----|------------------------|
--8--8----8--8----8--8--|--L--8--8----8----8----|--6--6----6--6----6--6--|
--6--6----6--6----6--6--|--L--6--6----6----6----|--6--6----6--6----6--6--|
------------------------|-----------------------|--4--4----4--4----4--4--|


-----------------------|--------------------|---------------|
-----------------------|--------------------|---------------|
-----------------------|--------------------|---------------|
--L--6--6----6----6----|--8-----------------|---------------|
--L--6--6----6----6----|--8-----------------|---------------|
--L--4--4----4----4----|--6-----------------|---------------|


It takes acquired minds to taste, to taste, to taste this wine
You can't down it with your eyes
So we don't need the headlines
We don't need the headlines
We just want


|-------6----6--6----8--|--L--9----11------9--8--|
|-------6----6--6----6--|--L--6-----6------6--6--|
|-----------------------|------------------------|
|-8\--------------------|------------------------|
|-8\--------------------|------------------------|
|-6\--------------------|------------------------| [play twice]


Chorus:

       PM  PM PM PM PM PM
|-------------------------|
|-------------------------|
|-------------------------|
|--4----4--4--4--4--4--4--|
|--4----4--4--4--4--4--4--|
|--2----2--2--2--2--2--2--|


  PM PM PM PM PM PM PM PM

--------------------------|--------------------------|
--------------------------|--------------------------|
--------------------------|--6--6--6--6--6--6--6--6--|
--4--4--4--4--4--4--4--4--|--6--6--6--6--6--6--6--6--|
--4--4--4--4--4--4--4--4--|--4--4--4--4--4--4--4--4--|
--2--2--2--2--2--2--2--2--|--------------------------|


                                  PM PM PM PM PM PM    PM PM PM PM PM PM PM PM
--------------------------|-------------------------|--------------------------|
--------------------------|-------------------------|--------------------------|
--------------------------|-------------------------|--------------------------|
--3--3--3--3--3--3--3--3--|--4----4--4--4--4--4--4--|--4--4--4--4--4--4--4--4--|
--3--3--3--3--3--3--3--3--|--4----4--4--4--4--4--4--|--4--4--4--4--4--4--4--4--|
--1--1--1--1--1--1--1--1--|--2----2--2--2--2--2--2--|--2--2--2--2--2--2--2--2--|

--------------------------|--------------------------|
--------------------------|--------------------------|
--------------------------|--------------------------|
--8--8--8--8--8--8--8--8--|--6--6--6--6--6--6--6--6--|
--8--8--8--8--8--8--8--8--|--6--6--6--6--6--6--6--6--|
--6--6--6--6--6--6--6--6--|--4--4--4--4--4--4--4--4--|


--------------------------|--------------------------|
--------------------------|--------------------------|
--------------------------|--------------------------|
--4--4--4--4--4--4--4--4--|--4--4--4--4--4--4--4--4--|
--4--4--4--4--4--4--4--4--|--4--4--4--4--4--4--4--4--|
--2--2--2--2--2--2--2--2--|--2--2--2--2--2--2--2--2--|

--------------------------|--------------------------|
--------------------------|--------------------------|
--6--6--6--6--6--6--6--6--|--------------------------|
--6--6--6--6--6--6--6--6--|--3--3--3--3--3--3--3--3--|
--4--4--4--4--4--4--4--4--|--3--3--3--3--3--3--3--3--|
--------------------------|--1--1--1--1--1--1--1--1--|

--------------------------|--------------------------|
--------------------------|--------------------------|
--------------------------|--------------------------|
--4--4--4--4--4--4--4--4--|--4--4--4--4--4--4--4--4--|
--4--4--4--4--4--4--4--4--|--4--4--4--4--4--4--4--4--|
--2--2--2--2--2--2--2--2--|--2--2--2--2--2--2--2--2--|

--------------------------|--------------------------|-------------------|
--------------------------|--------------------------|-------------------|
--------------------------|--------------------------|-------------------|
--8--8--8--8--8--8--8--8--|--6--6--6--6--6--6--6--6--|--4----------------|
--8--8--8--8--8--8--8--8--|--6--6--6--6--6--6--6--6--|--4----------------|
--6--6--6--6--6--6--6--6--|--4--4--4--4--4--4--4--4--|--2----------------|


Everybody sing
Like it's the last song you will ever sing
Tell me tell me do you feel the pressure now?
Everybody live
Like it's the last day you will ever see
Tell me tell me do you feel the pressure now?


[play verse again]


Right now you're the only reason
(I'm not letting go oh)
And time out if everyones worth pleasing
(Ah woah oh)
You'll trigger a landslide
(Victory)
To kill off their finite state of mind


[play bridge again]


It takes acquired minds to taste, to taste, to taste this wine
You can't down it with your eyes
So we don't need the headlines
No we don't want your headlines
We just want


[play chorus]


Everybody sing
Like it's the last song you will ever sing
Tell me tell me do you feel the pressure now?
Everybody live
Like it's the last day you will ever see
Tell me tell me do you feel the pressure now?
Everybody sing
Like it's the last song you will ever sing
Tell me tell me do you feel the pressure?


E|-----------------------|----------------------|
B|--6--7--6--------------|----------------------|
G|-------------8----6----|-----------13----5----|
D|-----------------------|--8~------------------|
A|-----------------------|----------------------|
E|-----------------------|----------------------|


----------------------|----------------------|
----------------------|----------------------|
--L----5----5----5----|--8----5----8----5----|
----------------------|----------------------|
----------------------|----------------------|
----------------------|----------------------|  [play twice]


Interlude:

|-------------------|
|-------------------|
|-------------------|
|--4----------------|
|--4----------------|
|--2----------------|

-------------------|-------------------|
-------------------|-------------------|
-------------------|-------------------|
--6----------------|--8----------------|
--6----------------|--8----------------|
--4----------------|--6----------------|


|----------------------|--------------------|
|----------------------|--------------------|
|-----------x--x----x--|--8-----------------|
|-----------x--x----x--|--8-----------------|
|-----------x--x----x--|--6-----------------|
|----------------------|--------------------|


----------------------|-------------------|-------------------|
----------------------|-------------------|-------------------|
-----------x--x----x--|-------------------|-------------------|
-----------x--x----x--|--4----------------|--6----------------|
-----------x--x----x--|--4----------------|--6----------------|
----------------------|--2----------------|--4----------------|

-------------------|
-------------------|
-------------------|
--8----------------|
--8----------------|
--6----------------|


----------------------|--------------------|----------------------|
----------------------|--------------------|----------------------|
-----------x--x----x--|--8-----------------|-----------x--x----x--|
-----------x--x----x--|--8-----------------|-----------x--x----x--|
-----------x--x----x--|--6-----------------|-----------x--x----x--|
----------------------|--------------------|----------------------|


--------------------|----------------------|--------------------|
--------------------|----------------------|--------------------|
--------------------|-----------x--x----x--|--------------------|
--4-----------------|-----------x--x----x--|--6-----------------|
--4-----------------|-----------x--x----x--|--6-----------------|
--2-----------------|----------------------|--4-----------------|


----------------------|-------------------|-------------------|
----------------------|-------------------|-------------------|
-----------x--x----x--|-------------------|-------------------|
-----------x--x----x--|--4----------------|--6----------------|
-----------x--x----x--|--4----------------|--6----------------|
----------------------|--2----------------|--4----------------|


Alright, so you think you're ready?
Okay then you'll say this with me go
We were born for this
(We were born for this)

Alright, so you think you're ready?
Okay then you'll say this with me go
We were born for this
(We were born for this)
We were born for this
(We were born for this)

We were born for...
We were born for...

|----------------------------------|
|----------------------------------|
|--18--18--18--18--18--18--18--18--|
|----------------------------------|
|--16--16--16--16--16--16--16--16--|
|----------------------------------|

----------------------------------|--------------------------|
----------------------------------|--------------------------|
--18--18--18--18--18--18--18--18--|--6--6--6--6--6--6--6--6--|
----------------------------------|--6--6--6--6--6--6--6--6--|
--16--16--16--16--16--16--16--16--|--4--4--4--4--4--4--4--4--|
----------------------------------|--------------------------|


                                  PM PM PM PM PM PM    PM PM PM PM PM PM PM PM

--------------------------|-------------------------|--------------------------|
--------------------------|-------------------------|--------------------------|
--------------------------|-------------------------|--------------------------|
--3--3--3--3--3--3--3--3--|--4----4--4--4--4--4--4--|--4--4--4--4--4--4--4--4--|
--3--3--3--3--3--3--3--3--|--4----4--4--4--4--4--4--|--4--4--4--4--4--4--4--4--|
--1--1--1--1--1--1--1--1--|--2----2--2--2--2--2--2--|--2--2--2--2--2--2--2--2--|


--------------------------|--------------------------|
--------------------------|--------------------------|
--------------------------|--------------------------|
--8--8--8--8--8--8--8--8--|--6--6--6--6--6--6--6--6--|
--8--8--8--8--8--8--8--8--|--6--6--6--6--6--6--6--6--|
--6--6--6--6--6--6--6--6--|--4--4--4--4--4--4--4--4--|


--------------------------|--------------------------|
--------------------------|--------------------------|
--------------------------|--------------------------|
--4--4--4--4--4--4--4--4--|--4--4--4--4--4--4--4--4--|
--4--4--4--4--4--4--4--4--|--4--4--4--4--4--4--4--4--|
--2--2--2--2--2--2--2--2--|--2--2--2--2--2--2--2--2--|

--------------------------|--------------------------|
--------------------------|--------------------------|
--6--6--6--6--6--6--6--6--|--------------------------|
--6--6--6--6--6--6--6--6--|--3--3--3--3--3--3--3--3--|
--4--4--4--4--4--4--4--4--|--3--3--3--3--3--3--3--3--|
--------------------------|--1--1--1--1--1--1--1--1--|


--------------------------|--------------------------|
--------------------------|--------------------------|
--------------------------|--------------------------|
--4--4--4--4--4--4--4--4--|--4--4--4--4--4--4--4--4--|
--4--4--4--4--4--4--4--4--|--4--4--4--4--4--4--4--4--|
--2--2--2--2--2--2--2--2--|--2--2--2--2--2--2--2--2--|


--------------------------|--------------------------|
--------------------------|--------------------------|
--------------------------|--------------------------|
--8--8--8--8--8--8--8--8--|--6--6--6--6--6--6--6--6--|
--8--8--8--8--8--8--8--8--|--6--6--6--6--6--6--6--6--|
--6--6--6--6--6--6--6--6--|--4--4--4--4--4--4--4--4--|


--------------------------|--------------------------|
--------------------------|--------------------------|
--------------------------|--------------------------|
--4--4--4--4--4--4--4--4--|--4--4--4--4--4--4--4--4--|
--4--4--4--4--4--4--4--4--|--4--4--4--4--4--4--4--4--|
--2--2--2--2--2--2--2--2--|--2--2--2--2--2--2--2--2--|


--------------------------|--------------------------|
--------------------------|--------------------------|
--6--6--6--6--6--6--6--6--|--------------------------|
--6--6--6--6--6--6--6--6--|--3--3--3--3--3--3--3--3--|
--4--4--4--4--4--4--4--4--|--3--3--3--3--3--3--3--3--|
--------------------------|--1--1--1--1--1--1--1--1--|


--------------------------|--------------------------|
--------------------------|--------------------------|
--------------------------|--------------------------|
--4--4--4--4--4--4--4--4--|--4--4--4--4--4--4--4--4--|
--4--4--4--4--4--4--4--4--|--4--4--4--4--4--4--4--4--|
--2--2--2--2--2--2--2--2--|--2--2--2--2--2--2--2--2--|


--------------------------|--------------------------|
--------------------------|--------------------------|
--------------------------|--------------------------|
--8--8--8--8--8--8--8--8--|--6--6--6--6--6--6--6--6--|
--8--8--8--8--8--8--8--8--|--6--6--6--6--6--6--6--6--|
--6--6--6--6--6--6--6--6--|--4--4--4--4--4--4--4--4--|


--------------------------|--------------------------|--------------------|
--------------------------|--------------------------|--------------------|
--------------------------|--------------------------|--------------------|
--4--4--4--4--4--4--4--4--|--4--4--4--4--4--4--4--4--|--8-----------------|
--4--4--4--4--4--4--4--4--|--4--4--4--4--4--4--4--4--|--8-----------------|
--2--2--2--2--2--2--2--2--|--2--2--2--2--2--2--2--2--|--6-----------------|


----------------------|--------------------|----------------------|
----------------------|--------------------|----------------------|
-----------x--x----x--|--8-----------------|-----------x--x----x--|
-----------x--x----x--|--8-----------------|-----------x--x----x--|
-----------x--x----x--|--6-----------------|-----------x--x----x--|
----------------------|--------------------|----------------------|


----------------------|----------------------|-------------------|
----------------------|----------------------|-------------------|
----------------------|----------------------|-------------------|
--4--------x--x----x--|--6--------x--x----x--|--8----------------|
--4--------x--x----x--|--6--------x--x----x--|--8----------------|
--2--------x--x----x--|--4--------x--x----x--|--6----------------|


Everybody sing
Like it's the last song you will ever sing
Tell me tell me can you feel the pressure?
Everybody live
Like it's the last day you will ever see
Tell me tell me can you feel the pressure now?
Everybody sing
Like it's the last song you will ever sing
Tell me tell me can you feel the pressure?
Tell me tell me can you feel the pressure?

We were born for this
(We were born for this)
We were born for this
comments
We did not receive enough feedback on this tab! Please rate:
1 2 3 4 5
4 comments total. Showing first comments.
-2 reply
Sk8rChik4gUitaR wrote on September 1 2007, 06:58 pm

u know this tab is the best one :D

0 reply
FidoFletch wrote on February 10 2008, 09:21 am

Nope.. this is way than any worst.. its wrong..

+2 reply
chr15t0ph3r wrote on May 9 2010, 02:09 pm

this tab sucks, sorry

I want to post or [tab]
guest
You may want to rate the tab now too:
select rating
Please do not post tabs as comments. Select "correction" instead!