Oops, an error
Loading. Please wait.

Born For This Tab

ver4
ver4

Interactive

More versions @911Tabs.com
11,343 views 27 this week
2 commentsread comments
1 2 3 4 5
accurate
x 6
Autoscroll
+/-
esc
set tempo
stop
Contributor
Difficulty
Tuning
intermediate
C# G# C# F# A# D#
WARNING: You are trying to view
                                    content from Ultimate-Guitar.com
                                    in an unauthorized application,
                                    which is prohibited.

                                    Please use an official Ultimate
                                    Guitar Tabs application for iPhone,
                                    iPad or Android to access legitimate
                                    chords, guitar, bass, and drum tabs
                                    from Ultimate-Guitar.com database.

                                    Type "ultimate guitar tabs" in Apple
                                    App Store's or Android Market's
                                    search to find the application.
-------------------------------------------------------------------------------
                             Born For This - Paramore
-------------------------------------------------------------------------------
Tabbed by: kinsular
Email: insular_keith@yahoo.com

Tuning: Drop C#

GUITAR1: LEAD GUITAR
GUITAR2: RHYTHM GUITAR

INTRO: GUITAR1 x2
eb|-------------------------------9-9---------------------------------------|
Bb|---------------10--------------------------------------------------------|
Gb|--11^12-9---------------------9-9----------------------------------------|
Db|----------12-9----11-11-11-11--------------------------------------------|
Ab|-------------------------------------------------------------------------|
Db|-------------------------------------------------------------------------|

INTRO: GUITAR2 x2
eb|-------------------------------------------------------------------------|
Bb|-------------------------------------------------------------------------|
Gb|-------------------------------------------------------------------------|
Db|--9------7------0------2-2-2--2-h-4--------------------------------------|
Ab|--9-x6---7-x6---0-x6---2-2-2--2-h-4--------------------------------------|
Db|--9------7------0------2-2-2--2-h-4--------------------------------------|

BREAK: GUITAR1
eb|-------------------------------------------------------------------------|
Bb|--------12--x8-----------------------------------------------------------|
Gb|-------11--x8------------------------------------------------------------|
Db|-------------------------------------------------------------------------|
Ab|-------------------------------------------------------------------------|
Eb|-------------------------------------------------------------------------|

VERSE1: GUITAR1
eb|--2-x4-------------------------------------------------------------------|
Bb|---3-x4----5-x2------5-x2------------------------------------------------|
Gb|----4-x4----7-x2------6-x2-----------------------------------------------|
Db|-------------------------------------------------------------------------|
Ab|-------------------------------------------------------------------------|
Eb|-------------------------------------------------------------------------|

VERSE1: GUITAR2
eb|-------------------------------------------------------------------------|
Bb|-------------------------------------------------------------------------|
Gb|-------------------------------------------------------------------------|
Db|--9-----9-9---5-----5-5---4----------------------------------------------|
Ab|--9-x7--9-9---5-x3--5-5---4-x3-------------------------------------------|
Eb|--9-----9-9---5-----5-5---4----------------------------------------------|

VERSE1: GUITAR1
eb|--2-x2-------------------------------------------------------------------|
Bb|---3-x2-------5-x2----5-x2-----------------------------------------------|
Gb|----4-x2-----4-x2------7-x2----------------------------------------------|
Db|-------------------------------------------------------------------------|
Ab|-------------------------------------------------------------------------|
Eb|-------------------------------------------------------------------------|

VERSE1: GUITAR2
eb|-------------------------------------------------------------------------|
Bb|-------------------------------------------------------------------------|
Gb|-------------------------------------------------------------------------|
Db|--4---9------9-9---2-----2-2---0-----0-0--4------------------------------|
Ab|--4---9-x3---9-9---2-x3--2-2---0-x3--0-0--4-x4---------------------------|
Eb|--4---9------9-9---2-----2-2---0-----0-0--4------------------------------|

VERSE1: GUITAR1
eb|--2-x4-------------------------------------------------------------------|
Bb|---3-x4----5-x2------5-x2------------------------------------------------|
Gb|----4-x4----7-x2------6-x2-----------------------------------------------|
Db|-------------------------------------------------------------------------|
Ab|-------------------------------------------------------------------------|
Eb|-------------------------------------------------------------------------|

VERSE1: GUITAR2
eb|-------------------------------------------------------------------------|
Bb|-------------------------------------------------------------------------|
Gb|-------------------------------------------------------------------------|
Db|--9-----9-9---5-----5-5---4----------------------------------------------|
Ab|--9-x7--9-9---5-x3--5-5---4-x3-------------------------------------------|
Eb|--9-----9-9---5-----5-5---4----------------------------------------------|

VERSE1: GUITAR1
eb|--2-x2-------------------------------------------------------------------|
Bb|---3-x2-------5-x2----5-x2-------7-x4------------------------------------|
Gb|----4-x2-----4-x2------7-x2------7-x4------------------------------------|
Db|-------------------------------------------------------------------------|
Ab|-------------------------------------------------------------------------|
Eb|-------------------------------------------------------------------------|

VERSE1: GUITAR2
eb|--------------------------------------------------------------------------|
Bb|--------------------------------------------------------------------------|
Gb|--------------------------------------------------------------------------|
Db|--4---9------9-9---2-----2-2---0-----0-0--4-------------------------------|
Ab|--4---9-x3---9-9---2-x3--2-2---0-x3--0-0--4-x4----------------------------|
Eb|--4---9------9-9---2-----2-2---0-----0-0--4-------------------------------|

REFRAIN: GUITAR1
eb|---------------------------------------------------------------------------------|
Bb|------------12-------------------------------------------------------------------|
Gb|--9~-----------11----------------------------------------------------------------|
Db|--9~---9~------------5~---2-2--2-2--2-2--2-2--2-2--7-7--7-7--7-7--7-7--7-7--9~\--|
Ab|--7~---9~------------5~---2-2--2-2--2-2--2-2--2-2--7-7--7-7--7-7--7-7--7-7--9~\--|
Eb|-------9~------------5~---2-2--2-2--2-2--2-2--2-2--7-7--7-7--7-7--7-7--7-7--9~\--|

REFRAIN: GUITAR2
eb|--------------------------------------------------------------------------|
Bb|--------------------------------------------------------------------------|
Gb|--------------------------------------------------------------------------|
Db|--2~---9~---5~---2-2--2-2--2-2--2-2--2-2--7-7--7-7--7-7--7-7--7-7--9~\----|
Ab|--2~---9~---5~---2-2--2-2--2-2--2-2--2-2--7-7--7-7--7-7--7-7--7-7--9~\----|
Eb|--2~---9~---5~---2-2--2-2--2-2--2-2--2-2--7-7--7-7--7-7--7-7--7-7--9~\----|

REFRAIN: GUITAR 1&2
eb|--------------------------------------------------------------------------|
Bb|--------------------------------------------------------------------------|
Gb|--------------------------------------------------------------------------|
Db|-----9~\------------------------------------------------------------------|
Ab|-----9~\------------------------------------------------------------------|
Eb|-----9~\------------------------------------------------------------------|

CHORUS: GUITAR1
eb|--------------------------------------------------------------------------|
Bb|--------------------------------------------------------------------------|
Gb|----------11------9------7-x------11-------14-----------------------------|
Db|--5-x------x-x8---x-x8---x-x-x14---x-x8-----x-x8--------------------------|
Ab|--5-x-x14--9------7------5-x-------9-------12-----------------------------|
Eb|--5-x---------------------------------------------------------------------|

CHORUS: GUITAR2
eb|--------------------------------------------------------------------------|
Bb|--------------------------------------------------------------------------|
Gb|--------------------------------------------------------------------------|
Db|--5-x-------0------4------5-x-------9------7------------------------------|
Ab|--5-x-x14---0-x8---4-x8---5-x-x14---9-x8---7-x8---------------------------|
Eb|--5-x-------0------4------5-x-------9------7------------------------------|

CHORUS: GUITAR1
eb|--------------------------------------------------------------------------|
Bb|--------------------------------------------------------------------------|
Gb|--7------11------9------7------11------14-------7~------------------------|
Db|--x-x16---x-x8---x-x8---x-x16---x-x8----x-x8----x-------------------------|
Ab|--5-------9------7------5-------9------12-------5~------------------------|
Eb|--------------------------------------------------------------------------|

CHORUS: GUITAR2
eb|--------------------------------------------------------------------------|
Bb|--------------------------------------------------------------------------|
Gb|--------------------------------------------------------------------------|
Db|--5-------0------4------5-------9-------7-------5~------------------------|
Ab|--5-x16---0-x8---4-x8---5-x16---9-x8----7-x8----5~------------------------|
Eb|--5-------0------4------5-------9-------7-------5~------------------------|

VERSE2: GUITAR2 (SOLO)
eb|--------------------------------------------------------------------------|
Bb|--------------------------------------------------------------------------|
Gb|--------------------------------------------------------------------------|
Db|--9-----9-9---5-----5-5---4-----------------------------------------------|
Ab|--9-x7--9-9---5-x3--5-5---4-x3--------------------------------------------|
Eb|--9-----9-9---5-----5-5---4-----------------------------------------------|

VERSE2: GUITAR1
eb|--2-x2--------------------------------------------------------------------|
Bb|---3-x2-------5-x2----5-x2------------------------------------------------|
Gb|----4-x2-----4-x2------7-x2-----------------------------------------------|
Db|--------------------------------------------------------------------------|
Ab|--------------------------------------------------------------------------|
Eb|--------------------------------------------------------------------------|

VERSE2: GUITAR2
eb|--------------------------------------------------------------------------|
Bb|--------------------------------------------------------------------------|
Gb|--------------------------------------------------------------------------|
Db|--4---9------9-9---2-----2-2---0-----0-0--4-------------------------------|
Ab|--4---9-x3---9-9---2-x3--2-2---0-x3--0-0--4-x4----------------------------|
Eb|--4---9------9-9---2-----2-2---0-----0-0--4-------------------------------|

VERSE2: GUITAR1
eb|--2-x4--------------------------------------------------------------------|
Bb|---3-x4----5-x2------5-x2-------------------------------------------------|
Gb|----4-x4----7-x2------6-x2------------------------------------------------|
Db|--------------------------------------------------------------------------|
Ab|--------------------------------------------------------------------------|
Eb|--------------------------------------------------------------------------|

VERSE2: GUITAR2
eb|--------------------------------------------------------------------------|
Bb|--------------------------------------------------------------------------|
Gb|--------------------------------------------------------------------------|
Db|--9-----9-9---5-----5-5---4-----------------------------------------------|
Ab|--9-x7--9-9---5-x3--5-5---4-x3--------------------------------------------|
Eb|--9-----9-9---5-----5-5---4-----------------------------------------------|

VERSE2: GUITAR1
eb|--2-x2--------------------------------------------------------------------|
Bb|---3-x2-------5-x2-----5-x2-----7-x4--------------------------------------|
Gb|----4-x2-----4-x2-------7-x2----7-x4--------------------------------------|
Db|--------------------------------------------------------------------------|
Ab|--------------------------------------------------------------------------|
Eb|--------------------------------------------------------------------------|

VERSE2: GUITAR2
eb|--------------------------------------------------------------------------|
Bb|--------------------------------------------------------------------------|
Gb|--------------------------------------------------------------------------|
Db|--4---9------9-9---2-----2-2---0-----0-0--4-------------------------------|
Ab|--4---9-x3---9-9---2-x3--2-2---0-x3--0-0--4-x4----------------------------|
Eb|--4---9------9-9---2-----2-2---0-----0-0--4-------------------------------|

REFRAIN: GUITAR1
eb|---------------------------------------------------------------------------------|
Bb|------------12-------------------------------------------------------------------|
Gb|--9~-----------11----------------------------------------------------------------|
Db|--9~---9~------------5~---2-2--2-2--2-2--2-2--2-2--7-7--7-7--7-7--7-7--7-7--9~\--|
Ab|--7~---9~------------5~---2-2--2-2--2-2--2-2--2-2--7-7--7-7--7-7--7-7--7-7--9~\--|
Eb|-------9~------------5~---2-2--2-2--2-2--2-2--2-2--7-7--7-7--7-7--7-7--7-7--9~\--|

REFRAIN: GUITAR2
eb|--------------------------------------------------------------------------|
Bb|--------------------------------------------------------------------------|
Gb|--------------------------------------------------------------------------|
Db|--2~---9~---5~---2-2--2-2--2-2--2-2--2-2--7-7--7-7--7-7--7-7--7-7--9~\----|
Ab|--2~---9~---5~---2-2--2-2--2-2--2-2--2-2--7-7--7-7--7-7--7-7--7-7--9~\----|
Eb|--2~---9~---5~---2-2--2-2--2-2--2-2--2-2--7-7--7-7--7-7--7-7--7-7--9~\----|

REFRAIN: GUITAR 1&2
eb|--------------------------------------------------------------------------|
Bb|--------------------------------------------------------------------------|
Gb|--------------------------------------------------------------------------|
Db|-----9~\------------------------------------------------------------------|
Ab|-----9~\------------------------------------------------------------------|
Eb|-----9~\------------------------------------------------------------------|

CHORUS: GUITAR1
eb|--------------------------------------------------------------------------|
Bb|--------------------------------------------------------------------------|
Gb|----------11------9------7-x------11-------14-----------------------------|
Db|--5-x------x-x8---x-x8---x-x-x14---x-x8-----x-x8--------------------------|
Ab|--5-x-x14--9------7------5-x-------9-------12-----------------------------|
Eb|--5-x---------------------------------------------------------------------|

CHORUS: GUITAR2
eb|--------------------------------------------------------------------------|
Bb|--------------------------------------------------------------------------|
Gb|--------------------------------------------------------------------------|
Db|--5-x-------0------4------5-x-------9------7------------------------------|
Ab|--5-x-x14---0-x8---4-x8---5-x-x14---9-x8---7-x8---------------------------|
Eb|--5-x-------0------4------5-x-------9------7------------------------------|

CHORUS: GUITAR1
eb|--------------------------------------------------------------------------|
Bb|--------------------------------------------------------------------------|
Gb|--7------11------9------7------11------14---------------------------------|
Db|--x-x16---x-x8---x-x8---x-x16---x-x8----x-x8------------------------------|
Ab|--5-------9------7------5-------9------12---------------------------------|
Eb|--------------------------------------------------------------------------|

CHORUS: GUITAR2
eb|--------------------------------------------------------------------------|
Bb|--------------------------------------------------------------------------|
Gb|--------------------------------------------------------------------------|
Db|--5-------0------4------5-------9-------7---------------------------------|
Ab|--5-x16---0-x8---4-x8---5-x16---9-x8----7-x8------------------------------|
Eb|--5-------0------4------5-------9-------7---------------------------------|

CHORUS: GUITAR1
eb|--------------------------------------------------------------------------|
Bb|--------------------------------------------------------------------------|
Gb|--7------11------9------7------11------14---------------------------------|
Db|--x-x16---x-x8---x-x8---x-x16---x-x8----x-x8------------------------------|
Ab|--5-------9------7------5-------9------12---------------------------------|
Eb|--------------------------------------------------------------------------|

CHORUS: GUITAR2
eb|--------------------------------------------------------------------------|
Bb|--------------------------------------------------------------------------|
Gb|--------------------------------------------------------------------------|
Db|--5-------0------4------5-------9-------7---------------------------------|
Ab|--5-x16---0-x8---4-x8---5-x16---9-x8----7-x8------------------------------|
Eb|--5-------0------4------5-------9-------7---------------------------------|

INTRO: GUITAR1 x2
eb|-------------------------------9-9---------------------------------------|
Bb|---------------10--------------------------------------------------------|
Gb|--11^12-9---------------------9-9----------------------------------------|
Db|----------12-9----11-11-11-11--------------------------------------------|
Ab|-------------------------------------------------------------------------|
Db|-------------------------------------------------------------------------|

INTRO: GUITAR2 x2
eb|-------------------------------------------------------------------------|
Bb|-------------------------------------------------------------------------|
Gb|-------------------------------------------------------------------------|
Db|--9------7------0------2-2-2--2-h-4--------------------------------------|
Ab|--9-x6---7-x6---0-x6---2-2-2--2-h-4--------------------------------------|
Db|--9------7------0------2-2-2--2-h-4--------------------------------------|

BRIDGE: GUITAR1
eb|--------------------------------------------------------------------------|
Bb|----7~----------5~--------------------------------------------------------|
Gb|----7~---------7~------------------------------6~-------------------------|
Db|----------------------9~\-x-x-x--2-x-x-x--5~---x--------------------------|
Ab|----------------------9~\-x-x-x--2-x-x-x--5~---4~-------------------------|
Eb|----------------------9~\-x-x-x--2-x-x-x--5~------------------------------|

BRIDGE: GUITAR2
eb|--------------------------------------------------------------------------|
Bb|--------------------------------------------------------------------------|
Gb|--------------------------------------------------------------------------|
Db|---5~---7~---9~\-x-x-x--2-x-x-x--5~--7~-----------------------------------|
Ab|---5~---7~---9~\-x-x-x--2-x-x-x--5~--7~-----------------------------------|
Eb|---5~---7~---9~\-x-x-x--2-x-x-x--5~--7~-----------------------------------|

BRIDGE: GUITAR1
eb|--------------------------------------------------------------------------|
Bb|------------------------------------------------------15------------------|
Gb|--------------------------------6---------------------14-x16--------------|
Db|--9~\-x-x-x--2-x-x-x--5-x-x-x---x-x-x-x---5~--4~------12------------------|
Ab|--9~\-x-x-x--2-x-x-x--5-x-x-x---4-x-x-x---5~--4~--------------------------|
Eb|--9~\-x-x-x--2-x-x-x--5-x-x-x-----x-x-x---5~--4~--------------------------|

BRIDGE: GUITAR2
eb|--------------------------------------------------------------------------|
Bb|--------------------------------------------------------------------------|
Gb|--------------------------------------------------------------------------|
Db|--9~\-x-x-x--2-x-x-x--5-x-x-x---7-x-x-x--5~--4----------------------------|
Ab|--9~\-x-x-x--2-x-x-x--5-x-x-x---7-x-x-x--5~--4-x16------------------------|
Eb|--9~\-x-x-x--2-x-x-x--5-x-x-x---7-x-x-x--5~--4----------------------------|

CHORUS: GUITAR1
eb|--------------------------------------------------------------------------|
Bb|--------------------------------------------------------------------------|
Gb|-----11------9------7-x------11-------14----------------------------------|
Db|------x-x8---x-x8---x-x-x14---x-x8-----x-x8-------------------------------|
Ab|------9------7------5-x-------9-------12----------------------------------|
Eb|--------------------------------------------------------------------------|

CHORUS: GUITAR2
eb|--------------------------------------------------------------------------|
Bb|--------------------------------------------------------------------------|
Gb|--------------------------------------------------------------------------|
Db|------0------4------5-x-------9------7------------------------------------|
Ab|------0-x8---4-x8---5-x-x14---9-x8---7-x8---------------------------------|
Eb|------0------4------5-x-------9------7------------------------------------|

CHORUS: GUITAR1
eb|--------------------------------------------------------------------------|
Bb|--------------------------------------------------------------------------|
Gb|--7------11------9------7------11------14---------------------------------|
Db|--x-x16---x-x8---x-x8---x-x16---x-x8----x-x8------------------------------|
Ab|--5-------9------7------5-------9------12---------------------------------|
Eb|--------------------------------------------------------------------------|

CHORUS: GUITAR2
eb|--------------------------------------------------------------------------|
Bb|--------------------------------------------------------------------------|
Gb|--------------------------------------------------------------------------|
Db|--5-------0------4------5-------9-------7---------------------------------|
Ab|--5-x16---0-x8---4-x8---5-x16---9-x8----7-x8------------------------------|
Eb|--5-------0------4------5-------9-------7---------------------------------|

CHORUS: GUITAR1
eb|--------------------------------------------------------------------------|
Bb|--------------------------------------------------------------------------|
Gb|--7------11------9------7------11------14------7~----9~---11~-------------|
Db|--x-x16---x-x8---x-x8---x-x16---x-x8----x-x8---x-----x-----x--------------|
Ab|--5-------9------7------5-------9------12------5~----7~----9~-------------|
Eb|--------------------------------------------------------------------------|

CHORUS: GUITAR2
eb|--------------------------------------------------------------------------|
Bb|--------------------------------------------------------------------------|
Gb|--------------------------------------------------------------------------|
Db|--5-------0------4------5-------9-------7-------5-------------------------|
Ab|--5-x16---0-x8---4-x8---5-x16---9-x8----7-x8----5-x16---------------------|
Eb|--5-------0------4------5-------9-------7-------5-------------------------|

OUTRO: GUITAR1
eb|--------------------------------------------------------------------------|
Bb|--------------------------------------------------------------------------|
Gb|--------------------------------6-----------------------------------------|
Db|--9~\-x-x-x--2-x-x-x--5-x-x-x---x-x-x-x---9~\-----------------------------|
Ab|--9~\-x-x-x--2-x-x-x--5-x-x-x---4-x-x-x---9~\-----------------------------|
Eb|--9~\-x-x-x--2-x-x-x--5-x-x-x-----x-x-x---9~\-----------------------------|

OUTRO: GUITAR2
eb|--------------------------------------------------------------------------|
Bb|--------------------------------------------------------------------------|
Gb|--------------------------------------------------------------------------|
Db|--9~\-x-x-x--2-x-x-x--5-x-x-x--7-x-x-x---9~\------------------------------|
Ab|--9~\-x-x-x--2-x-x-x--5-x-x-x--7-x-x-x---9~\------------------------------|
Eb|--9~\-x-x-x--2-x-x-x--5-x-x-x--7-x-x-x---9~\------------------------------|



| /  slide up
| \  slide down
| h  hammer-on
| p  pull-off
| ~  vibrato
| +  harmonic
| x  Mute note
===============================================================================
comments
print report bad tab
2 comments total.
-1 reply
Nlmclain311 wrote on November 1 2010, 09:43 am

This tab is so far off dude. Not even close.

0 reply
Jon_09 wrote on August 22 2014, 05:42 am

Thank you so much for this wonderful tab. Its the most accurate tab I've found, the others use incorrect chords.. Not only is it like completely accurate but it seems to be the way Josh and Taylor play it.

Oh and um, disregard the comment above^^ Nlmclain311 must not be reading the tab right.

I want to post or [tab]
guest
You may want to rate the tab now too:
select rating
Please do not post tabs as comments. Select "correction" instead!