Oops, an error
Loading. Please wait.

Brand New Eyes Bass Tab

14,513 views 9 this week
3 commentsread comments
1 2 3 4 5
accurate
x 7
Autoscroll
+/-
esc
set tempo
stop
Contributor
Hey! There's an official Ultimate Guitar app which is ideal
for learning songs when you're away from computer. Get the app
WARNING: You are trying to view
                                    content from Ultimate-Guitar.com
                                    in an unauthorized application,
                                    which is prohibited.

                                    Please use an official Ultimate
                                    Guitar Tabs application for iPhone,
                                    iPad or Android to access legitimate
                                    chords, guitar, bass, and drum tabs
                                    from Ultimate-Guitar.com database.

                                    Type "ultimate guitar tabs" in Apple
                                    App Store's or Android Market's
                                    search to find the application.
All tabs were ear-transcribed by me, Valerie Louie.
Rating would be love and so would feedback, thanks!

Artist: Paramore
Album Title: Brand New Eyes 
Release Date: September 29th, 2009
Tabbed By: Valerie Louie
e-mail: queefist@yahoo.com

Track Listing

1. Careful
2. Ignorance
3. Playing God
4. Brick By Boring Brick
5. Turn It Off
6. The Only Exception
7. Feeling Sorry
8. Looking Up
9. Where The Lines Overlap
10. Misguided Ghosts
11. All I Wanted

1. CAREFUL
Tuning: C#

Intro
F#|-------------------------------|
C#|-------------------------------|
G#|--------000-2-2---------22-0---|
C#|44-444-4-------44-444-4-----2-2|x2

Verse "I settled down a twisted up frown"
whole thing x2
F#|------------------| |------------------|
C#|------------------| |------------------|
G#|-------------5/9~-| |------------------|
C#|4~----------------| |00000000-22222222-| 

pre-chorus "you make your way in"
F#|------------------------------------------------------------|
C#|------------------------------------------------------------|
G#|--------00000000--------------------------00000000----------|
C#|44444444--------22222222-00000000-44444444--------22222222-0|

chorus "you can't be too careful anymore"
F#|---------------------------------------------------------------------|
C#|---------------------------------------------------------------------|
G#|-----------------00000000-22222222------------------00000000---------|
C#|44444444-00000000-----------------44444444-000000000--------22222222-|

"more, moreeeeee, moreeeeee"
F#|---------4---------4---------------------4---------4--------------|
C#|----2h4p2-----2hp4------------------2h4p2-----2h4p2---------------|
G#|2-2-------2-2---------------0-0~-2-2-------2-2---------------4h5p4|
C#|--------------------4-4-4~---------------------------4-4-0000-----|

intro x1

verse "open your eyes like I opened mine"
F#|------------------| |------------------|
C#|------------------| |------------------|
G#|-------------5/9~-| |------------------|
C#|4~----------------| |00000000-22222222-| 

"shifting your weight to throw off the pain"
F#|6---------6-|     |------------------|
C#|--76-4h6h7--|     |------------------|
G#|------------|     |------------------|
C#|------------| x4  |00000000-22222222-|

pre-chorus "you can't tell me to heal"
F#|--------------------------------------------------------------|
C#|--------------------------------------------------------------|
G#|--------00000000-----------------------------00000000---------|
C#|44444444--------22222222-00000-0-0-0-44444444--------222222220|

chorus "you can't be too careful anymore"
F#|---------------------------------------------------------------------|
C#|---------------------------------------------------------------------|
G#|-----------------00000000-22222222------------------00000000---------|
C#|44444444-00000000-----------------44444444-000000000--------22222222-|

"more, moreeeeee, moreeeeee"
F#|---------4---------4---------------------4---------4----------|
C#|----2h4p2-----2hp4------------------2h4p2-----2h4p2-----------|
G#|2-2-------2-2---------------0-0~-2-2-------2-2----------------|
C#|--------------------4-4-4~---------------------------4-4-0000-|

breakdown
F#|-------------------------|    |---------------------|
C#|-------------------------|    |---------------------|
G#|2-2-2--------0-0-0-------|    |2-2------0-0-0-2-2-2-|
C#|------0--0-0--------2-2-2|x3  |---0-00-0------------|

"the truth never set me free, never set me free.."
F#|----------------------------------|
C#|----------------------------------|
G#|---------000222222-------2222-----|
C#|44444444----------4444444----22222|x2


chorus "you can't be too careful anymore"
F#|---------------------------------------------------------------------|
C#|---------------------------------------------------------------------|
G#|-----------------00000000-22222222------------------00000000---------|
C#|44444444-00000000-----------------44444444-000000000--------22222222-|x2

"more, moreeeeee, moreeeeee"
F#|-----------------------------|   |---------------------------------|
C#|-----------------------------|   |---------------------------------|
G#|2--2-2--2--2-2--------0--0-0-|   |2--2-2--2--2-2-------------4h5p4-|
C#|---------------4--4-4--------|   |---------------4--4-4-0000-------|

Outro
F#|------------------------------------|
C#|------------------------------------|
G#|---------000-2-2---------220--------|
C#|44-4-44-4--------44444444---2-2--4~-|

2. IGNORANCE
Tuning: Drop D

intro
G|--------------------------------------|
D|--------------------------------------|
A|--------------------------------------|
D|12\--12--12--12\--12-12---12\--12--12-|

G|-------------|
D|-------2h4---|
A|--5544-------|
D|-------------|

G|------------------------------------------------------------------|
D|---------------------------------------------------------------2h4|
A|22-22-2--------22-22-2---------------------------22-22-2-55-44----|
D|-------00-00-0--------00-00-0-55-55-5h7-44-44-4-------------------|


Verse bass comes in at "where's your gavel"
G|-----------------------------------------------------|
D|-----------------------------------------------------|
A|22-22--22-22--22-22--22-22---------------------------|
D|---------------------------22-22--22-22--55-55--44-44|

"Don't wanna hear your sad songs"
G|---------------------------------------------|---------------------------|
D|-----2h4p2------2h4p2------2h4p2------2h4p2--|---------------------------|
A|22-2------0-22-2-----0-22-2-----0-22-2-----0-|---------------------------|
D|---------------------------------------------|22-22--22-22--55-55--55-55-|x2

this part can also be played this way. whichever way is easier for you.
it's the same notes, just higher on the neck.
G|----------------------------------------------------|
D|----------------------------------------------------|
A|-----7h9p7-0------7h9p7-0------7h9p7-0-----7h9p7-0--|
D|99-9---------99-9---------99-9--------99-9----------|

G|---------------|
D|---------------|
A|---------------|
D|0-0---0-0--05--|

chorus "well you treat me just like another stranger"
G|-------------------------------------------------------------------|
D|----------------------------------------------------------------2h4|
A|-22-22-2---------22-22-2------------------------------------5544---|
D|---------00-00-0---------00-00-0-55555h7p544444444-55555555--------|

G|---------------------------------------------------------------------|
D|------------------------------------------------------------------2h4|
A|22222222---------22222222------------------------------------5544----|
D|--------00000000---------00000000-55555h7p544444444-55555555---------|

Verse "this is the best thing"
G|-----------------------------------------------------|
D|-----------------------------------------------------|
A|22-22--22-22--22-22--22-22---------------------------|
D|---------------------------22-22--22-22--55-55--44-44|x2

"Don't wanna hear your sad songs"
G|---------------------------------------------|---------------------------|
D|-----2h4p2------2h4p2------2h4p2------2h4p2--|---------------------------|
A|22-2------0-22-2-----0-22-2-----0-22-2-----0-|---------------------------|
D|---------------------------------------------|22-22--22-22--55-55--55-55-|x2

G|---------------|
D|---------------|
A|---------------|
D|0-0---0-0--05--|

chorus "well you treat me just like another stranger"
G|--------------------------------------------------------------------|
D|-----------------------------------------------------------------2h4|
A|-22-22-2---------22-22-2------------------------------------5544----|
D|---------00-00-0---------00-00-0-55555h7p544444444-55555555---------|

G|---------------------------------------------------------------------|
D|------------------------------------------------------------------2h4|
A|22222222---------22222222------------------------------------5544----|
D|--------00000000---------00000000-55555h7p544444444-55555555---------|

"ignorance is your new best friend..."
G|----------------------------------|
D|----------------------------------|
A|2--------------2------------------|
D|-----2----5--------2-----5-55-5-55|

guitar solo
G|-------------------------------------------------------------------|
D|-------------------------------------------------------------------|
A|2222222222222222---------00000000-2222222222222222--------00000000-|
D|----------------55555555--------------------------55555555---------|

G|----------|
D|----------|
A|----------|
D|2-2---22-5|

G|---------------|
D|---------------|
A|---------------|
D|0-0---0-0--05--|

outro chorus x2
G|---------------------------------------------------------------------|
D|------------------------------------------------------------------2h4|
A|22222222---------22222222------------------------------------5544----|
D|--------00000000---------00000000-55555h7p544444444-55555555---------|

3. PLAYING GOD
Tuning: Standard
Verse "can't make my own decisions.."
G|-------------------------------------------------------------------|
D|-------------------------------------------------------------------|
A|44-4-44-4-44-422-244-4-44-4-44-422----------------------------2/666|
E|----------------------------------400-0-00-0-00-022-4-00-0-00------|

"so you say that i've been changing"
G|-------------------------------------------------------------------|
D|-------------------------------------------------------------------|
A|44-4-44-4-44-422-244-4-44-4-44-422----------------------------466-6|
E|----------------------------------400-0-00-0-00-022-4-00-0-00------|

pre-chorus "whoa oh..."
G|----------------|
D|----------------|
A|00000000-22222--|
E|----------------|

chorus "you don't have to believe me"
G|------------------------------------------------------------------------------|
D|------------------------------------------------------------------------------|
A|------------------44-4-44-4-44-4-44-00-0-00-022-2-22-2---------00-0-00-0-00-02|
E|00-0-00-0-00-0-00-------------------------------------44-4-44-4---------------|

Verse "if god's the game you're playing"
G|-------------------------------------------------------------------|
D|-------------------------------------------------------------------|
A|44-4-44-4-44-422-244-4-44-4-44-422----------------------------2/666|
E|----------------------------------400-0-00-0-00-022-4-00-0-00------|

"it's just my humble opinion"
G|-------------------------------------------------------------------|
D|--------------2-1--------------------------------------------------|
A|44-4-44-4--44-----2--4-44-4-44-422----------------------------466-6|
E|---------4---------4--------------400-0-00-0-00-022-4-00-0-00------|

pre-chorus "whoa oh..."
G|----------------|
D|----------------|
A|00000000-22222--|
E|----------------|

chorus "you don't have to believe me"
G|------------------------------------------------------------------------------|
D|------------------------------------------------------------------------------|
A|------------------44-4-44-4-44-4-44-00-0-00-022-2-22-2---------00-0-00-0-00-02|
E|00-0-00-0-00-0-00-------------------------------------44-4-44-4---------------|

G|------------------------------------------------------------------------------------|
D|------------------------------------------------------------------------------------|
A|------------------44-4-44-4-44-4-44-00-0-00-022-2-22-2---------00-0-00-0-00-02222222|
E|00-0-00-0-00-0-00-------------------------------------44-4-44-4---------------------|

bridge right after chorus "i'll point you to the mirror.."
G|----------------------------------|
D|----------------------------------|
A|00000000-22222222-44444444--------|
E|--------------------------44444444|x3

G|--------------------------------------|
D|--------------------------------------|
A|00000000-22222222-44444444-66666666---|
E|------------------------------------0~|

chorus "I know you won't believe me.."
G|------------------------------------------------------|
D|------------------------------------------------------|
A|4444444444444444-00000000-22222222---------244-222222-|
E|----------------------------------444444444-----------|

outro "i know you won't believe me
G|------------------------------------------------------------------------------|
D|------------------------------------------------------------------------------|
A|------------------44-4-44-4-44-4-44-00-0-00-022-2-22-2---------00-0-00-0-00-02|
E|00-0-00-0-00-0-00-------------------------------------44-4-44-4---------------|

4. BRICK BY BORING BRICK
Tuning: standard

Intro
G|999-777-6---------------------------------------|
D|-----------7-44444444---------------------------|
A|----------------------44445555-00000000-77755540|
E|------------------------------------------------|

G|-----------------------------------|
D|--------------------------7777779--|
A|--------44445555-0000000-7-------7-|
E|22222222---------------------------|

verse "she lived in a fairy tale"
G|----------------------------------------------------------------------|
D|44444444-----------------------------------------------------7777779--|
A|--------44445555-00000000-77755540---------44445555-0000000-7--------7|
E|-----------------------------------22222222---------------------------|

"it's all about the exposure"
G|-----------------------------------------------------------------|
D|-----------------------------------------------------------------|
A|--------44445555-00000000-77755540--------44445555-00000000000000|
E|22222222--------------------------22222222-----------------------|

pre-chorus "keep your feet on the ground"
G|----------------------------------------------|
D|2-2~---2-2~--4-4~-0-0~--2-2~--2-2~--4-4~--6-6~|
A|----------------------------------------------|
E|----------------------------------------------|

chorus "Go get your shovel"
G|---------------------------------------------------------------------|
D|------------2444-----------------------------------------------------|
A|000000000000-----4444444444444444------------------------------------|
E|----------------------------------2222222222222222-000000000000000000|x2

intro again:
G|-------------------------------------------------------------------6-----|
D|44444444-----------------------------------------------------97979---9-7-|
A|---------44445555-00000000-77755540--------44445555-00000000-------------|
E|-----------------------------------22222222------------------------------|

verse "so one day he found her crying"
G|---------------------------------------------------------------------|
D|44444444-----------------------------------------------------7777779-|
A|--------44445555-00000000-77755540---------44445555-0000000-7-------7|
E|-----------------------------------22222222--------------------------|

"but it was a trick"
G|-----------------------------------------------------------------|
D|-----------------------------------------------------------------|
A|--------44445555-00000000-77755540--------44445555-00000000000000|
E|22222222--------------------------22222222-----------------------|

pre-chorus "keep your feet on the ground"
G|----------------------------------------------|
D|2-2~---2-2~--4-4~-0-0~--2-2~--2-2~--4-4~--6-6~|
A|----------------------------------------------|
E|----------------------------------------------|

chorus "Go get your shovel"
G|-------------------------------------------------------------------|
D|------------2444-----------------------------------------------2222|
A|000000000000-----4444444444444444----------------------------------|
E|----------------------------------2222222222222222-000000000000----|

G|---------------------------------------------------------------------|
D|------------2444-----------------------------------------------------|
A|000000000000-----4444444444444444------------------------------------|
E|----------------------------------2222222222222222-000000000000000000|

"castle, whoa whoa oh..."
G|------------------------------------------------------------------------|
D|--------------------------------------2---2------2---2---222222222222222|
A|222222222222222222-5555555555555555-00-00--00-00---00--00---------------|
E|------------------------------------------------------------------------|

G|---------------------------------------------------------------------|
D|----------------------------------------------------22222222222222222|
A|22222222222-2-2-2-5555555555555555-00000000000-0-0-0-----------------|
E|---------------------------------------------------------------------|

"if it's not real you can't hold it.."
G|------------------------------------------------------------------|
D|------------------------------------------------------------------|
A|0000000000000002-444444444444444----------------------------------|
E|--------------------------------2222222222222222-0000000000000000-|

G|----------------------------------------------------|
D|----------------------------------------------------|
A|0000000000000002-444444444444444--------------------|
E|--------------------------------2222222222222222-0~-|

chorus "Go get your shovel"
G|-------------------------------------------------------------------|
D|------------2444-----------------------------------------------2222|
A|000000000000-----4444444444444444----------------------------------|
E|----------------------------------2222222222222222-000000000000----|x2

outro
G|-----------------------------------------------------------------|
D|44444444---------------------------------------------------------|
A|---------44445555-0000000000000000----------44445555-00000000000-|
E|-----------------------------------22222222----------------------|

5. TURN IT OFF
Tuning: Drop D

Intro
G|---------------------------------------------|
D|---------------------------------------------|
A|0-00-0-2-3-33-3-3------0-00-0-2-3-33-3-3-----|
D|-----------------3-33--------------------0-00|x2

Verse "I scraped my knees while i was praying"
G|-------------------------------|
D|------------3p2-0~-------------|
A|0~---2-3~-----------0~---------|
D|------------------------3~---5~|x4

pre-chorus "turn it off in all my spite i'll turn it off.."
G|-------------------------------|
D|-----------3p2-0~--------------|
A|0~---2-3~----------0~----------|
D|----------------------33333-333|

chorus "and the worst part is"
G|----------------------------------|
D|---------5555555555---------------|
A|33333333-----------00000000-------|
D|---------------------------3335555|

intro x1

verse "tragedy it seems unending"
G|-------------------------------|
D|------------3p2-0~-------------|
A|0~---2-3~-----------0~---------|
D|------------------------3~---5~|x4

pre-chorus "towards a goal that's non existent"
G|-----------------------|
D|-----------3p2-0~------|
A|0~---2-3~----------0~--|
D|----------------------3|

chorus x2
intro x2

bridge "i wanna know what it feels like"
G|--------------------------------------------------------|
D|----------3p2-0~------3------------------3p2-0~-------3~|
A|0~--2-3~---------0~------------0~--2-3~----------0~-----|
D|-------------------------32235--------------------------|

"just turn it off...."
G|-----------------------------------|
D|-----------------------------------|
A|00000000-33333333------------------|
D|------------------33333333-55555555| x2

chorus x4

6. THE ONLY EXCEPTION
Tuning: standard

bass doesn't come in until 1:27
from here he basically plays a descending E Major scale 
then it goes back and forth very slowly

G|9-8-6------------------------------|
D|------9~--9~-9-7-6---------------9~|
A|--------------------9~---7~--9~----|
E|-----------------------------------|

verse "and we've got to find other ways to make it alone."
G|----------------------|  
D|9~--9-7-6-------------| 
A|----------9~---7~---9-| 
E|----------------------| 

G|------------------------------|
D|9~---9~--9-7-6------6~--------|
A|---------------9~-------7~--7-|
E|------------------------------|x2

pre-chorus "cause none of it was ever worth the risk"
G|-------------|
D|-------------|
A|-------------|
E|0-0-0-0-0-0--|

chorus "you are the only exception" 
quarter notes
G|------------------------------------|
D|------4~------------------------2-1-|
A|2-2-2----2-2-2-2~------------------4|
E|------------------2-2-2-2~-0-0-0----|

G|------------------------------------|
D|----4~------------------------------|
A|2~-------2-2-2-2~-------------------|
E|------------------2-2-2-2~-0-0-0-0~-|

G|----------------------------------------|
D|----------------------------------------|
A|4-4-4-4~-4-4-4-4~--2-2-2-2~------1/9-9-9|
E|-----------------------------2-2--------|

G|------------------------------------|
D|----------6-4-6---------------------|
A|4-4-4-4~--------4-4-4-2-2-2-2-------|
E|-----------------------------2-2-2-2|

"i've got a tight grip of reality"
G|----------------------------------------|
D|----------------------------------------|
A|4-4-4-4~-4-4-4-4~--2-2-2-2~------1/9-9-9|
E|-----------------------------2-2--------|

G|--------------------------------------|
D|----------6-4-6-----------------------|
A|4-4-4-4~--------4-4-4-2-2-2-2~--------|
E|-------------------------------2-2-2-2|

G|---------------|
D|---------------|
A|----------1/7~-|
E|0-0-0-0-0------|

outro chorus "you are the only exception.."
G|---------------------------------|
D|----4~-----------------------2-1-|
A|2~-------2~---4-2---------------4|
E|-------------------2~--2--0~-----|

G|------------------------------------------------|
D|-------4~---------------------------------------|
A|2~---2-----------------------------------0~---7~|
E|----------2~---2~--0~---5~---5~--0~--0~---------|

7. FEELING SORRY
Tuning: standard

Intro
G|------------------------------------------------|
D|------------------------------------------------|
A|------------------------44-4-44-4-4-44-4-4-2-2-2|
E|00-0-00-0-0-00-0-00-0-0-------------------------|x2

Verse "We still live in the same town"
G|-----------------------------------------------|
D|--------------------------------------6-----4--|
A|------------------------44-4-44-4-4-4---4-2---2|
E|00-0-00-0-0-00-0-02-2-2------------------------|

"I go to all the same places"
G|---------------------------------------------|
D|---------------------------------------------|
A|-----------------------44-4-44-4-4-44-4-4-222|
E|00-0-00-0-0-00-0-02-2-2----------------------|

pre-chorus "and i'm getting bored"
G|------------------------------------------------------|
D|--------------------666666----------------------------|
A|000000-222222-444444-------000000-222222-444444-666666|
E|------------------------------------------------------|

chorus "i feel no sympathy"
G|----------------------------------------------|
D|----------------------------------------------|
A|-----------------------------------444-4------|
E|00-0-05-5-5-00-0-07-7-7-00-0-05-5-5------7-7-7|

"you barely get by and the rest of us are trying"
G|-------------------------------------------|
D|-------------6-----------------------------|
A|--7----------------------7--------44-4-4-2-|
E|0--0-5-5-5-0---0-7-7-7-0--0-5-5-5----------|

Intro x2

verse "But i try not to think about.."
G|-------------------------------------------|
D|-------------------------------------------|
A|-----------------------44-4-44-4-4-44-4-4-2|
E|00-0-00-0-0-00-0-02-2-2--------------------|

"well as for me I got out"
G|-----------------------------------------------|
D|-----------------------------------------------|
A|-----------------------44-4-44-4-4-44-4-4-2-2-2|
E|00-0-00-0-0-00-0-02-2-2------------------------|

pre-chorus x1

chorus "i feel no sympathy"
G|----------------------------------------------|
D|----------------------------------------------|
A|-----------------------------------444-4------|
E|00-0-05-5-5-00-0-07-7-7-00-0-05-5-5------7-7-7|

"you barely get by and the rest of us are trying"
G|-------------------------------------------|
D|-------------6-----------------------------|
A|--7----------------------7--------44-4-4-2-|
E|0--0-5-5-5-0---0-7-7-7-0--0-5-5-5----------|

breakdown "and all the best lies"
G|------------------------------------------------|
D|------------------------------------------------|
A|--------------4-6-7---------------------4-6-7---|
E|555555-777777------777777-555555-777777-------7-|

"won't you promise me tonight"
G|--------------------------------|
D|-------------------999999999999-|
A|--------------------------------|
E|555555555555-777777-------------|

G|-------------------------------------------|
D|-------------6-----------------------------|
A|--7----------------------7--------444444-2-|
E|0--0-5-5-5-0---0-7-7-7-0--0-5-5-5----------|

chorus "i feel no sympathy"
G|----------------------------------------------|
D|----------------------------------------------|
A|-----------------------------------444-4------|
E|00-0-05-5-5-00-0-07-7-7-00-0-05-5-5------7-7-7|

"you barely get by and the rest of us are trying"
G|----------------------------------------|
D|-------------6--------------------------|
A|--7----------------------7--------4-4-2-|
E|0--0-5-5-5-0---0-7-7-7-0--0-5-5-5-------|

intro x2

8. LOOKING UP
Tuning: standard
 
Intro
G|---------------|   |-------------|
D|---------------|   |-------------|
A|---------------|   |------66-666-|
E|005/12-9-99-999|x3 |5-7-9--------|

verse "Things are looking up"
G|---------------------------|
D|---------------------------|
A|---------------------------|
E|0000-0-0000-0-9999-9-7777-7|

G|-------------------------------------------------------|
D|-------------------------------------------------------|
A|----------------------------7777-7\--------------------|
E|0000-0-0000-0-9999-9-7777-7--------0000-0-9999-9-7777-7|

pre-chorus "i'm always wrong but you're never right"
G|--------------------------------------|
D|--------------------------------------|
A|-------------------------------7777---|
E|0000-0-0000-0-9999-9-7777-7-0-0----0-0|

chorus "honestly can you believe..."
G|-------------------------------------------------------------------------|
D|-------------------------------------------------------------------------|
A|-------------------------------------------------------------------------|
E|55555555-00000000-99999999-77777h9p7-55555555-000000000-7777777777777h9p7|

"it's not a dream anymore.."
G|-------------------------------|--------------------------|
D|-------------------------------|--------------------------|
A|-------------------------------|--------------------------|
E|5555-55-5555-55-9999-99-7777-77|5555-55-5555-55-9999-99-7-|

intro
G|---------------|   |--------|
D|---------------|   |--------|
A|---------------|   |------6~|
E|005/12-9-99-999|x3 |5-7-9---|

verse "Could've given up easily"
G|--------------------------|
D|--------------------------|
A|777---7\------------------|
E|--------0000-9999-9-7777-7|

"i was a few cheap shots away"
G|-------------------------------------------------------|
D|-------------------------------------------------------|
A|----------------------------7777-7\--------------------|
E|0000-0-0000-0-9999-9-7777-7--------0000-0-9999-9-7777-7|

pre-chorus "that i would've died for yesterday"
G|----------------------------------|
D|----------------------------------|
A|----------------------------------|
E|0000-0-0000-0-9999-9-7777-7-0-0-0-|

chorus "honestly can you believe..."
G|-------------------------------------------------------------------------|
D|-------------------------------------------------------------------------|
A|-------------------------------------------------------------------------|
E|55555555-00000000-99999999-77777h9p7-55555555-000000000-7777777777777h9p7|

"it's not a dream anymore.."
G|-------------------------------|-------------------------------------|
D|-------------------------------|-------------------------------------|
A|-------------------------------|-------------------------------------|
E|5555-55-5555-55-9999-99-7777-77|5555-55-5555-55-9999-99-77h9p7-7-7777|

bridge "I can't believe we almost..."
G|-------------------------------------------|
D|-------------------------------------------|
A|-----------------------------------22222222|
E|00---00---44---55---222222222222222--------|

chorus "honestly can you believe?"
G|------------------------------------------------------------------------|
D|------------------------------------------------------------------------|
A|----------------------------------------------777777777-----------------|
E|55555555-00000000-99999999-77777h9p7-55555555----------7777777777777h9p7|

"it's not a dream anymore.."
G|-------------------------------|    |-----|
D|-------------------------------|    |-----|
A|-------------------------------|    |-----|
E|5555-55-5555-55-9999-99-7777-77|x3  |0~---|

outro "i can't believe we almost"
G|-------------------|
D|-------------------|
A|-------------------|
E|00---00---44---55--| x3

G|---------------------------|
D|---------------------------|
A|---------------------------|
E|00---00---44--55-5h7p5--0~-|

9. WHERE THE LINES OVERLAP
Tuning: standard 

bass doesn't come in til
"tracing patterns across a personal map" 
G|-----------------------------------------------|
D|-----------------------------------------------|
A|-------------------------------44444444447774--|
E|00000000000-5-5-00000000000-5-5--------------4-|

pre-chorus "where the lines overlap" 
G|-------------------| 
D|-------------------|
A|44444444444-2222-0-|
E|-------------------| 

chorus "no one is as lucky as us" 
G|---------------------------------------------------------------|
D|---------------------------------------------------------------|
A|---------------------------44444444----------------------------|
E|0(x16)-5(x16)-0(x16)-5(x16)---------55555555-00000000-22222222-|

"no one is as lucky as us.."
G|-----------------------------------|
D|-----------------------------------|
A|44444444---------------------------|
E|--------55555555-00000000-22222222-|

Verse "Call me over and tell me how" 

G|----------------------------------------------------------------|
D|----------------------------------------------------------------|
A|-------------------------------44444444447774--4444444444-2--2-2|
E|00000000000-5-5-00000000000-5-5--------------4------------------|

"Not used to it but I can learn" 

G|-----------------------------------------------|
D|-----------------------------------------------|
A|-------------------------------44444444447774--|
E|00000000000-5-5-00000000000-5-5--------------4-|

pre-chorus "where the lines overlap" 
G|--------------------------|
D|--------------------------|
A|4444444444-2222--00--00-2-|
E|--------------------------|

chorus "no one is as lucky as us" 
G|---------------------------------------------------------------|
D|---------------------------------------------------------------|
A|---------------------------44444444----------------------------|
E|0(x16)-5(x16)-0(x16)-5(x16)---------55555555-00000000-22222222-|

"no one is as lucky as us.."
G|-----------------------------------|
D|-----------------------------------|
A|44444444---------------------------|
E|--------55555555-00000000-22222222-|

bass comes in at the second
"i've got a feeling..."
G|-----------------------------------|
D|-----------------------------------|
A|44444444-66666666------------------|
E|-----------------00000000-55555555-|

G|----------------------------| 
D|----------------------------| 
A|44444444-66666666-----------| 
E|-------------------0-0---12\| 

chorus "no one is as lucky as us" 
G|---------------------------------------------------------------|
D|---------------------------------------------------------------|
A|---------------------------44444444----------------------------|
E|0(x16)-5(x16)-0(x16)-5(x16)---------55555555-00000000-22222222-|

"no one is as lucky as us.."
G|-----------------------------------|
D|-----------------------------------|
A|44444444------------------22222222-|
E|--------55555555-00000000----------|

outro chorus 
G|----------------------------------|    |-----|
D|----------------------------------|    |-----|
A|----------------------------------|    |-----|
E|0000000000000000-5555555555555555-|x4  |-0~--|

10. MISGUIDED GHOSTS
Tuning: standard

bass comes in at 1:41, quarter notes
pre-chorus "run to them, to them..."
G|--------------------------------------------|
D|------------10-10-10-10---------------------|
A|12-12-12-12-------------8-8-8-8-10-10-10-10-|
E|--------------------------------------------|

"no you are not useless"
G|------------------------------------|
D|------------------------------------|
A|12-12-12-12-7-7-7-7-8-8-8-8-10-10-10|
E|------------------------------------|

chorus "we're just misguided ghosts, traveling endlessly"
G|---------------------------------------------|
D|------9-10-10-10-10-10-10--------------------|
A|12-10---------------------12-10-7-8-8-8-8-8-8|
E|---------------------------------------------|x2

"and there's no one road.."
G|-----------------------------------|
D|-----------------------------------|
A|----2-3-3-3-3-3-3------------------|
E|5-3--------------5-3-0-1-1-1-1-1-1-|

"but i'm just a ghost"
G|--------------------------|
D|--------------------------|
A|----2-3-3-3-3-3-3----2-3-5|
E|5-3--------------5-3------| continued below

"we go in circles..."
G|-----------------------------------------------------------|
D|-----------------------------------------------------------|
A|-----------------------------------------------------------|
E|1-1-1-1-1-1-3-3-3-3-0-0-0-0-1-1-1-1-1-1-1-1-3-3-3-3-0-0-0-0|

11. ALL I WANTED
Tuning: Drop D

bass comes in at (0:53)
G|-----------------------------|
D|-----------------------------|
A|----------------2--2-22-44444|
D|0--0-00-4--4-44--------------|

verse "i think i'll pace my apartment"
G|--------------------|  |------------------------|
D|--------------------|  |------------------------|
A|------------2~---4~-|  |--------------2~---4-0~-|
D|0---7--4~-----------|  |0~----7--4~-------------|

"and wake up early"
G|--------------------|  |----------------------|
D|--------------------|  |----------------------|
A|------------2~---4~-|  |--------------2~---4\1|
D|0---7--4~-----------|  |0~----7--4~-----------|

chorus "all i wanted was you"
G|------------------------------| |------------------------|
D|------------------------------| |------------------------|
A|---------------2222-2-44444444| |--------------2222-2-0~-|
D|0--0-00--44444----------------| |0--0-00--44444----------|

G|------------------------------| |-------------------------------|
D|------------------------------| |-------------------------------|
A|---------------2222-2-44444444| |--------------22222222-44444444|
D|0--0-00--44444----------------| |0--0-00--44444-----------------|

pre-verse
G|----------------------------------|
D|----------------------------------|
A|-----------------22222222-44444444|
D|00000000-44444444-----------------|x2

verse "i could follow you to the beginning"
G|------------------------------------|
D|------------------------------------| 
A|------------------22222222-44444444-| 
D|0000-7777-44444444------------------| 

"just to relive at the start"
G|------------------------------------|
D|------------------------------------|
A|------------------22222222-4444-2222|
D|0000-7777-44444444------------------|

"maybe then we'd remember to slow down"
G|------------------------------------|
D|------------------------------------| 
A|------------------22222222-44444444-| 
D|0000-7777-44444444------------------| x2

chorus "all i wanted was you.."
G|------------------------------| |-----------------------|
D|------------------------------| |-----------------------|
A|0~----------------2-222-444444| |------------22222-0-000|
D|----0-0-00--4-444-------------| |12\-0~-44444-----------|

G|------------------------------|    |------|
D|------------------------------|    |------|
A|---------------22222-44444444-|    |------|
D|12\-0~--444444----------------|x2  |-0~---|
comments
print report bad tab
3 comments total.
0 reply
MusicaBarrage wrote on October 30 2009, 12:34 am

Great job. I've only used 2 of the tabs (Brick by Boring Brick and Feeling Sorry), but they both sound perfect.

0 reply
AlexD97 wrote on June 21 2010, 12:48 pm

Hello.

They're very good! Could you possible tab BNE Tour Intro?

0 reply
AlexD97 wrote on June 21 2010, 12:49 pm

Oh, and by the way, in Careful, when she sings the truth never set me free, you only once.

I want to post or [tab]
guest
You may want to rate the tab now too:
select rating
Please do not post tabs as comments. Select "correction" instead!