Oops, an error
Loading. Please wait.

Brand New Eyes Tab

ver1
ver1

Intro

Album

More versions @911Tabs.com
85,665 views 58 this week
no commentswrite comment
1 2 3 4 5
excellent!
x 15
Autoscroll
+/-
esc
set tempo
stop
Contributor
Tabbers playing skills
advanced +
Hey! There's an official Ultimate Guitar app which is ideal
for learning songs when you're away from computer. Get the app
WARNING: You are trying to view
                                    content from Ultimate-Guitar.com
                                    in an unauthorized application,
                                    which is prohibited.

                                    Please use an official Ultimate
                                    Guitar Tabs application for iPhone,
                                    iPad or Android to access legitimate
                                    chords, guitar, bass, and drum tabs
                                    from Ultimate-Guitar.com database.

                                    Type "ultimate guitar tabs" in Apple
                                    App Store's or Android Market's
                                    search to find the application.
PLS LIKE OUR BAND FAN PAGE @ FACEBOOK - https://www.facebook.com/SinceAstrid

PARAMORE -  BRAND NEW EYES ALBUM (deluxe editon)


1.Careful: Drop C#

2.Ignorance:Standard/Drop D

3.Playing God:Standard

4.Brick By Boring Brick:Standard

5.Turn It Off:Drop D

6.The Only Execption:Standard

7.Feeling Sorry:Standard

8.Looking Up:Standard

9.Where The Lines Overlap:Standard

10.Misguided Ghosts: Standard

11.All I Wanted:Drop C#

12. Decode - Drop C#

13.Ignorance acoustic(deluxe)-Standard

14.Turn it off acoustic - Standard

15.Where the lines overlap (acoustic)-Standard
                                     1.CAREFUL

Tuning - Drop C #
Intro--
Riff 1
GtrI                                                                   Verse
|-----------------------------------|----=----------------------------------|
|-----------------------------------|---------------------------------------|
|-----------------------------------|---------------------------------------|
|-44-4-444-4-777-99~-44-4-444-4-222-|-44-4-444-4-777-99~-44-4-444-4-222--4~-|
|-44-4-444-4-777-99~-44-4-444-4-222-|-44-4-444-4-777-99~-44-4-444-4-222--4~-|
|-44-4-444-4-777-99~-44-4-444-4-222-|-44-4-444-4-777-99~-44-4-444-4-222--4~-|

GtrII
|--------------------------------17----------------------------------|  ----|
|-9h10-9h10--9-------14h15p14-17-------9h10-9h10--9--------12-10-9---|  10~-|
|--------------11-9---------------------------------11-9-------------|2x----|
|--------------------------------------------------------------------|  ----|
|--------------------------------------------------------------------|  ----|
|--------------------------------------------------------------------|  ----|

Verse
Riff 2
GtrI
|-------------------------------------------------------------------|
|-------------------------------------------------------------------|
|-------------------------------------------------------------------|
|-00000000-22222222--4~----------------------00000000-22222222------|
|-00000000-22222222--4~----------------------00000000-22222222------|
|-00000000-22222222--4~----------------------00000000-22222222------|

GtrII
|------12----12-----12------9~--|------12-----12----12-----------|
|---10-----10----------2x---10~-|----10-----10--------2x---------|
|-11-----11----11-----------12~-|--11-----11----11---------------|
|-------------------------------|--------------------------------|
|-------------------------------|--------------------------------|
|-------------------------------|--------------------------------|

Riff 3
GtrI
|-------------------------------------------------------------------|
|-------------------------------------------------------------------|
|-------------------------------------------------------------------|
|-----------------------------------------------------------------0-|
|-44444444-77777777-22222222-00000000--44444444-77777777-22222222-0-|
|-44444444-77777777-22222222-00000000--44444444-77777777-22222222-0-|
  ******** ******** ******** ********  ******** ******** ********
GtrII palm mute
|-----------------------------------------------------------------------------|
|-----------------------------------------------------------------------------|
|-----------------------------------------------------------------------------|
|-11---11---11---11---11---11---11---11---9---9---9---9---11---11---11---11---|
|---12---12---12---12---11---11---11---11--11--11--11--11---12---12---12---12-|
|-----------------------------------------------------------------------------|

|------------------------------------------------------------|
|------------------------------------------------------------|
|------------------------------------------------------------|
|-11---11---11---11---11---11---11---11---9---9---9---9---7--|
|---12---12---12---12---11---11---11---11--11--11--11--11--9-|
|------------------------------------------------------------|


Riff 4
GtrI
|------------------------------------------------------------------------|
|------------------------------------------------------------------------|
|------------------------------------------------------------------------|
|-44444444-00000000-77777777-99999999-44444444-0000000-77777777-99999999-|
|-44444444-00000000-77777777-99999999-44444444-0000000-77777777-99999999-|
|-44444444-00000000-77777777-99999999-44444444-0000000-77777777-99999999-|

GtrII

|------------------------------------------------------------------------|
|------------------------------------------------------------------------|
|-11-11-11----------9999999999----11-11-11-------------------------------|
|----------11-11-11-------------------------11-11-11---9999999999--------|2x
|------------------------------------------------------------------------|
|------------------------------------------------------------------------|

Riff 5
GtrI
|----------------------------------------------------------------------|
|----------------------------------------------------------------------|
|---------------------------------------------------------------6/7\6--|
|-9~----9~----4~-------7~-----------9~----9~--------4~----2222---------|
|-9~----9~----4~-------7~-----------9~----9~--------4~----2222--4/5\4--|
|-9~----9~----4~-------7~-----------9~----9~--------4~----2222---------|

GtrII

|--------9~-----------------------------------9~-----------------------|
|-----7--------7----10~--12~--10~----------7--------7---10~---12~------|
|-7h9------7h9--------11---11-----11/--7h9------7h9-------11-----6/7\6-|
|----------------------------------------------------------------------|
|----------------------------------------------------------------4/5\4-|
|----------------------------------------------------------------------|


 Riff 1.5
GtrI
|---------------------------------------|
|---------------------------------------|
|---------------------------------------|
|-44-4-444-4-777-99~-44-4-444-4-222--4~-|
|-44-4-444-4-777-99~-44-4-444-4-222--4~-|
|-44-4-444-4-777-99~-44-4-444-4-222--4~-|
GtrII
|--------------------------------17----------------------------------|  ----|
|-9h10-9h10--9-------14h15p14-17-------9h10-9h10--9--------12-10-9---|  10~-|
|--------------11-9---------------------------------11-9-------------|  ----|
|--------------------------------------------------------------------|  ----|
|--------------------------------------------------------------------|  ----|
|--------------------------------------------------------------------|  ----|

Repeat Riff 2

Riff 3GtrI
|-------------------------------------------------------------------|
|-------------------------------------------------------------------|
|-------------------------------------------------------------------|
|---------------------------------000-----------------------------0-|
|-44444444-77777777-22222222-00000000--44444444-77777777-22222222-0-|
|-44444444-77777777-22222222-00000000--44444444-77777777-22222222-0-|
  ******** ******** ******** *****     ******** ******** ********
GtrII
GtrII palm mute
|-----------------------------------------------------------------------------|
|-----------------------------------------------------------------------------|
|-----------------------------------------------------------------------------|
|-11---11---11---11---11---11---11---11---9---9---9---9---11---11---11---11---|
|---12---12---12---12---11---11---11---11--11--11--11--11---12---12---12---12-|
|-----------------------------------------------------------------------------|

|------------------------------------------------------------|
|------------------------------------------------------------|
|------------------------------------------------------------|
|-11---11---11---11---11---11---11---11---9---9---9---9---7--|
|---12---12---12---12---11---11---11---11--11--11--11--11--9-|
|------------------------------------------------------------|

Repeat Riff 4 & 5

Riff 6
GtrI
|-----------------------------------------------------------------------------|
|-----------------------------------------------------------------------------|
|-----------------------------------------------------------------------------|
|-9~-9~-9~-0~-0~-0~-7~-7~-7~-2~-2~-2~----9~-9~-9~-0~-0~-0~-7~-7~-7~-2~-2~-2~--|
|-9~-9~-9~-0~-0~-0~-7~-7~-7~-2~-2~-2~----9~-9~-9~-0~-0~-0~-7~-7~-7~-2~-2~-2~--|
|-9~-9~-9~-0~-0~-0~-7~-7~-7~-2~-2~-2~----9~-9~-9~-0~-0~-0~-7~-7~-7~-2~-2~-2~--|
GtrII
|----------------------------17~--16~------------------------------17~--16~---|
|-9~-10~------------14~-17~--------------9~-10~------------14~-17~------------|
|----------11~--9~--------------------------------11~--9~---------------------|
|-----------------------------------------------------------------------------|
|-----------------------------------------------------------------------------|
|-----------------------------------------------------------------------------|

Riff 7
GtrI
|-------------------------------------------------------------------|
|-------------------------------------------------------------------|
|-------------------------------------------------------------------|
|-9-9------0-0-------7-7--------2-2------9-9----0-0-0----7-7----22--|
|-9-9------0-0-------7-7--------2-2------9-9----0-0-0----7-7----22--|
|-9-9------0-0-------7-7--------2-2------9-9----0-0-0----7-7----22--|
GtrII

|---------------------------------------------------------------------|
|---------------------------------------------------------------------|
|-1111-----1414--14/-6-6---/--13/-4-----1111--141414--14/-6-6-/-13/-4-|
|---------------------------------------------------------------------|
|-9-9------1212--12/-4-4---/--11/-2-----9-9---121212--12/-4-4-/-11/-2-|
|---------------------------------------------------------------------|

Riff 8
GtrI
|-----------------------------------------------------------------------------------|
|-----------------------------------------------------------------------------------|
|-----------------------------------------------------------------------------------|
|-----------------------------------------------------------------------------------|
|-44444444-777-999999-44444444-222222222--44444444-777-999999-44444444-22222222-----|
|-44444444-777-999999-44444444-222222222--44444444-777-999999-44444444-22222222-----|
  ******** *** ****** ******** *********  ******** *** ****** ******** ********
GtrII
|-----------------------------------------------------------------------------------|
|-----------------------------------------------------------------------------------|
|-----------------------------------------------------------------------------------|
|-11111111-11-12-1414141414141414141414---11111111-11-12-1414-----------------------|
|------------------------------------------------------------121212--111111111111---|
|-----------------------------------------------------------------------------------|
  * * * *  *  *  * * * * * * * * * * *    * * * *  *  *  * * * * *   * * * * * *
|-----------------------------------------------------------------------------------|
|-----------------------------------------------------------------------------------|
|-----------------------------------------------------------------------------------|
|-11111111-11-12-1414141414141414141414---11111111-11-12-1414-----------------------|
|------------------------------------------------------------121212--1111-111111----|
|-----------------------------------------------------------------------------------|
  * * * *  *  *  * * * * * * * * * * *    * * * *  *  *  * * * * *   * *
Riff 9
GtrI
|-2------------0--------------2--------------0----------------------|
|-2------------2--------------2--------------0----------------------|
|-2------------2--------------2--------------1----------------------|
|-4------------2--------------4--------------2----------------------|
|-4------------0--------------4--------------2----------------------|
|-------------------------------------------------------------------|
GtrI

|-------------------------------------------------------------------|
|-------------------------------------------------------------------|
|-------------------------------------------------------------------|
|-4~----------2~--------------4~------------------------------------|
|-------4~----------------------------4~------2~--------------------|
|-------------------------------------------------------------------|
Riff 4 & 5 & Main riff
GtrI
|---------------------------------------|
|---------------------------------------|
|---------------------------------------|
|-44-4-444-4-777-99~-44-4-444-4-222--4~-|
|-44-4-444-4-777-99~-44-4-444-4-222--4~-|
|-44-4-444-4-777-99~-44-4-444-4-222--4~-|
GtrII
|--------------------------------17----------------------------------|  ----|
|-9h10-9h10--9-------14h15p14-17-------9h10-9h10--9--------12-10-9---|  ----|
|--------------11-9---------------------------------11-9-------------|  -6~-|
|--------------------------------------------------------------------|  ----|
|--------------------------------------------------------------------|  -4~-|
|--------------------------------------------------------------------|  ----|

                                     2.IGNORANCE

Tuning (this tab):  Drop D
Intro-
GtrI do 2x
|------------------------------------------------------------------------|
|-33-33-3--77-77-7---33-33-3--77-77-7--88-88-8-77-77-7-88-88-8-------5---|
|-44-44-4--77-77-7---44-44-4--77-77-7--99-99-9-77-77-7-99-99-9-77-66-----|
|-44-44-4------------44-44-4-----------99-99-9---------99-99-9---------4-|
|-22-22-2--55-55-5---22-22-2--55-55-5--77-77-7-55-55-5-77-77-7-55-44---4-|
|----------------------------------------------------------------------4-|

GtrII do  2x
|------------------------------------------------------------------------|
|------------------------------------------------------------------------|
|-44-44-4--77-77-7---44-44-4--77-77-7----------77-77-7-------------------|
|-44-44-4--77-77-7---44-44-4--77-77-7--55-55-5-77-77-7-55-55-5-77-66-7-4-|
|-22-22-2--55-55-5---22-22-2--55-55-5--55-55-5-55-55-5-55-55-5-55-44-7-4-|
|--------------------------------------55-55-5---------55-55-5-------7-4-|


Verse-
GtrI PALM MUTE
|-------------------------------|
|-------------------------------|
|-----4-----4--------4-----4----|
|---4-----4---4----4-----4---4--|2x
|-2--------------2--------------|
|-------------------------------|

|----------------------------------------------------------------|
|----------------------------------------------------------------|
|-----4---4--------4---4-----------------------------------------|
|---5---5---5----5---5---5--------7----7----------7----7---------|
|-------------------------------5----5---5------5----5---5-------|
|-2------------2--------------5---------------5------------------|

Verse2-
|-------------------------------|
|-------------------------------|
|-----4--4---4---4---4--4--4----|
|---4---4--4---4---4---4--4-4---|2x
|-2-----------------------------|
|-------------------------------|

|----------------------------------------------------------------|
|----------------------------------------------------------------|
|----4--4--4-------4--4---4--------------------------------------|
|---5-5--5---5----5--5--5---5------7--7--7--------7----7---7-----|
|-------------------------------5---5--5---5----5----5---5---5---|
|-2-------------2-------------5---------------5------------------|

GtrII2x
|------------------------------------------|
|------------------------------------------|
|------------------------------------------|
|------------------------------------------|
|-2-5555555-2-5555555-2-5555555-99999999---|
|------------------------------------------|
  * ******* * ******* * ******* ********

|-----------------------------------------|
|-----------------------------------------|
|-----------------------------------------|
|-----------------------------------------|
|-77777777-77777777--55555555-44444444----|
|-----------------------------------------|
  ******** ********  ******** ********

GtrIII(with delay)0:34
|-7-------------7------------------7------------------(10)-------|
|-7-------------7------------------8------------------(12)-------|
|-7-------------7------------------9------------------(12)-------|
|----------------------------------------------------------------|
|----------------------------------------------------------------|
|----------------------------------------------------------------|


REfrain 2x
GtrI
|-------------------------------|
|-------------------------------|
|---4-x-4----------4-x-4--------|
|---------444-------------444---|2x
|-2-------------2---------------|
|-------------------------------|

|-------------------------------------------------------------|
|-------------------------------------------------------------|
|---4-x-4--------4-x-4----------------------------------------|
|---------555----------555-------7-x-7----------7-x-7---------|
|--------------------------------------555-------------555----|
|-2------------2--------------5---------------5---------------|

GtrII

|----------------------------------------------------------------------------|
|----------------------------------------------------------------------------|
|-77777777-77777777-77777777-111111111111-99999999-99999999-7777777-66666666-|
|----------------------------------------------------------------------------|2x
|-55555555-55555555-55555555-9-9-9-9-9-9--77777777-77777777-5555555-44444444-|
|----------------------------------------------------------------------------|

then both
|-----------------------|
|-----------------------|
|-----------------------|
|-22-xxx-2-2---2-5------|
|-22-xxx-2-2---2-5------|
|-22-xxx-2-2---2-5------|

Chorus-

GtrI do 2x
|------------------------------------------------------------------------|
|-33-33-3--77-77-7---33-33-3--77-77-7--88-88-8-77-77-7-88-88-8-------5---|
|-44-44-4--77-77-7---44-44-4--77-77-7--99-99-9-77-77-7-99-99-9-77-66-----|
|-44-44-4------------44-44-4-----------99-99-9---------99-99-9---------4-|
|-22-22-2--55-55-5---22-22-2--55-55-5--77-77-7-55-55-5-77-77-7-55-44---4-|
|----------------------------------------------------------------------4-|

|------------------------------------------------------------------------|
|-3333333--7777777---3333333--7777777--8888888-7777777-8888888-------5---|
|-4444444--7777777---4444444--7777777--9999999-7777777-9999999-77-66-----|
|-4444444------------4444444-----------9999999---------9999999---------4-|
|-2222222--5555555---2222222--5555555--7777777-5555555-7777777-55-44---4-|
|----------------------------------------------------------------------4-|

GtrII do  2x
|------------------------------------------------------------------------|
|------------------------------------------------------------------------|
|-44-44-4--77-77-7---44-44-4--77-77-7----------77-77-7-------------------|
|-44-44-4--77-77-7---44-44-4--77-77-7--55-55-5-77-77-7-55-55-5-77-66-7-4-|
|-22-22-2--55-55-5---22-22-2--55-55-5--55-55-5-55-55-5-55-55-5-55-44-7-4-|
|--------------------------------------55-55-5---------55-55-5-------7-4-|
then
Ignorance is....
|-------------------------------|
|-------------------------------|
|---4-x-4----------4-x-4--------|
|---------444-------------444---|2x
|-2-------------2---------------|
|-------------------------------|

|-------------------------------------------------------------|
|-------------------------------------------------------------|
|---4-x-4--------4-x-4----------------------------------------|
|---------555----------555-------7-x-7------------------------|
|--------------------------------------555--------------------|
|-2------------2--------------5-------------------------------|


Verse-
GtrI
|-------------------------------|
|-------------------------------|
|-----4--4---4-------4--4--4----|
|---4---4--4---4---4---4--4-4---|2x
|-2--------------2--------------|
|-------------------------------|

|----------------------------------------------------------------|
|----------------------------------------------------------------|
|----4--4--4-------4--4---4--------------------------------------|
|---5-5--5---5----5--5--5---5------7--7--7--------7----7---7-----|
|-------------------------------5---5--5---5----5----5---5---5---|
|-2-------------2-------------5---------------5------------------|
GtrII same as verses
repeat verse 2-to refrain


Repeat chorus-

Ignorance is your new best friend....
|--------------------------------------|
|--------------------------------------|
|-4----------------------------9999----|
|-4-xx-xxx-xxx-xxx2-xx-xxx5-xx-xxxx----|
|-2-xx-xxx-xxx-xxx2-xx-xxx5-xx-xxxx----|
|---xx-xxx-xxx-xxx2-xx-xxx5-xx-xxxx----|

|-----------------------------------|
|-----------------------------------|
|-4--4-44444------------------------|
|-4-xx-xxxxx-2-xx-xxx5--xx-xx-5555--|
|-2-xx-xxxxx-2-xx-xxx5--xx-xx-5555--|
|---xx-xxxxx-2-xx-xxx5--xx-xx-5555--|

solo-(live version)
GtrI
|------------------------------------------------------------------------|
|-1515151515151515-14141414-12121212-7-7-7-7-7-7-7-7--8-8-8-8--7-7-7-7---|x
|------------------------------------------------------------------------|
|-1212121212121212-11111111-9-9-9-9--4-4-4-4-4-4-4-4--5-5-5-5--4-4-4-4---|
|------------------------------------------------------------------------|
|------------------------------------------------------------------------|

|------------------------------------------------------------------------|
|-1515151515151515-14141414-17171717-1919191919191919-2222222222222222---|x
|------------------------------------------------------------------------|
|-1212121212121212-11111111-14141414-1616161616161616-1919191919191919---|
|------------------------------------------------------------------------|
|------------------------------------------------------------------------|

GtrII

|-----------------------------------------------------------------|
|-----------------------------------------------------------------|
|-4-4-4-4-4-4-4-4-4-4-4-4-4-4-4-4-2-2-2-2-2-2-2-2-9-9-9-9-9-9-9-9-|
|-4-4-4-4-4-4-4-4-4-4-4-4-4-4-4-4-4-4-4-4-4-4-4-4-7-7-7-7-7-7-7-7-|2x
|-2-2-2-2-2-2-2-2-2-2-2-2-2-2-2-2-4-4-4-4-4-4-4-4-7-7-7-7-7-7-7-7-|
|---------------------------------4-4-4-4-4-4-4-4-7-7-7-7-7-7-7-7-|

|-----------------------|
|-----------------------|
|-----------------------|
|-22-xxx-2-2---2-5------|
|-22-xxx-2-2---2-5------|
|-22-xxx-2-2---2-5------|

                              3. PLAYING GOD

Tuning- Standard
Intro-
GtrI
|---------------------------------|--------------------------------|
|---------------------------------|--------------------------------|
|-----4-------4-------4-------4---|-----4-------4-------4------4---|
|---2---2---2---2---2---2---2---2-|---2---2---2---2---2---2---2--2-|
|-4-------4-------4-------2-------|-4-------4-------4-------2------|
|---------------------------------|--------------------------------|

|---------------------------------|--------------------------------|
|-----0-------0-------0-------0---|-----0-------0-------0-------0--|
|---------------------------------|--------------------------------|
|---6---6---6---6---6---6---6---6-|---6---6---6---6---6---6---6--6-|
|-7-------7-------7-------6-------|-7-------7-------6-------6------|
|---------------------------------|--------------------------------|

GtrII
|---------------------------------|--------------------------------|
|---------------------------------|--------------------------------|
|-----8-------8-------8-------9---|-----8-------8-------8-------9--|
|---6---6---6---6---6---6---6---6-|---6---6---6---6---6---6---6--6-|
|-7-------7-------7-------6-------|-7-------7-------7-------6------|
|---------------------------------|--------------------------------|

|---------------------------------|--------------------------------|
|---------------------------------|--------------------------------|
|-----11------11------11------11--|-----11------11------11-----11--|
|---9---9---9---9---9---9---9---9-|---9---9---9---9---9---9---9--9-|
|-11-----11------11------11-------|-11-----11------11------11------|
|---------------------------------|--------------------------------|

Verse-Do intro

Pre-Chorus
GtrI
|--------------------------------|
|--------------------------------|
|--6-6-6-6-6-6-6-6-8-8--8-8-8----|
|--------------------------------|
|--4-4-4-4-4-4-4-4-6-6--6-6-6----|
|--------------------------------|
   * * * * * * * * * *
GtrII
|--------------------------------|
|--------------------------------|
|--6-6-6-6-6-6-6-6-8-8--8-8-8----|
|--7-7-7-7-7-7-7-7-9-9--9-9-9----|
|--7-7-7-7-7-7-7-7-9-9--9-9-9----|
|--5-5-5-5-5-5-5-5-7-7--7-7-7----|
   * * * * * * * * * *

Chorus-

GtrI
|--------------------------------------------------|
|--------------------------------------------------|
|-9/11-9/11-9--9/11-9/11-9------66-666-6-88-888-8--|
|---------------------------2x---------------------|
|-7/9--7/9--7--7/9--7/9--7------44-444-4-66-666-6--|
|--------------------------------------------------|

|-------------------------------x-----------------------|
|-------------------------------x-----------------------|
|-44-444-4-66-666-6-66-666-6-8--x-----------------------|
|-------------------------------x-----------------------|
|-22-222-2-44-444-4-44-444-4-6--x-----------------------|
|-------------------------------x-----------------------|
GtrII
|--------------------------------------------------------|
|--------------------------------------------------------|
|-11-111-1-11-111-1--66-666-666-666-6-66-666-6-88-888-8--|
|-22-222-2-22-222-2--66-666-666-666-6-77-777-7-99-999-9--|
|-22-222-2-22-222-2--44-444-444-444-4-77-777-7-99-999-9--|
|-00-000-0-00-000-0-------------------55-555-5-77-777-7--|

|------------------------------x-------------------------|
|------------------------------x-------------------------|
|----------66-666-6-66-666-6-8-x-------------------------|
|-66-666-6-77-777-7-77-777-7-9-x-------------------------|
|-66-666-6-77-777-7-77-777-7-9-x-------------------------|
|-44-444-4-55-555-5-55-555-5-7-x-------------------------|

then...
GtrI
|---------------------------------|--------------------------------|
|---------------------------------|--------------------------------|
|-----4-------4-------4-------4---|-----4-------4-------4------4---|
|---2---2---2---2---2---2---2---2-|---2---2---2---2---2---2---2--2-|
|-4-------4-------4-------2-------|-0-------0-------0-------2------|
|---------------------------------|--------------------------------|

GtrII
|---------------------------------|--------------------------------|
|---------------------------------|--------------------------------|
|-----8-------8-------8-------9---|-----11------11------11-----11--|
|---6---6---6---6---6---6---6---6-|---9---9---9---9---9---9---9--9-|
|-7-------7-------7-------6-------|-11-----11------11------11------|
|---------------------------------|--------------------------------|

Do verse-

Chorus-
GtrI
|--------------------------------------------------|
|--------------------------------------------------|
|-9/11-9/11-9--9/11-9/11-9------66-666-6-88-888-8--|
|---------------------------2x---------------------|
|-7/9--7/9--7--7/9--7/9--7------44-444-4-66-666-6--|
|--------------------------------------------------|

|-------------------------------------------------------|
|-------------------------------------------------------|
|-44-444-4-66-666-6-66-666-6-8-8-8-8-8-8-8-8------------|
|-------------------------------------------------------|
|-22-222-2-44-444-4-44-444-4-6-6-6-6-6-6-6-6------------|
|-------------------------------------------------------|
GtrII
|--------------------------------------------------------|
|--------------------------------------------------------|
|-11-111-1-11-111-1--66-666-666-666-6-66-666-6-88-888-8--|
|-22-222-2-22-222-2--66-666-666-666-6-77-777-7-99-999-9--|
|-22-222-2-22-222-2--44-444-444-444-4-77-777-7-99-999-9--|
|-00-000-0-00-000-0-------------------55-555-5-77-777-7--|

|--------------------------------------------------------|
|--------------------------------------------------------|
|----------66-666-6-66-666-6-8-8-8-8-8-8-8-8-------------|
|-66-666-6-77-777-7-77-777-7-9-9-9-9-9-9-9-9-------------|
|-66-666-6-77-777-7-77-777-7-9-9-9-9-9-9-9-9-------------|
|-44-444-4-55-555-5-55-555-5-7-7-7-7-7-7-7-7-------------|

Interlude-
GtrI
|---------------------------------------------------------------------|
|---------------------------------------------------------------12----|
|-6-6-6-6-6-6-6-6-8-8-8-8-8-8-8-8-9-9-9-9-9-9-9-9--111111-9-8-9---9---|
|-7-7-7-7-7-7-7-7-9-9-9-9-9-9-9-9-1111111111111111-111111-------------|
|---------------------------------------------------------------------|
|---------------------------------------------------------------------|

|---------------------------------------------------------------------|
|---------------------------------------------------------------------|
|-6-6-6-6-6-6-6-6-8-8-8-8-8-8-8-8-9-9-9-9-9-9-9-9--111111-8-8-8-8-8---|
|-7-7-7-7-7-7-7-7-9-9-9-9-9-9-9-9-1111111111111111-111111-9-9-9-9-9---|
|---------------------------------------------------------------------|
|---------------------------------------------------------------------|

GtrII
|---------------------------------------------------------------------|
|---------------------------------------------------------------------|
|--6-6-6-6-6-6-6-6-8-8-8-8-8-8-8-8-9-9-9-9-9-9-9-9--------------------|
|--7-7-7-7-7-7-7-7-9-9-9-9-9-9-9-9-1111111111111111-6-6-6-6-6-6-6-6---|2x
|--7-7-7-7-7-7-7-7-9-9-9-9-9-9-9-9-1111111111111111-6-6-6-6-6-6-6-6---|
|--5-5-5-5-5-5-5-5-7-7-7-7-7-7-7-7-9-9-9-9-9-9-9-9--4-4-4-4-4-4-4-4---|


Bridge-

GtrI
|---------------------------------------------------------------------|
|---------------------------------------------------------------12----|
|-6-6-6-6-6-6-6-6-8-8-8-8-8-8-8-8-9-9-9-9-9-9-9-9--111111-9-8-9---9---|
|-7-7-7-7-7-7-7-7-9-9-9-9-9-9-9-9-1111111111111111-111111-------------|
|---------------------------------------------------------------------|
|---------------------------------------------------------------------|

|---------------------------------------------------------------------|
|-121212121212-10-10-99999999-121212121212-14-14-9999-----------------|
|------------------------------------------------------11111111--9~---|
|---------------------------------------------------------------------|
|---------------------------------------------------------------------|
|---------------------------------------------------------------------|

GtrII
|---------------------------------------------------------------------|
|---------------------------------------------------------------------|
|--6-6-6-6-6-6-6-6-8-8-8-8-8-8-8-8-9-9-9-9-9-9-9-9--------------------|
|--7-7-7-7-7-7-7-7-9-9-9-9-9-9-9-9-1111111111111111-6-6-6-6-6-6-6-6---|then B
|--7-7-7-7-7-7-7-7-9-9-9-9-9-9-9-9-1111111111111111-6-6-6-6-6-6-6-6---|
|--5-5-5-5-5-5-5-5-7-7-7-7-7-7-7-7-9-9-9-9-9-9-9-9--4-4-4-4-4-4-4-4---|

Chorus-

GtrI
|----------------------------------------------------------------------|
|----------------------------------------------------------------------|
|---------------------9/11-9/11-9--9/11-9/11-9------66666666-88888888--|
|----------------------------------------------------------------------|
|---------------------7/9--7/9--7--7/9--7/9--7------44444444-66666666--|
|----------------------------------------------------------------------|

|-------------------------------------------------------------------|
|-------------------------------------------------------------------|
|-44444444-66--99-88888---6-6-6-6-6-6-6-6-8-8-8-8-8-8-8-8-----------|
|-------------------------------------------------------------------|
|-22222222-44--77-66666---4-4-4-4-4-4-4-4-6-6-6-6-6-6-6-6-----------|
|-------------------------------------------------------------------|

GtrII
|--------------------------------------------------------|
|--~-----------------------------------------------------|
|-1~-----------------6666666666666666-66666666-88888888--|
|-2~-----------------6666666666666666-77777777-99999999--|
|-2~-----------------4444444444444444-77777777-99999999--|
|-0~----------------------------------55555555-77777777--|


|------------------------------------------------------------------|
|------------------------------------------------------------------|
|-----------66-44444--6-6-6-6-6-6-6-6-6-8-8-8-8-8-8-8-8------------|
|-66666666--66-44444--7-7-7-7-7-7-7-7-7-9-9-9-9-9-9-9-9------------|
|-66666666--44-22222--7-7-7-7-7-7-7-7-7-9-9-9-9-9-9-9-9------------|
|-44444444------------5-5-5-5-5-5-5-5-5-7-7-7-7-7-7-7-7------------|

Do Chorus
End B

                                4. BRICK BY BORING BRICK

Intro-
josh-
|-0---------------0--------------0--------------0---------|
|-0---------------0--------------0--------------0---------|
|-11--(8x)--------11---(4x)------11--(4x)-------9---(16x)-|
|-11--------------11-------------11-------------11--------|4x
|-9---------------------------------------------0---------|
|-----------------9--------------10-----------------------|

Taylor's part

0:12
|-------------------------------------------------------------|
|-------------------------------------------------------------|
|----------11~--9~-----------------------11~--9~--------------|
|-------7~----------11~---11^r~-------7~----------11~---11^r~-|
|--7/9~--------------------------7/9~-------------------------|
|-------------------------------------------------------------|

Verse-
0:36
GtrI
|-0-0---0---0------0-0----0---0----0-0--0---0---0-0-0--0-0--|
|-0-0---0---0------0-0----0---0----0-0--0---0---0-0-0--0-0--|
|-1111--11--11-----1111---11--11---9-9--9---9---9-9-9--9-9--|
|-1111--11--11-----1111---11--11---1111-11--11--111111-1111-|2x
|-9-9---9---9------x-x----x---x----0-0--0---0---0-0-0--0-0--|
|------------------9-9----10--10----------------------------|

GtrII
|----------------------------|---------------------------------|
|----------------------------|---------------------------------|
|----------11~--9~-----------|------------11~--9~--------------|
|-------------------11~------|--------------------11~----------|
|--7/9~----------------------|----7/9~-------------------------|
|----------------------------|---------------------------------|


Refrain-
0:46


GtrII
|-----0~----0~------0~-------0~-|-----0~----0~-----0~----0~--|
|-----0~----0~------0~-------0~-|-----0~----0~-----0~----0~--|
|-----9~----9~------11~------7~-|-----9~----9~-----11~---14~-|
|--9~----9~-----11~------7~-----|-9~-----9~----11~----14~----|
|--7~----7~-----9~-------5------|-7------7-----9------11-----|
|-------------------------------|----------------------------|

GtrII
|----(0)---(0)------(0)-----(0)----(0)---(0)---(0)---(0)--|
|----(0)---(0)------(0)-----(0)----(0)---(0)---(0)---(0)--|
|---------------------------------------------------------|
|--9~----(9~)-----11~------7~-----6~----(6)----7~----9~---|
|---------------------------------------------------------|
|---------------------------------------------------------|

Chorus-2x
GrtI
|-0----------0---------0---------0-----------|
|-0----------0---------0---------0-----------|
|-x----------9---------x---------1-----------|
|-7-(8x)-----9--(8x)---4-(8x)----2--(8x)-----|
|-7----------x---------4---------2-----------|
|-5----------9---------2---------0-----------|

GtrII
|--------------------------------------------------------|
|------10-9-------------------------10-9~----------------|
|-------------9~-----------------------------------------|
|-7/11------------------------7/11-----------------------|
|--------------------------------------------------------|
|--------------------------------------------------------|

|------0~-------------0~----------------------------------|
|------0~-------------0~----------------------------------|
|---------------------------------------------------------|
|-7/6------6/7--7\6--------11~-/-9~---9/11--11-s--9~------|
|---------------------------------------------------------|
|---------------------------------------------------------|


Then-Bass F# C#-D A
GtrI II pause
then

1:25

|-0--------------0---------------0--------------0--------------0---------|
|-0--------------0---------------0--------------0--------------0---------|
|-9---(8x)-------11--(8x)--------11---(4x)------11--(4x)-------9---(16x)-|
|-11-------------11--------------11-------------11-------------11--------|
|-0--------------9---------------------------------------------0---------|
|--------------------------------9--------------10-----------------------|

|----------------------------------------------------|
|----------------------------------------------------|
|---------------------------11~-9~-------------------|
|--11^r~----------------7~----------11~------11^r~---|
|-------------------7/9------------------------------|
|----------------------------------------------------|

Do verse-chorus

Interlude-
GtrI
|-x-----------x-----------x-----------x--------------|
|-x-----------x-----------x-----------x--------------|
|-11----------11----------6-----------1--------------|
|-11-(16x)----12--(16x)---7----(16x)--2----(16x)-----|
|-9-----------12----------7-----------2--------------|
|-------------10----------5-----------0--------------|
GtrII
|--------------------------------------------------------------|
|--------------------------------------------------------------|
|-xx-111111-666-4444444444-xx-777-141414-13131313131313131313--|
|-xx-----------------------xx----------------------------------|
|-xx-9-9-9--444-2222222222-xx-555-121212-11111111111111111111--|
|--------------------------------------------------------------|

|--------------------------------------------------|
|--------------------------------------------------|
|-xx-99999999-1111111111111111-66666666-44444444---|
|-xx-----------------------------------------------|
|-xx-77777777-9-9-9-9-9-9-9-9--44444444-22222222---|
|--------------------------------------------------|

Bridge-
GtrI
|-x-----------x-----------x-----------x--------------|
|-x-----------x-----------x-----------x--------------|
|-11----------11----------6-----------1--------------|
|-11-(16x)----12--(16x)---7----(16x)--2----(16x)-----|with pausing...
|-9-----------12----------7-----------2--------------|
|-------------10----------5-----------0--------------|

GtrII
|--------------------------------------------------------------|
|--------------------------------------------------------------|
|-xx-111111-666-4444-4-4-4-xx-777-141414-13131313131313131313--|
|-xx-----------------------xx----------------------------------|
|-xx-9-9-9--444-2222-2-2-2-xx-555-121212-11111111111111111111--|
|--------------------------------------------------------------|

|--------------------------------------------------|
|--------------------------------------------------|
|--xx999999999-9-9-9--66666666-44444444------------|
|--------------------------------------------------|
|--xx777777777-7-7-7--44444444-22222222------------|
|--------------------------------------------------|


Bridge2-

GrtI(let ring)
|-0----------0---------0---------0-----------|
|-0----------0---------0---------0-----------|
|-6----------9---------11--------9-----------|
|-7----------9---------11--------9-----------|2x
|-7----------x---------9---------7-----------|
|-5----------9-------------------------------|


3:07
|---------------------------------------------------------|
|-----------10-12--10-----9-10-------9~-------------------|
|----9--9--------------9----------------------------------|
|-11------------------------------------------------------|
|---------------------------------------------------------|
|---------------------------------------------------------|

Do chorus -
3:42
then
|---------------------------------------------------------|
|---------------------------------------------------------|
|---------------------------------------------------------|
|-4~------------------------------------------------------|
|-4~------------------------------------------------------|
|-2~------------------------------------------------------|


then-
3:48
|---------------------------------------------------------|
|---------------------------------------------------------|
|-11--(8x)--------11---(4x)------11--(4x)-------9---(16x)-|
|-11--------------11-------------11-------------11--------|till end
|-9---------------------------------------------0---------|
|-----------------9--------------10-----------------------|
  *               *               *             *


4:00
|---------------------------------------------------------|
|---------------------------------------------------------|
|---------------------------------------------------------|
|-11r~---11r~----11r~---11r~-----11r~----11r~-----11r~----|till end
|---------------------------------------------------------|
|---------------------------------------------------------|


-------------------------------------------------------------------------------
                             5.Turn It Off - Paramore
-------------------------------------------------------------------------------
Tabbed by: PT-E
Email:

Tuning: Drop D

Intro
 Guitar 1
e|-------------------------------------|-------------------------------------|
B|-------------------------------------|-------------------------------------|
G|-17-16-17-16---12---7-7-9-10-9---2---|-17-16-17-16---12---7-7-9-10-9~------|
D|-x--x--x--x----x----x-x-x-x--x---x---|-x--x--x--x----x----x-x-x-x--x-------|
A|-15-14-15-14---10---5-5-7-8--7---0---|-15-14-15-14---10---5-5-7-8--7~------|
D|-------------------------------------|-------------------------------------|
 Guitar 2
e|-------------------------------------|-------------------------------------|
B|-------------------------------------|-------------------------------------|
G|-------------------------------------|-------------------------------------|
D|-7-7-7-7--9----10-10--10-10-10---3~--|--7-7-7-7--9----10-10--10-10-10-10---|
A|-7-7-7-7--10---10-10--10-10-10---3~--|--7-7-7-7--10---10-10--10-10-10-10---|
D|-7-7-7-7--9----10-10--10-10-10---3~--|--7-7-7-7--9----10-10--10-10-10-10---|

 Guitar 1  (it sounds like guitar 1 is using some kind of effect here.)
e|-------------------------------------|-------------------------------------|
B|-------------------------------------|-------------------------------------|
G|-17-16-17-16---12---7-7-9-10-9---2---|-17-16-17-16---12---7-7-9-10-9--7--5~|
D|-x--x--x--x----x----x-x-x-x--x---x---|-x--x--x--x----x----x-x-x-x--x--x--x~|
A|-15-14-15-14---10---5-5-7-8--7---0---|-15-14-15-14---10---5-5-7-8--7--5--3~|
D|-------------------------------------|-------------------------------------|

 Guitar 2
e|-------------------------------------|--------------------------------------|
B|-------------------------------------|--------------------------------------|
G|-------------------------------------|--------------------------------------|
D|-7-7-7-7--9----10-10--10-10-10---3~--|-7-7-7-7--9----10-10--10-10-10--3--7~-|
A|-7-7-7-7--10---10-10--10-10-10---3~--|-7-7-7-7--10---10-10--10-10-10--3--7~-|
D|-7-7-7-7--9----10-10--10-10-10---3~--|-7-7-7-7--9----10-10--10-10-10--3--7~-|


Verse
 Guitar 1
e|-------0--------------0--------------0--------------0----------------------|
B|-----1---1---1------1---1---1------1---1---1------1---1---1----------------|
G|---2-------2------2-------2------2-------2------2-------2------------------|
D|-------------------------------0--------------3----------------------------|
A|-0--------------3----------------------------------------------------------|
D|---------------------------------------------------------------------------|

 Guitar 1    2x
e|-----12------12------12------12------12------12------10------10----|--10----|
B|---13--13--13--13--13--13--13--13--13--13--13--13--13--13--13--13--|--13----|
G|-14------14------12------12------10------10------12------12--------|--12----|
D|-------------------------------------------------------------------|--------|
A|-------------------------------------------------------------------|--------|
D|-------------------------------------------------------------------|--------|
  Guitar 2
e|----------------------------------------------------------------------------|
B|-13~---------12~------------------------------------------------------------|
G|--------------------12~----------10~----------------------------------------|
D|----------------------------------------------10~-----3-3-3-3-3-3-3-3-3-----|
A|------------------------------------------------------3-3-3-3-3-3-3-3-3-----|
D|------------------------------------------------------3-3-3-3-3-3-3-3-3-----|
                                                        x x x x x x

Chorus
 Guitar 1  2x
e|---------------------------------------------------------------------------|
B|---------------------------------------------------------------------------|
G|-7-5-5-7-5-5-5-7-4-4-4-4-4-4-4--4-4-4--5-5--12-12-12-12-12-12-12-12-12-----|
D|-5-5-5-5-5-5-5-5-5-5-5-5-5-5-5--x-x-x--x-x--x--x--x--x--x--x--x--x--x------|
A|--------------------------------2-2-2--3-3--10-10-10-10-10-10-10-10-10-----|
D|---------------------------------------------------------------------------|
 Guitar 2
e|---------------------------------------------------------------------------|
B|---------------------------------------------------------------------------|
G|-5-5-5-5-5-5-5-5-4-4-4-4-4-4-4-4-----------------x-x-----------------------|
D|-5-5-5-5-5-5-5-5-5-5-5-5-5-5-5-5-7-7-7-7-7-7-7-7-x-x--3-3-3-3--5-5-5-5-----|
A|-3-3-3-3-3-3-3-3-3-3-3-3-3-3-3-3-7-7-7-7-7-7-7-7-x-x--3-3-3-3--5-5-5-5-----|
D|---------------------------------7-7-7-7-7-7-7-7-x-x--3-3-3-3--5-5-5-5-----|


Intro

Verse

Chorus


Solo
 Guitar 1
e|-------------------------------------|-------------------------------------|
B|-------------------------------------|-------------------------------------|
G|-17-16-17-16---12---7-7-9-10-9---2---|-17-16-17-16---12---7-7-9-10-9~------|
D|-x--x--x--x----x----x-x-x-x--x---x---|-x--x--x--x----x----x-x-x-x--x-------|
A|-15-14-15-14---10---5-5-7-8--7---0---|-15-14-15-14---10---5-5-7-8--7~------|
D|-------------------------------------|-------------------------------------|
 Guitar 2
e|-------------------------------------|-------------------------------------|
B|-------------------------------------|-------------------------------------|
G|-------------------------------------|-------------------------------------|
D|-7-7-7-7--9----10-10--10-10-10---3~--|--7-7-7-7--9----10-10--10-10-10-10---|
A|-7-7-7-7--10---10-10--10-10-10---3~--|--7-7-7-7--10---10-10--10-10-10-10---|
D|-7-7-7-7--9----10-10--10-10-10---3~--|--7-7-7-7--9----10-10--10-10-10-10---|

 Guitar 1
e|----8---10--8------12----10--8-----------20--19------15--17--15------------|
B|-----------------------------------17------------17------------------------|
G|--9---9---------10----10--------14----14-------------------------14~-------|
D|---------------------------------------------------------------------------|
A|---------------------------------------------------------------------------|
D|---------------------------------------------------------------------------|
 Guitar 2
e|---------------------------------------------------------------------------|
B|---------------------------------------------------------------------------|
G|---------------------------------------------------------------------------|
D|-7-7-7-7-9--9--10-10-10-10-10-3-3-3-3---7-7-7-7-9--9--10-10-10-10-10-3-3-3-|
A|-7-7-7-7-10-10-10-10-10-10-10-3-3-3-3---7-7-7-7-10-10-10-10-10-10-10-3-3-3-|
D|-7-7-7-7-9--9--10-10-10-10-10-3-3-3-3---7-7-7-7-9--9--10-10-10-10-10-3-3-3-|

Bridge
e|-0------------0------------0-----------0-----------------------------------|
B|-1------------1------------1-----------1-----------------------------------|
G|-2------------0------------2-----------2-----------------------------------|
D|-2------------2------------0-----------3-------------5---------------------|
A|-0------------3------------3-----------3-----------------------------------|
D|---------------------------------------------------------------------------|

2x
 Guitar 1
e|---------------------------------------------------------------------------|
B|---------------------------------------------------------------------------|
G|-7-5-5-7-5-5-7-5-7-5-5-7-5-5-7-5-7-5-5-7-5-5-7-5-7-4-4-4-4-4-4-4-4-4-------|
D|-5-5-5-5-5-5-5-5-5-5-5-5-5-5-5-5-5-5-5-5-5-5-5-5-5-5-5-5-5-5-5-5-5-5-------|
A|---------------------------------------------------------------------------|
D|---------------------------------------------------------------------------|
 Guitar 2
e|---------------------------------------------------------------------------|
B|---------------------------------------------------------------------------|
G|---------------------------------------------------------------------------|
D|--7-7-7-7-7-7-7-10-10-10-10-10-10-10-3-3-3-3-3-3-3-3-5-5-5-5-5-5-5-5-------|
A|--7-7-7-7-7-7-7-10-10-10-10-10-10-10-3-3-3-3-3-3-3-3-5-5-5-5-5-5-5-5-------|
D|--7-7-7-7-7-7-7-10-10-10-10-10-10-10-3-3-3-3-3-3-3-3-5-5-5-5-5-5-5-5-------|


2x
Chorus
 Guitar 1
e|---------------------------------------------------------------------------|
B|---------------------------------------------------------------------------|
G|-7-5-5-7-5-5-5-7-4-4-4-4-4-4-4--4-4-4--5-5--12-12-12-12-12-12-12-12-12-----|
D|-5-5-5-5-5-5-5-5-5-5-5-5-5-5-5--x-x-x--x-x--x--x--x--x--x--x--x--x--x------|
A|--------------------------------2-2-2--3-3--10-10-10-10-10-10-10-10-10-----|
D|---------------------------------------------------------------------------|
 Guitar 2
e|---------------------------------------------------------------------------|
B|---------------------------------------------------------------------------|
G|-5-5-5-5-5-5-5-5-4-4-4-4-4-4-4-4-----------------x-x-----------------------|
D|-5-5-5-5-5-5-5-5-5-5-5-5-5-5-5-5-7-7-7-7-7-7-7-7-x-x--3-3-3-3--5-5-5-5-----|
A|-3-3-3-3-3-3-3-3-3-3-3-3-3-3-3-3-7-7-7-7-7-7-7-7-x-x--3-3-3-3--5-5-5-5-----|
D|---------------------------------7-7-7-7-7-7-7-7-x-x--3-3-3-3--5-5-5-5-----|

2x
 Guitar 1
e|---------------------------------------------------------------------------|
B|---------------------------------------------------------------------------|
G|-9-7-7-12-7-7-7-7--9-7-7-12-7-7-7-7--4-4-5-5-7-7-7-7--2-2-4-4-5-5-5-5-5----|
D|-x-x-x-x--x-x-x-x--x-x-x-x--x-x-x-x--x-x-x-x-x-x-x-x--x-x-x-x-x-x-x-x-x----|
A|-7-5-5-10-5-5-5-5--7-5-5-10-5-5-5-5--2-2-3-3-5-5-5-5--0-0-2-2-3-3-3-3-3----|
D|---------------------------------------------------------------------------|

Guitar 2
e|---------------------------------------------------------------------------|
B|---------------------------------------------------------------------------|
G|-5-5-5-5-5-5-5-5-4-4-4-4-4-4-4-4-----------------x-x-----------------------|
D|-5-5-5-5-5-5-5-5-5-5-5-5-5-5-5-5-7-7-7-7-7-7-7-7-x-x--3-3-3-3--5-5-5-5-----|
A|-3-3-3-3-3-3-3-3-3-3-3-3-3-3-3-3-7-7-7-7-7-7-7-7-x-x--3-3-3-3--5-5-5-5-----|
D|---------------------------------7-7-7-7-7-7-7-7-x-x--3-3-3-3--5-5-5-5-----|


Outro
 Guitar 1
e|-------------------------------------------------------------------------------------|
B|-------------------------------------------------------------------------------------|
G|-10-9--9--10-9--9--9--9--10-9--9--10-9--9--9--9--10-9--9--10-9--9--9--9--7-7-7-7-7-7-|
D|-12-10-10-12-10-10-10-10-12-10-10-12-10-10-10-10-12-10-10-12-10-10-10-10-9-9-9-9-9-9-|
A|-------------------------------------------------------------------------------------|
D|-------------------------------------------------------------------------------------|

3x
 Guitar 1
e|-------------------------------------------------------------------------------------|
B|-------------------------------------------------------------------------------------|
G|-10-9--9--10-9--9--9--9--10-9--9--10-9--9--9--9--10-9--9--10-9--9--9--9--7-7-7-7-7-7-|
D|-12-10-10-12-10-10-10-10-12-10-10-12-10-10-10-10-12-10-10-12-10-10-10-10-9-9-9-9-9-9-|
A|-------------------------------------------------------------------------------------|
D|-------------------------------------------------------------------------------------|
 Guitar 2
e|12-------12-------13----12-------12-15----13----12-------12-------13----10-------10-------10---|
B|---13-13----13-13----13----13-13-------13----13----13-13----13-13----13----12-12----12-12----10|
G|-----------------------------------------------------------------------------------------------|
D|-----------------------------------------------------------------------------------------------|
A|-----------------------------------------------------------------------------------------------|
D|-----------------------------------------------------------------------------------------------|

 Guitar 1
e|-------------------|
B|-------------------|
G|-9~----------------|
D|-10~---------------|
A|-------------------|
D|-------------------|
 Guitar 2
e|-12~---------------|
B|-13~---------------|
G|-------------------|
D|-------------------|
A|-------------------|
D|-------------------|

                                      6.Paramore – The Only Exception --

standard tuning EADGBE

tabbed by x-tasha-x

 - CAPO 3rd -

Intro:
guitar 1:
       G      Dm   C
E||-33333333-1111-0000--|
B||-33333333-3333-1111--|
G||-00000000-2222-0000--|x2
D||-00000000-0000-2222--|
A||-22222222------3333--|
E||-33333333------------|

guitar 2:
E||---------------------|
B||-15-------16---18----|
G||-15-------17---19----|x2
D||---------------------|
A||---------------------|
E||---------------------|


verse:
guitar 1:
        G     Dm   C
E||-33333333-1111-0000--|
B||-33333333-3333-1111--|x4
G||-00000000-2222-0000--|
D||-00000000-0000-2222--|
A||-22222222------3333--|
E||-33333333------------|

guitar 2:
        G     Dm   C
E||-33333333-1111-0000--|  |------------------|
B||-33333333-3333-1111--|x2|-15--15---16------|
G||-00000000-2222-0000--|  |-15--15---17------|x2
D||-00000000-0000-2222--|  |------------------|
A||-22222222------3333--|  |------------------|
E||-33333333------------|  |------------------|


chorus:
guitar 1:
        G     Dm   C
E||-33333333-1111-0000--|
B||-33333333-3333-1111--|x2
G||-00000000-2222-0000--|
D||-00000000-0000-2222--|
A||-22222222------3333--|
E||-33333333------------|

guitar 2:
E||-------------------------------------------------------------------------|
B||-11-11-11-11-11-11-11-11-11-11-11-11-13-13-13-13-13-13-15-15-15-15-15-15-|x2
G||-------------------------------------------------------------------------|
D||-------------------------------------------------------------------------|
A||-------------------------------------------------------------------------|
E||-------------------------------------------------------------------------|


Before verse 2:
guitar 1:
         G
E||-33333333333333-|
B||-33333333333333-|
G||-00000000000000-|
D||-00000000000000-|
A||-22222222222222-|
E||-33333333333333-|

guitar 2:
E||----------------|
B||-15-------------|
G||-15-------------|
D||----------------|
A||----------------|
E||----------------|


Verse 2:
guitar 1:
        G     Dm   C
E||-33333333-1111-0000--|
B||-33333333-3333-1111--|x4
G||-00000000-2222-0000--|
D||-00000000-0000-2222--|
A||-22222222------3333--|
E||-33333333------------|

guitar 2:
E||---------------------|
B||-15--15---16---------|
G||-15--15---17---------|x4
D||---------------------|
A||---------------------|
E||---------------------|


CHORUS

Bridge:
guitar 1:
       Am     G    D           Am     G    D      C
E||-00000000-3333-2222-|  |-00000000-3333-2222-00000000-|
B||-11111111-3333-3333-|x3|-11111111-3333-3333-11111111-|
G||-22222222-0000-2222-|  |-22222222-0000-2222-00000000-|
D||-22222222-0000-0000-|  |-22222222-0000-0000-22222222-|
A||-00000000-2222------|  |-00000000-2222------33333333-|
E||----------3333------|  |----------3333---------------|

guitar 2:
E||-15-----------------15----------------|
B||----18-------18--------18-------------|x2
G||--------14-15--------------14--15-----|
D||----------------------------------15--|
A||--------------------------------------|
E||--------------------------------------|

then:
E||---------------------------------------------------------------|
B||---------------------------------------------------------------|
G||----------------------------7-7-7------------------------------|
D||-13-13-13-12-12-12-10-10-10-------8-8-8-10-10-10-7-7-7-7-7-7---|
A||---------------------------------------------------------------|
E||---------------------------------------------------------------|

E||------------------------------------------------------------------|
B||------------------------------------------------------------------|
G||-------------------10-10-10-10-10-10------------------------------|
D||-13-13-13-12-12-12--------------------8-8-8-10-10-10-7-7-7-7-7-7--|
A||------------------------------------------------------------------|
E||------------------------------------------------------------------|

Last Chorus:
guitar 1:
       G      Dm   C
E||-33333333-1111-0000--|
B||-33333333-3333-1111--|x2
G||-00000000-2222-0000--|
D||-00000000-0000-2222--|
A||-22222222------3333--|
E||-33333333------------|

guitar 2:
E||---------------------|
B||-15-------16---18----|
G||-15-------17---19----|x2
D||---------------------|
A||---------------------|
E||---------------------|


then:
guitar 1:
       G      Dm   C
E||-33333333-1111-0000--|
B||-33333333-3333-1111--|x2
G||-00000000-2222-0000--|
D||-00000000-0000-2222--|
A||-22222222------3333--|
E||-33333333------------|


guitar 2:
E||-------------------------------------------------------------------------|
B||-11-11-11-11-11-11-11-11-11-11-11-11-13-13-13-13-13-13-15-15-15-15-15-15-|
G||-------------------------------------------------------------------------|
D||-------------------------------------------------------------------------|
A||-------------------------------------------------------------------------|
E||-------------------------------------------------------------------------|

then:
E||-------------------------------------13-13-13-11-11-11-------------------|
B||-11-11-11-11-11-11-11-11-11-11-11-11-------------------15-15-15-15-15-15-|
G||-------------------------------------------------------------------------|
D||-------------------------------------------------------------------------|
A||-------------------------------------------------------------------------|
E||-------------------------------------------------------------------------|


end with:
guitar 1 & 2:
     F    C      G        F    C   G
E||-1111-0000-33333333-||-1----0----3--------|
B||-1111-1111-33333333-||-1----1----3--------|
G||-2222-0000-00000000-||-2----0----0--------|
D||-3333-2222-00000000-||-3----2----0--------|
A||-3333-3333-22222222-||-3----3----2--------|
E||-1111------33333333-||-1---------3--------|


                               7. FEELING SORRY

Intro-
GtrI
|------------------------|-----------------------------------------------|
|------------------------|-----------------------------------------------|
|-11-11-11-1111--13-9----|-13-13-13-1313--13-13----13-13-13-13--11-11-11-|
|---------------------2x-|-----------------------------------------------|
|-9--9--9--9-9---11-7----|-11-11-11-1111--11-11----11-11-11-11--9--9--9--|
|------------------------|-----------------------------------------------|

|------------------------|-----------------------------------------------|
|------------------------|-----------------------------------------------|
|-11-11-11-1111--13-9----|-13-13-13-1313--13-13----13-13-13-13--16-16-16-|
|---------------------2x-|-----------------------------------------------|
|-9--9--9--9-9---11-7----|-11-11-11-1111--11-11----11-11-11-11--14-14-14-|
|------------------------|-----------------------------------------------|

GtrII
|--------------------------------------------------------|
|--------------------------------------------------------|
|------------------------------6-6-6-6-666--6-6-6-6-444--|
|-2-2-2--2-222--2-2-2--2-666---6-6-6-6-666--6-6-6-6-444--|2x
|-2-2-2--2-222--2-2-2--2-666---4-4-4-4-444--4-4-4-4-222--|
|-0-0-0--0-000--0-0-0--0-444-----------------------------|

Verse-
GtrI
|----------------------------------------------------------|
|----------------------------------------------------------|
|----------------------------------------------------------|
|-----------6--------------6-----6-6-6-66-66--66-6-6-4-4-4-|
|-9-9-9--99---7--9-9-9--99---7-----------------------------|
|----------------------------------------------------------|
  * * *  ** * *  * * *  ** * *   * * * ** **  ** * * * * *

|----------------------------------------------------------|
|----------------------------------------------------------|
|----------------------------------------------------4-4-4-|
|-----------6--------------6-----6-6-6-66-66--66-6-6-4-4-4-|
|-9-9-9--99---7--9-9-9--99---7-----------------------2-2-2-|
|----------------------------------------------------------|
  * * *  ** * *  * * *  ** * *   * * * ** **  ** * *

GtrII
|----------------------------------------------------------|
|----------------------------------------------------------|
|----------------------------------------------------------|
|------------------------------6-6-6-66-66--66-6-6-4-4-4---|
|-2-2-2--22-22--22-2-2-6-6-6---4-4-4-44-44--44-4-4-2-2-2---|
|-0-0-0--00-00--00-0-0-4-4-4-------------------------------|
  * * *  ** **  ** * * * * *   * * * ** **  ** * * * * *

|----------------------------------------------------------|
|----------------------------------------------------------|
|--------------------------------------------------4-4-4---|
|------------------------------6-6-6-66-66--66-6-6-4-4-4---|
|-2-2-2--22-22--22-2-2-6-6-6---4-4-4-44-44--44-4-4-2-2-2---|
|-0-0-0--00-00--00-0-0-4-4-4-------------------------------|
  * * *  ** **  ** * * * * *   * * * ** **  ** * *

Refrain-
|-0-00000-0000---0-00000-0000--0-00000-0000-0-00000-0000-|
|-0-00000-0000---0-00000-0000--5-55555-5555-0-00000-0000-|
|-6-66666-6666---8-88888-8888--6-66666-6666-x-xxxxx-xxxx-|
|-7-77777-7777---9-99999-9999--6-66666-6666-6-66666-6666-|
|-7-77777-7777---9-99999-9999--4-44444-4444-6-66666-6666-|
|-5-55555-5555---7-77777-7777---------------4-44444-4444-|

|-0-00000-0000---0-00000-0000--0-00000-0000-0-00000-0000-|
|-0-00000-0000---0-00000-0000--5-55555-5555-0-00000-0000-|
|-6-66666-6666---8-88888-8888--6-66666-6666-8-88888-8888-|
|-7-77777-7777---9-99999-9999--6-66666-6666-x-xxxxx-xxxx-|
|-7-77777-7777---9-99999-9999--4-44444-4444-6-66666-6666-|
|-5-55555-5555---7-77777-7777----------------------------|


Chorus-
GtrI
|-------------------------------------------------------------|
|-------------------------------------------------------------|
|-13-16/-6-6-6---13-16/--4-4-4--13-16/-6-6-6---9-8/--111111---|
|-------------------------------------------------------------|
|-11-14/-4-4-4---11-14/--6-6-6--11-14/-4-4-4---7-6/--9-9-9----|
|-------------------------------------------------------------|

|-------------------------------------------------------------|
|-------------------------------------------------------------|
|-13-16/-6-6-6---13-16/--4-4-4--13-16/-6-6-6---9-11--8--------|
|-------------------------------------------------------------|
|-11-14/-4-4-4---11-14/--6-6-6--11-14/-4-4-4---7-9---6--------|
|-------------------------------------------------------------|
GtrII
|-----------------------------------------------|
|-----------------------------------------------|
|------222-------4-4-4-------222--6-6-4-4-4-----|
|-2-2--222--2-2--4-4-4--2-2--222--6-6-4-4-4-----|
|-2-2--000--2-2--2-2-2--2-2--000--4-4-2-2-2-----|
|-0-0-------0-0---------0-0---------------------|

|-----------------------------------------------|
|-----------------------------------------------|
|------222-------4-4-4-------222--6-6-4---------|
|-2-2--222--2-2--4-4-4--2-2--222--6-6-4---------|
|-2-2--000--2-2--2-2-2--2-2--000--4-4-2---------|
|-0-0-------0-0---------0-0---------------------|

DO Intro-

Verse-
GtrI
GtrI
|----------------------------------------------------------|
|----------------------------------------------------------|
|----------------------------------------------------4~----|
|-----------6--------------6-----6-6-6-66-66--66-6-6-4~----|
|-9-9-9--99---7--9-9-9--99---7-----------------------2~----|
|----------------------------------------------------------|
  * * *  ** * *  * * *  ** * *   * * * ** **  ** * *

|----------------------------------------------------------|
|----------------------------------------------------------|
|----------------------------------------------------4-4-4-|
|-----------6--------------6-----6-6-6-66-66--66-6-6-4-4-4-|
|-9-9-9--99---7--9-9-9--99---7-----------------------2-2-2-|
|----------------------------------------------------------|
  * * *  ** * *  * * *  ** * *   * * * ** **  ** * *

GtrII
|----------------------------------------------------------|
|----------------------------------------------------------|
|----------------------------------------------------------|
|------------------------------6-6-6-66-66--66-6-6-4~------|
|-2-2-2--22-22--22-2-2-6-6-6---4-4-4-44-44--44-4-4-2~------|
|-0-0-0--00-00--00-0-0-4-4-4-------------------------------|
  * * *  ** **  ** * * * * *   * * * ** **  ** * *

|----------------------------------------------------------|
|----------------------------------------------------------|
|--------------------------------------------------4-4-4---|
|------------------------------6-6-6-66-66--66-6-6-4-4-4---|
|-2-2-2--22-22--22-2-2-6-6-6---4-4-4-44-44--44-4-4-2-2-2---|
|-0-0-0--00-00--00-0-0-4-4-4-------------------------------|
  * * *  ** **  ** * * * * *   * * * ** **  ** * *

Refrain-

Chorus-

Bridge-
GtrI
|------------------------------------------|
|------------------------------------------|
|--6-6-6-6-6-6--8-8-8-8-8-8--9--11-14-13---|
|------------------------------------------|2x
|--4-4-4-4-4-4--6-6-6-6-6-6--7--9--12-11---|
|------------------------------------------|

|------------------------------------------------------|
|------------------------------------------------------|
|--6-6-6-6-6-6-6-6-6-6-6-6--111111111111-111111111111--|
|------------------------------------------------------|2x
|--4-4-4-4-4-4-4-4-4-4-4-4--9-9-9-9-9-9--9-9-9-9-9-9---|
|------------------------------------------------------|

GtrII
|------------------------------------------|
|------------------------------------------|
|--2-2-2-2-2-2--4-4-4-4-4-4--6--8----------|
|--2-2-2-2-2-2--4-4-4-4-4-4--6--8---2--4---|2x
|--0-0-0-0-0-0--2-2-2-2-2-2--4--6---2--4---|
|-----------------------------------0--2---|

|------------------------------------|
|------------------------------------|
|--2-2-2-2-2-2-----4-4-4-4-4-4-------|
|--2-2-2-2-2-2-2x--4-4-4-4-4-4-2x----|
|--0-0-0-0-0-0-----2-2-2-2-2-2-------|
|------------------------------------|

Bridge2-

GtrI
|---------------|--------------|-------------|------------------|
|---------------|--------------|-------------|------------------|
|----4-4--------|----4-4-------|---4-4-------|------------------|
|-6-------------|--6-----------|-6-----------|------------------|
|--------4-4-4--|-------6-6-6--|-------4-4-4-|-7-7-7-9-9--6-6-6-|
|---------------|--------------|-------------|------------------|

|---------------|--------------|-------------|------------------|
|---------------|--------------|-------------|------------------|
|----4-4--------|----4-4-------|---4-4-------|-9----11--8-------|
|-6-------------|--6-----------|-6-----------|------------------|
|--------4-4-4--|-------6-6-6--|-------4-4-4-|-7----9---6-------|
|---------------|--------------|-------------|------------------|

GtrII
|------------------------------------------------------|
|------------------------------------------------------|
|-161616161616161616161616-161616161616161616161616----|
|-161616161616161616161616-161616161616161616161616----|4x
|-141414141414141414141414-141414141414141414141414----|
|------------------------------------------------------|

CHorus-

GtrI
|-------------------------------------------------------------|
|-------------------------------------------------------------|
|-13-16/-6-6-6---13-16/--4-4-4--13-16/-6-6-6---9-8/--111111---|
|-------------------------------------------------------------|
|-11-14/-4-4-4---11-14/--6-6-6--11-14/-4-4-4---7-6/--9-9-9----|
|-------------------------------------------------------------|

|--------12---7--9----|-------12--------------|----9-9-9---9------------|
|------------------9--|--9h10-----9h1099------|-12-121212----11-10-9----|
|-9h11p9--------------|------------------11-9-|----------------------11-|
|---------------------|-----------------------|-------------------------|
|---------------------|-----------------------|-------------------------|
|---------------------|-----------------------|-------------------------|

GtrII do Chorus


then
GtrI
|------------------------|-----------------------------------------------|
|------------------------|-----------------------------------------------|
|-11-11-11-1111--13-9----|-13-13-13-1313--13-13----13-13-13-13--11-11-11-|
|---------------------2x-|-----------------------------------------------|
|-9--9--9--9-9---11-7----|-11-11-11-1111--11-11----11-11-11-11--9--9--9--|
|------------------------|-----------------------------------------------|

|------------------------|-----------------------------------------------|
|------------------------|-----------------------------------------------|
|-11-11-11-1111--13-9----|-13-13-13-1313--13-13----13-13-13-13--16-16-16-|
|---------------------2x-|-----------------------------------------------|
|-9--9--9--9-9---11-7----|-11-11-11-1111--11-11----11-11-11-11--14-14-14-|
|------------------------|-----------------------------------------------|


GtrII Do intro

GtrII Do intro


                               8. LOOKING UP
Tuning- Standard

Intro-
1.
GtrI
(--------------3x----------------------------------------------------|
|------------------------------|-------------------------------------|
|------------------------------|-------------------------------------|
|--9/11-1111-11--9-9--9-9--9-9-|-6-x-8-x-9--x-1111-1111111111--------|
|--9/9--9-9--9---9-9--9-9--9-9-|-7-x-9-x-11-x-1313-1313131313--------|
|--9/11-1111-11--x-x--x-x--x-x-|-7-x-9-x-11-x-1313-1313131313--------|
|----------------9-9--9-9--9-9-|-5-x-7-x-9--x-1111-1111111111--------|


2.

GtrI
(--------------3x----------------------------------------------------|
|------------------------------|-------------------------------------|
|------------------------------|-------------------------------------|
|--9/11-1111-11--9-9--9-9--9-9-|-6-x-8-x-9--x-1111-1111111111--------|
|--9/9--9-9--9---9-9--9-9--9-9-|-7-x-9-x-11-x-1313-1313131313--------|
|--9/11-1111-11--x-x--x-x--x-x-|-7-x-9-x-11-x-1313-1313131313--------|
|----------------9-9--9-9--9-9-|-5-x-7-x-9--x-1111-1111111111--------|

GtrII
|-------------------------------|-------------------------------|------------------------------|
|-------------------------------|-------------------------------|------------------------------|
|-13/12-1212-12-1313-1313-1313--|-13/20-2020-20--1313-1313-1313-|-9-x-11-x13-x-1616-1616161616-|
|-------------------------------|-------------------------------|------------------------------|
|-11/14-1414-14-1111-1111-1111--|-11/18-1818-18--1111-1111-1111-|-7-x-9--x11-x-1414-1414141414-|
|-------------------------------|-------------------------------|------------------------------|

Verse-
GtrI(palm mute)
|-------------------------------------------------------------|
|-------------------------------------------------------------|
|-------------------------------------------------------------|
|---------------6666-6-4444-4----------------6666-6-4444-4----|
|-2222-2-2222-2-4444-4-2222-2--2222-2-2222-2-4444-4-2222-2----|
|-0000-0-0000-0----------------0000-0-0000-0------------------|

GtrI(palm mute)
|-------------------------------------------------------------|
|-------------------------------------------------------------|
|-------------------------------------------------------------|
|---------------6666-6-4444-4----------------6666-6-4444-4----|
|-2222-2-2222-2-4444-4-2222-2--2222-2-2222-2-4444-4-2222-2----|
|-0000-0-0000-0----------------0000-0-0000-0------------------|

GtrII
|-12----14----12----14----12----12----11----11---------------|
|----12----12----12----12----12----12----12----12------------|
|------------------------------------------------------------|
|------------------------------------------------------------|
|------------------------------------------------------------|
|------------------------------------------------------------|

Refrain
GtrI
|------------------------------|
|------------------------------|
|-----444----------------------|
|-22--444--22------------------|
|-22--222--22------------------|
|-00-------00------------------|


|------------------------------|
|-----555----------------------|
|-----444----------------------|
|-22-------22------------------|
|-22-------22------------------|
|-00-------00------------------|


Chorus-
GtrI
|--------------------------------------------------------------------------|
|--------------------------------------------------------------------------|
|-------------------66666666-44444444--------------------44444444-44444444-|
|-77777777-22222222-66666666-44444444--77777777-22222222-44444444-44444444-|
|-77777777-22222222-44444444-22222222--77777777-22222222-22222222-22222222-|
|-55555555-00000000--------------------55555555-00000000-------------------|
GtrII
|---------------------------------------------------------------------|
|---------------------------------------------------------------------|
|--9-9-9-9-9-9-9-9-1313131313131313-9-9-9-9-9-9-9-9-8-8-8-8-8-8-8-8---|
|---------------------------------------------------------------------|
|--7-7-7-7-7-7-7-7-1111111111111111-7-7-7-7-7-7-7-7-6-6-6-6-6-6-6-6---|
|---------------------------------------------------------------------|

|---------------------------------------------------------------------|
|---------------------------------------------------------------------|
|--9-9-9-9-9-9-9-9-1313131313131313-1111111111111111-1111111111111111-|
|---------------------------------------------------------------------|
|--7-7-7-7-7-7-7-7-1111111111111111-9-9-9-9-9-9-9-9--9-9-9-9-9-9-9-9--|
|---------------------------------------------------------------------|

GtrI
|------------------------------------------------------------------------------|
|------------------------------------------------------------------------------|
|---------------------6666-666-4444-444----------------------6666-666-4444-444-|
|-7777-77-77-777--777-6666-666-4444-444--7777-77-77-777--777-6666-666-4444-444-|
|-7777-77-77-777--777-4444-444-2222-222--7777-77-77-777--777-4444-444-2222-222-|
|-5555-55-55-555--555--------------------5555-55-55-555--555-------------------|
GtrII

|-----------------------------------------------|
|-----------------------------------------------|
|-9999-99-99-999-999-11111111-111111--8888-888--|
|-----------------------------------------------|2x
|-7777-77-77-777-777-9-9-9-9--9-9-9---6666-666--|
|-----------------------------------------------|

then-

GtrI
(--------------3x----------------------------------------------------|
|------------------------------|-------------------------------------|
|------------------------------|-------------------------------------|
|--9/11-1111-11--9-9--9-9--9-9-|-6-x-8-x-9--x-1111-1111111111--------|
|--9/9--9-9--9---9-9--9-9--9-9-|-7-x-9-x-11-x-1313-1313131313--------|
|--9/11-1111-11--x-x--x-x--x-x-|-7-x-9-x-11-x-1313-1313131313--------|
|----------------9-9--9-9--9-9-|-5-x-7-x-9--x-1111-1111111111--------|

GtrII
|-------------------------------|-------------------------------|------------------------------|
|-------------------------------|-------------------------------|------------------------------|
|-13/12-1212-12-1313-1313-1313--|-13/20-2020-20--1313-1313-1313-|-9-x-11-x13-x-1616-1616161616-|
|-------------------------------|-------------------------------|------------------------------|
|-11/14-1414-14-1111-1111-1111--|-11/18-1818-18--1111-1111-1111-|-7-x-9--x11-x-1414-1414141414-|
|-------------------------------|-------------------------------|------------------------------|

Do Verse

|------------------------------|
|------------------------------|
|-----88888888-----------------|
|-22---------------------------|
|-22--66666666-----------------|
|-00---------------------------|

Do Chorus-

GtrI
|------------------------------|
|------------------------------|
|-6-66-66-6-6-6-6--------------|
|-7-77-77-7-7-7-7--------------|
|-7-77-77-7-7-7-7--------------|
|-5-55-55-5-5-5-5--------------|

GtrII
|------------------------------|
|------------------------------|
|-9-99-99-9-9-9-9--------------|
|------------------------------|
|-7-77-77-7-7-7-7--------------|
|------------------------------|

Bridge-Best part!!!
GtrI
|-------------------------------------------------------------------------|
|-------------------------------------------------------------------------|
|-------------------------------------------------------------------------|
|-------------------------------------------------------------------------|
|-------------------------------------------------------------------------|
|-0000000000000000-44444444-55555555--0000000000000000-44444444-55555555--|
GtrII
|-------------------------------------------------------------------------|
|--------------------------------------------2x---------------------------|
|-------------------------------------1313131313131313-88888888-99999999--|
|-------------------------------------------------------------------------|
|-------------------------------------1111111111111111-66666666-77777777--|
|-------------------------------------------------------------------------|

GtrI
|-------------------------------------------------------------------------|
|-------------------------------------------------------------------------|
|-------------------------------------------------------------------------|
|-2-2-xx-x-2-2-xx-x-6-6-xx-x-7-7-xx-x-2-2-xx-x-2-2-xx-x-6-6-xx-x-7-7-xx-x-|
|-2-2-xx-x-2-2-xx-x-6-6-xx-x-7-7-xx-x-2-2-xx-x-2-2-xx-x-6-6-xx-x-7-7-xx-x-|
|-0-0-xx-x-0-0-xx-x-4-4-xx-x-5-5-xx-x-0-0-xx-x-0-0-xx-x-4-4-xx-x-5-5-xx-x-|

GtrII
|----------------------------------------------|
|----------------------------------------------|
|-1313-xx-x-1313-xx-x-1616-xx-x-1818-xx-x------|
|------xx-x------xx-x------xx-x------xx-x------|2x
|-1111-xx-x-1111-xx-x-1414-xx-x-1616-xx-x------|
|----------------------------------------------|

then-
GtrI
|------------------------------|
|------------------------------|
|------------------------------|
|-44-4-444-4-44-44-9999-99-----|
|-44-4-444-4-44-44-9999-99-----|
|-22-2-222-2-22-22-7777-77-----|

GtrI
|-----------------------------------|
|-----------------------------------|
|-99-9-999-9-99-99-16161616-1616----|
|-----------------------------------|
|-77-7-777-7-77-77-14141414-1414----|
|-----------------------------------|

Do Chorus
then-

GtrI
|------------------------------------------------------------------------------|
|------------------------------------------------------------------------------|
|---------------------6666-666-4444-444----------------------6666-666-4444-444-|
|-7777-77-77-777--777-6666-666-4444-444--7777-77-77-777--777-6666-666-4444-444-|
|-7777-77-77-777--777-4444-444-2222-222--7777-77-77-777--777-4444-444-2222-222-|
|-5555-55-55-555--555--------------------5555-55-55-555--555-------------------|

GtrII


|-------------------------------------------------------------------------|
|-------------------------------------------------------------------------|
|-13131313/161616--13131313/161616--13131313-131313-11111111-111111-------|
|-------------------------------------------------------------------------|
|-11111111/141414--11111111/141414--11111111-111111-9-9-9-9--9-9-9--------|
|-------------------------------------------------------------------------|


GtrI
|-------------------------------------------------------------------------|
|-------------------------------------------------------------------------|
|-------------------------------------------------------------------------|
|-2~----------------------------------------------------------------------|
|-2~----------------------------------------------------------------------|
|-0~----------------------------------------------------------------------|

GtrII
|-------------------------------------------------------------------------|
|-------------------------------------------------------------------------|
|-9~----------------------------------------------------------------------|
|-------------------------------------------------------------------------|
|-7~----------------------------------------------------------------------|
|-------------------------------------------------------------------------|

I can't believe we ...
GtrI
|-------------------------------------------------------------------------|
|-------------------------------------------------------------------------|
|-------------------------------------------------------------------------|
|-------------------6-6-xx-x-7-7-xx-x-2-2-xx-x-2-2-xx-x-6-6-xx-x-7-7-xx-x-|
|-------------------6-6-xx-x-7-7-xx-x-2-2-xx-x-2-2-xx-x-6-6-xx-x-7-7-xx-x-|
|-------------------4-4-xx-x-5-5-xx-x-0-0-xx-x-0-0-xx-x-4-4-xx-x-5-5-xx-x-|

GtrII
|---------------------------------------------------------------------------------------|
|---------------------------------------------------------------------------------------|
|--------------------1616-xx-x-1818-xx-x-1313-xx-x-1313-xx-x-1616-xx-x-1818-xx-x--------|
|--------------------------------------------xx-x------xx-x------xx-x------xx-x---------|
|--------------------1414-xx-x-1616-xx-x-1111-xx-x-1111-xx-x-1414-xx-x-1616-xx-x--------|
|---------------------------------------------------------------------------------------|

GtrI
|-------------------------------------------------------------------------|
|-------------------------------------------------------------------------|
|-------------------------------------------------------------------------|
|-2-2-xx-x-2-2-xx-x-6-6-xx-x-7-7-xx-x-2-2-xx-x-2-2-xx-x-6-6-xx-x-77~-7777-|
|-2-2-xx-x-2-2-xx-x-6-6-xx-x-7-7-xx-x-2-2-xx-x-2-2-xx-x-6-6-xx-x-77~-7777-|
|-0-0-xx-x-0-0-xx-x-4-4-xx-x-5-5-xx-x-0-0-xx-x-0-0-xx-x-4-4-xx-x-55~-5555-|

GtrII
|----------------------------------------------|
|----------------------------------------------|
|-1313-xx-x-1313-xx-x-1616-xx-x-1818-xx-x------|
|------xx-x------xx-x------xx-x------xx-x------|2x
|-1111-xx-x-1111-xx-x-1414-xx-x-1616-xx-x------|
|----------------------------------------------|

END
GtrI
|-------------------------------------------------------------------------|
|-------------------------------------------------------------------------|
|-------------------------------------------------------------------------|
|-2~----------------------------------------------------------------------|
|-2~----------------------------------------------------------------------|
|-0~----------------------------------------------------------------------|

GtrII
|-------------------------------------------------------------------------|
|-------------------------------------------------------------------------|
|-9~----------------------------------------------------------------------|
|-------------------------------------------------------------------------|
|-7~----------------------------------------------------------------------|
|-------------------------------------------------------------------------|


                        9.WHERE THE LINES OVERLAP

Tuning- Standard

Intro-
GtrI
 E                      A         E                      A
|---------------------------00---------------------------00---|
|---------------------------00---------------------------00---|
|-1-1-1-1-1-1-1-1-1-1-1-2-2-44---1-1-1-1-1-1-1-1-1-1-2-2-44---|
|-2-2-2-2-2-2-2-2-2-2-2-2-2-22---2-2-2-2-2-2-2-2-2-2-2-2-22---|
|-2-2-2-2-2-2-2-2-2-2-2-0-0-00---2-2-2-2-2-2-2-2-2-2-0-0-00---|
|-0-0-0-0-0-0-0-0-0-0-0----------0-0-0-0-0-0-0-0-0-0----------|

Verse- 2X
GtrI + GtrII
E                      A        E                      A
|---------------------------00---------------------------00---|
|---------------------------00---------------------------00---|
|-1-1-1-1-1-1-1-1-1-1-1-2-2-44---1-1-1-1-1-1-1-1-1-1-2-2-44---|
|-2-2-2-2-2-2-2-2-2-2-2-2-2-22---2-2-2-2-2-2-2-2-2-2-2-2-22---|
|-2-2-2-2-2-2-2-2-2-2-2-0-0-00---2-2-2-2-2-2-2-2-2-2-0-0-00---|
|-0-0-0-0-0-0-0-0-0-0-0----------0-0-0-0-0-0-0-0-0-0----------|

E                      A        C#m                    B
|-0-0-0-0-0-0-0-0-0-0-0-----00---0-0-0-0-0-0-0-0-0-0-0-0-0-0-0-0-|
|-0-0-0-0-0-0-0-0-0-0-0-----00---0-0-0-0-0-0-0-0-0-0-0-0-0-0-0-0-|
|-6-6-6-6-6-6-6-6-6-6-6-9-9-99---6-6-6-6-6-6-6-6-6-6-6-4-4-4-4-4-|
|-6-6-6-6-6-6-6-6-6-6-6-9-9-99---6-6-6-6-6-6-6-6-6-6-6-4-4-4-4-4-|
|-4-4-4-4-4-4-4-4-4-4-4-7-7-77---4-4-4-4-4-4-4-4-4-4-4-2-2-2-2-2-|
|----------------------------------------------------------------|


  A
------|
------|
--6---|
--7---|
--7---|
--5---|

Chorus-
GtrI
E                 A               E                 A
|-----------------0-0-0-0-0-0-0-0-----------------0-0-0-0-0-0-0-0-|
|-0-0-0-0-0-0-0-0-0-0-0-0-0-0-0-0-0-0-0-0-0-0-0-0-0-0-0-0-0-0-0-0-|
|-1-1-1-1-1-1-1-1-2-2-2-2-2-2-2-2-1-1-1-1-1-1-1-1-2-2-2-2-2-2-2-2-|
|-2-2-2-2-2-2-2-2-2-2-2-2-2-2-2-2-2-2-2-2-2-2-2-2-2-2-2-2-2-2-2-2-|
|-2-2-2-2-2-2-2-2-0-0-0-0-0-0-0-0-2-2-2-2-2-2-2-2-0-0-0-0-0-0-0-0-|
|-0-0-0-0-0-0-0-0-----------------0-0-0-0-0-0-0-0-----------------|
C#m                A               E                 B
|-----------------------------------------------------------------|
|-----------------------------------------------------------------|
|-6-6-6-6-6-6-6-6-2-2-2-2-2-2-2-2-1-1-1-1-1-1-1-1-4-4-4-4-4-4-4-4-|
|-6-6-6-6-6-6-6-6-2-2-2-2-2-2-2-2-2-2-2-2-2-2-2-2-4-4-4-4-4-4-4-4-|2x
|-4-4-4-4-4-4-4-4-0-0-0-0-0-0-0-0-2-2-2-2-2-2-2-2-2-2-2-2-2-2-2-2-|
|---------------------------------0-0-0-0-0-0-0-0-----------------|


GtrII
|----------------------------------------------------------|
|----------------------------------------------------------|
|-131313131313131313131313-16161616-6666666666666666-------|
|----------------------------------------------------------|
|-111111111111111111111111-14141414-4444444444444444-------|
|----------------------------------------------------------|

|--------------------------------------------------------------|
|--------------------------------------------------------------|
|-131313131313131313131313-16161616-999999999999--11-11-11-11--|
|--------------------------------------------------------------|
|-111111111111111111111111-14141414-777777777777--9--9--9--9---|
|--------------------------------------------------------------|

|---------------------------------------------------------------------|
|---------------------------------------------------------------------|
|-1616161616161616-1414141414141414-1313131313131313-1111111111111111-|
|---------------------------------------------------------------------|
|-1414141414141414-1212121212121212-1111111111111111-9-9-9-9-9-9-9-9--|
|---------------------------------------------------------------------|

|-----------------------------------------------------------|
|-----------------------------------------------------------|
|-1616161616161616-1111111111111111-99999999-88888888-------|
|-----------------------------------------------------------|
|-1414141414141414-9-9-9-9-9-9-9-9--77777777-66666666-------|
|-----------------------------------------------------------|

Do Verse-then
 A    B
--------------|
--------------|
-66-66-8------|
-77-77-9------|
-77-77-9------|
-55-55-7------|

Do Chorus

Bridge-
  C#m             B/Eb             E              A
|-----------------------------------------------------------------|
|-----------------------------------------------------------------|
|-6-6-6-6-6-6-6-6-8-8-8-8-8-8-8-8-9-9-9-9-9-9-9-9-----------------|
|-6-6-6-6-6-6-6-6-9-9-9-9-9-9-9-9-9-9-9-9-9-9-9-9-7-7-7-7-7-7-7-7-|
|-4-4-4-4-4-4-4-4-6-6-6-6-6-6-6-6-7-7-7-7-7-7-7-7-7-7-7-7-7-7-7-7-|
|-------------------------------------------------5-5-5-5-5-5-5-5-|
   * * * * * * * * * * * * * * * * * * * * * * * * * * * * * * * *
    C#m             B/Eb             E              A
|-------------------------------------------------0-0-0-0-0-0-0-0-|
|-------------------------------------------------0-0-0-0-0-0-0-0-|
|-6-6-6-6-6-6-6-6-8-8-8-8-8-8-8-8-9-9-9-9-9-9-9-9-6-6-6-6-6-6-6-6-|
|-6-6-6-6-6-6-6-6-9-9-9-9-9-9-9-9-9-9-9-9-9-9-9-9-7-7-7-7-7-7-7-7-|
|-4-4-4-4-4-4-4-4-6-6-6-6-6-6-6-6-7-7-7-7-7-7-7-7-7-7-7-7-7-7-7-7-|
|-------------------------------------------------5-5-5-5-5-5-5-5-|
   * * * * * * * * * * * * * * * * * * * * * * * *
  C#m             B/Eb             E              A
|-0-0-0-0-0-0-0-0-0-0-0-0-0-0-0-0-0-0-0-0-0-0-0-0-0-0-0-0-0-0-0-0-|
|-0-0-0-0-0-0-0-0-0-0-0-0-0-0-0-0-0-0-0-0-0-0-0-0-0-0-0-0-0-0-0-0-|
|-6-6-6-6-6-6-6-6-8-8-8-8-8-8-8-8-9-9-9-9-9-9-9-9-6-6-6-6-6-6-6-6-|
|-6-6-6-6-6-6-6-6-9-9-9-9-9-9-9-9-9-9-9-9-9-9-9-9-7-7-7-7-7-7-7-7-|
|-4-4-4-4-4-4-4-4-6-6-6-6-6-6-6-6-7-7-7-7-7-7-7-7-7-7-7-7-7-7-7-7-|
|-------------------------------------------------5-5-5-5-5-5-5-5-|
  C#m             B/Eb             E
|-0-0-0-0-0-0-0-0-0-0-0-0-0-0-0-0-0-----------------------|
|-0-0-0-0-0-0-0-0-0-0-0-0-0-0-0-0-0-----------------------|
|-6-6-6-6-6-6-6-6-8-8-8-8-8-8-8-8-8-----------------------|
|-6-6-6-6-6-6-6-6-9-9-9-9-9-9-9-9-9-----------------------|
|-4-4-4-4-4-4-4-4-6-6-6-6-6-6-6-6-8-----------------------|
|---------------------------------------------------------|


Chorus-
GtrI
E                  A              E              A
|-----------------------------------------------------------------|
|-----------------------------------------------------------------|
|-11--------------6-6-6-6-6-6-6-6-1-1-1-1-1-1-1-1-6-6-6-6-6-6-6-6-|
|-22--------------7-7-7-7-7-7-7-7-2-2-2-2-2-2-2-2-7-7-7-7-7-7-7-7-|
|-22--------------7-7-7-7-7-7-7-7-2-2-2-2-2-2-2-2-7-7-7-7-7-7-7-7-|
|-00--------------5-5-5-5-5-5-5-5-0-0-0-0-0-0-0-0-5-5-5-5-5-5-5-5-|
  C#m             A               E              B
|-----------------------------------------------------------------|
|-----------------------------------------------------------------|
|-6-6-6-6-6-6-6-6-2-2-2-2-2-2-2-2-1-1-1-1-1-1-1-1-4-4-4-4-4-4-4-4-|
|-6-6-6-6-6-6-6-6-2-2-2-2-2-2-2-2-2-2-2-2-2-2-2-2-4-4-4-4-4-4-4-4-|2x
|-4-4-4-4-4-4-4-4-0-0-0-0-0-0-0-0-2-2-2-2-2-2-2-2-2-2-2-2-2-2-2-2-|
|---------------------------------0-0-0-0-0-0-0-0-----------------|

GtrII
|----------------------------------------------------------|
|----------------------------------------------------------|
|-99--------------------------------6666666666666666-------|
|-99-------------------------------------------------------|
|-77--------------------------------4444444444444444-------|
|----------------------------------------------------------|

|--------------------------------------------------------------|
|--------------------------------------------------------------|
|-131313131313131313131313-16161616-999999999999--11-11-11-11--|
|--------------------------------------------------------------|
|-111111111111111111111111-14141414-777777777777--9--9--9--9---|
|--------------------------------------------------------------|

|---------------------------------------------------------------------|
|---------------------------------------------------------------------|
|-1616161616161616-1414141414141414-1313131313131313-1111111111111111-|
|---------------------------------------------------------------------|
|-1414141414141414-1212121212121212-1111111111111111-9-9-9-9-9-9-9-9--|
|---------------------------------------------------------------------|

|-----------------------------------------------------------|
|-----------------------------------------------------------|
|-1616161616161616-1111111111111111-99999999-88888888-------|
|-----------------------------------------------------------|
|-1414141414141414-9-9-9-9-9-9-9-9--77777777-66666666-------|
|-----------------------------------------------------------|

Outro-
GtrI
E                  A              E              A
|-----------------------------------------------------------------|
|-----------------------------------------------------------------|
|-1-1-1-1-1-1-1-1-6-6-6-6-6-6-6-6-1-1-1-1-1-1-1-1-6-6-6-6-6-6-6-6-|
|-2-2-2-2-2-2-2-2-7-7-7-7-7-7-7-7-2-2-2-2-2-2-2-2-7-7-7-7-7-7-7-7-|till fade
|-2-2-2-2-2-2-2-2-7-7-7-7-7-7-7-7-2-2-2-2-2-2-2-2-7-7-7-7-7-7-7-7-|
|-0-0-0-0-0-0-0-0-5-5-5-5-5-5-5-5-0-0-0-0-0-0-0-0-5-5-5-5-5-5-5-5-|

GtrII
<---------7x---------------------------------------------------------|
|----------------------|---------------------------------------------|
|----------------------|---------------------------------------------|
|-999-88888-444-66666--|--999-88888-444-66666--111111-1313131313-----|
|-999-66666-666-44444--|--999-66666-666-44444--131313-1414141414-----|
|----------------------|---------------------------------------------|
|----------------------|---------------------------------------------|

end
|-0~---------------------------------------------------------------|
|-0~---------------------------------------------------------------|
|-1~---------------------------------------------------------------|
|-2~---------------------------------------------------------------|
|-2~---------------------------------------------------------------|
|-0~---------------------------------------------------------------|


                               10. MISGUIDED GHOST
Tuning - STANDARD

Intro-
GtrI
|-------------------|-------------------|----------------------------------|
|-------------------|-------------------|----------------------------------|
|----9---------12---|----9---------12---|----------------------------------|
|-10---10-10p9----9-|-10---10-10p9----9-|----9----9h10-9-------9---9h10-12-|2x
|-------------------|-------------------|-10---10--------10----------------|
|-------------------|-------------------|-------------------12---12--------|

GtrII
(-------------2x------------)
|-------------|-------------|------------|------------|--------------------------|
|-------------|-------------|------------|------------|-------0------------------|
|-------2-----|-------2-----|-------0----|------0-----|---------0---------0------|
|-0h2-----2p0-|-0-------0---|-0h2----2p0-|-0------0---|--2--------2--0h2----2p0--|2x
|-------------|-------------|------------|------------|--------------------------|
|-1---1-----1-|-1-(1)-----1-|-3---3----3-|-3-(3)----3-|--0--0--------0--------0--|

Verse-
GtrI
|-------------------|-------------------|----------------------------------|
|-------------------|-------------------|----------------------------------|
|----9---------12---|----9---------12---|----------------------------------|
|-10---10-10p9----9-|-10---10-10p9----9-|----9----9h10-9-------9---9h10-12-|2x
|-------------------|-------------------|-10---10--------10----------------|
|-------------------|-------------------|-------------------12---12--------|

GtrII
(-------------2x------------)
|-------------|-------------|------------|------------|--------------------------|
|-------------|-------------|------------|------------|-------0------------------|
|-------2-----|-------2-----|-------0----|------0-----|---------0---------0------|
|-0h2-----2p0-|-0-------0---|-0h2----2p0-|-0------0---|--2--------2--0h2----2p0--|2x
|-------------|-------------|------------|------------|--------------------------|
|-1---1-----1-|-1-(1)-----1-|-3---3----3-|-3-(3)----3-|--0--0--------0--------0--|

Refrain-
GtrI
|-12----12-----12----12---|-10----10---10----10---|-8-----8---8-----8--|-10----10---7-----7--|
|----13------------13-----|----12----------12-----|----10--------10----|---------------8-----|
|-12-----------12---------|-12---------12---------|-10--------10-------|-12--12-----9--------|
|-------------------------|-----------------------|--------------------|---------------------|
|-------------------------|-----------------------|--------------------|---------------------|
|-------------------------|-----------------------|--------------------|---------------------|
GtrII
|-------------------------|-----------------------|---------------------|------3--------------|
|-1----1------1---1-------|------------1----------|-----1----------1----|-3-----3--0----0-----|
|--------2----------2-----|-----0----------0------|-2-----2---2------2--|-------------0-------|
|---------2-----------2---|-2-----2----------2----|---------3---------3-|---------------------|
|-0-0---------0-0---------|---------3--3------3---|---------------------|---------------------|
|-------------------------|-0-0----------0--------|-1-1-------1-(1)-----|-3--3-----0----------|

GtrI
|-12----12-----12----12---|-10----10---10----10---|-8-----8---8-----8--|-10----10---7~-------|
|----13------------13-----|----12----------12-----|----10--------10----|------------8~-------|
|-12-----------12---------|-12---------12---------|-10--------10-------|-12--12-----9~-------|
|-------------------------|-----------------------|--------------------|---------------------|
|-------------------------|-----------------------|--------------------|---------------------|
|-------------------------|-----------------------|--------------------|---------------------|
GtrII
|------0----------0-------|-----0----------0------|--------------------|------3--------------|
|-1------1----1-----1-----|-------3----------3----|-----1---------1----|-3------3---0~-------|
|-------------------------|-----------------------|-2-----2---2-----2--|------------0~-------|
|-------------------------|-----------------------|--------------------|---------------------|
|-0-0------0--0-0-----0---|-----------------------|--------------------|---------------------|
|-------------------------|-0-0-----0--0-0------0-|-1-1-----1-1-1----1-|-3----------0~-------|

Chorus-
GtrI
|-----3-----------------------------------------------------------|
|-5-3-3-1~---------------------5-3-7-1~---------------------------|
|-5-4---0~---------------------5-4-9-2~---------------------------|
|-7-5---2~---------------------7-5---3~---------------------------|
|-----2-3~-------------------------7-3----------------------------|
|-----------------------------------------------------------------|

GtrII
|-----------------------------------------------------------------------|
|-5-3-8----------------------------5-3-0--------------------------------|
|-5-4-7-----9--------9-------9-----5-4-0------2---------2---------2-----|
|---------10-10----10-10---10-10---7-5-2-0h2----2p0---2---2---2-----2---|
|--------------------------------------2--------------------------------|
|-5-3-7-8-------88-------88------8-5-3-0-1---1----1---1----1--1-1-----1-|

GtrI
|-----3-----------------------------------------------------------|
|-5-3-3-1~---------------------5-3-7------------------------------|
|-5-4---0~---------------------5-4-9------------------------------|
|-7-5---2~---------------------7-5--------------------------------|
|-----2-3~-------------------------7------------------------------|
|-----------------------------------------------------------------|
GtrII
|----------------------------------------|
|-5-3-8----------------------------5-3-0-|
|-5-4-7-----9--------9-------9-----5-4-0-|
|-7-5-9---10-10----10-10---10-10-------2-|
|--------------------------------------2-|
|-5-3-7-8-------88-------88------8-5-3-0-|



Do Verse-Refrain


DO Chorus-
GtrI
|-----3-----------------------------------------------------------|
|-5-3-3-1~---------------------5-3-7-1~---------------------------|
|-5-4---0~---------------------5-4-9-2~---------------------------|
|-7-5---2~---------------------7-5---3~---------------------------|3x
|-----2-3~-------------------------7-3~---------------------------|
|-----------------------------------------------------------------|

GtrII
|-----------------------------------------------------------------------|
|-5-3-8----------------------------5-3-0--------------------------------|
|-5-4-7-----9--------9-------9-----5-4-0------2---------2---------2-----|
|---------10-10----10-10---10-10---7-5-2-0h2----2p0---2---2---2-----2---|3x
|--------------------------------------2--------------------------------|
|-5-3-7-8-------88-------88------8-5-3-0-1---1----1---1----1--1-1-----1-|


then

GtrI
|-----3-----------------------------------------------------------|
|-5-3-3-1~-----------------------5-3-3-5-6------------------------|
|-5-4---0~-----------------------5-4-4-5-7------------------------|
|-7-5---2~-----------------------7-5-4-5-7------------------------|
|-----2-3~-----------------------7-5-2-3-5------------------------|
|-----------------------------------------------------------------|

GtrII
|------------------------------------------------|
|-5-3-7---------------------------5-3-7--8--12---|
|-5-4-7-----9----7--9-------9-----5-4-7--9--10---|
|-7-5-9---10-10-----------10-10-------9--10-12---|
|-------------------------------------9--10-12---|
|-5-3-7-8-------8--------8--------5-3-7--8--10---|


Do Verse-

end
GtrI
|--3~--------|
|--5~--------|
|--5~--------|
|------------|
|------------|
|------------|

GtrII
|------------|
|------------|
|--2~--------|
|------------|
|--0~--------|
|------------|

                                   11.ALL I WANTED

tuning- Drop C#

Intro-2x
GtrI
|-----------------|-----------------|----------------|-----------------|
|-----------------|-----------------|----------------|-----------------|
|---------0-------|----------0------|--------0-------|---------0-------|
|-----1-----1---1-|------0-----0--0-|----5-----5---5-|-----5-----5---5-|
|-----------------|-----------------|-3-3--3-----3---|-5-5---5-----5---|
|-1-1---1-----1---|--5-5---5----5---|----------------|-----------------|

GtrII

|-------------------------------------------------------------------|
|--------------------8----------------------------------------------|
|-8-----8--7--0---------10-----8-----8--7-0-------------------------|
|-------------------------------------------------------------------|
|----------------------------------------------8/10--8/10--8--/10~--|
|-------------------------------------------------------------------|
Verse-
|-----------------|-----------------|----------------|-----------------|
|-----------------|-----------------|----------------|-----------------|
|---------0-------|----------0------|--------0-------|---------0-------|
|-----1-----1---1-|------0-----0--0-|----5-----5---5-|-----5-----5---5-|
|-----------------|-----------------|-3-3--3-----3---|-5-5---5-----5---|
|-1-1---1-----1---|--5-5---5----5---|----------------|-----------------|

|-----------------|-----------------|----------------|------------------|
|-----------------|-----------------|----------------|------------------|
|---------0-------|----------0------|--------0-------|-----0---0--------|
|-----1-----1---1-|------0-----0--0-|----5-----5---5-|-------0-------3--|
|-----------------|-----------------|-3-3--3-----3---|-5-5-------1-1--1-|
|-1-1---1-----1---|--5-5---5----5---|----------------|------------------|

Verse2-(0:27)
|-----------------|-----------------|----------------|-----------------|
|-----------------|-----------------|----------------|-----------------|
|---------0-------|----------0------|--------0-------|---------0-------|
|-----1-----1---1-|------0-----0--0-|----5-----5---5-|-----5-----5---5-|2x
|-----------------|-----------------|-3-3--3-----3---|-5-5---5-----5---|
|-1-1---1-----1---|--5-5---5----5---|----------------|-----------------|

GtrII
|-------------------------------------------------------------------|
|--------------------8----------------------------------------------|
|-8-----8--7--0----------10-----8-----8--7-0------------------------|
|-------------------------------------------------------------------|
|----------------------------------------------8/10--8/10--8--/10~--|
|-------------------------------------------------------------------|

Chorus1-
GtrI (not sure)
|-----------------|-----------------|----------------|-----------------|
|-----------------|-----------------|----------------|-----------------|
|---------0-------|----------0------|--------0-------|---------0-------|
|-----1-----1---1-|------0-----0--0-|----5-----5---5-|-----5-----5---5-|2x
|-----------------|-----------------|-3-3--3-----3---|-5-5---5-----5---|
|-1-1---1-----1---|--5-5---5----5---|----------------|-----------------|

GtrII
|-----------------------------------------------------------------|
|-----------------------------------------------------------------|
|-----------------------------------------------------------------|
|---------------------8-----------------------------8-------------|
|-8/10--8/10--8/10--8----10-8---8/10--8/10--8/10--8----10-8-------|
|-----------------------------------------------------------------|
Interlude-
GtrI
|-------------------------------------------------------------------------|
|-------------------------------------------------------------------------|
|-------------------------------------------------------------------------|
|-1-1-1-1--5-5-5-5--5-5-5-5--7-7-7-7--1-1-1-1--5-5-5-5--5-5-5-5--7-7-7-7--|2x
|-1-1-1-1--5-5-5-5--3-3-3-3--5-5-5-5--1-1-1-1--5-5-5-5--3-3-3-3--5-5-5-5--|
|-1-1-1-1--5-5-5-5--------------------1-1-1-1--5-5-5-5--------------------|

GtrII
|-------------------------------------------------------------------|
|-------------------------------------------------------------------|
|-10/12--10/12--10-12---10/15-12-10-----------8~--------------------|
|-------------------------------------4x----------------------------|
|--8/10---8/10---8/10----8/13-10-8------------6~--------------------|
|-------------------------------------------------------------------|

Do Verse2-2x
|-----------------|-----------------|----------------|-----------------|
|-----------------|-----------------|----------------|-----------------|
|---------0-------|----------0------|--------0-------|---------0-------|
|-----1-----1---1-|------0-----0--0-|----5-----5---5-|-----5-----5---5-|2x
|-----------------|-----------------|-3-3--3-----3---|-5-5---5-----5---|
|-1-1---1-----1---|--5-5---5----5---|----------------|-----------------|

GtrII
|-------------------------------------------------------------------|
|--------------------8----------------------------------------------|
|-------8--7--0---------10-----8-----8--7-0-------------------------|
|-------------------------------------------------------------------|
|----------------------------------------------8/10--8/10--8--/10~--|
|-------------------------------------------------------------------|

|-------------------------------------------------------------------|
|--------------------8----------------------------------------------|
|-------8--7--0---------10-----8-----8--7-0-------------------------|
|-------------------------------------------------------------------|
|----------------------------------------------8/10-----------------|
|-------------------------------------------------------------------|
Chorus-
GtrI
|-------------------------------------------------------------------------|
|-------------------------------------------------------------------------|
|-------------------------------------------------------------------------|
|-1-1-1-1--5-5-5-5--5-5-5-5--7-7-7-7--1-1-1-1--5-5-5-5--5---5-------3-/---|
|-1-1-1-1--5-5-5-5--3-3-3-3--5-5-5-5--1-1-1-1--5-5-5-5--3---3-------1-/---|
|-1-1-1-1--5-5-5-5--------------------1-1-1-1--5-5-5-5--------------------|

|-------------------------------------------------------------------------|
|-------------------------------------------------------------------------|
|-------------------------------------------------------------------------|
|-1-1-1-1--5-5-5-5--5-5-5-5--7-7-7-7--1-1-1-1--5-5-5-5--5-5-5-5--7-7-7-7--|
|-1-1-1-1--5-5-5-5--3-3-3-3--5-5-5-5--1-1-1-1--5-5-5-5--3-3-3-3--5-5-5-5--|
|-1-1-1-1--5-5-5-5--------------------1-1-1-1--5-5-5-5--------------------|

GtrII
|----------------------------------|-----------------------------------|
|----------------------------------|-----------------------------------|
|-10/12--10/12--10-12--10/15-12-10-|-10/12--10/12--10-12--10/15-12-10--|
|----------------------------------|-----------------------------------|
|--8/10---8/10---8/10---8/13-10-8--|--8/10----8/10---8/10--8/13-10-8---|
|----------------------------------|-----------------------------------|

|----------------------------------|-----------------------------------|
|----------------------------------|-----------------------------------|
|-10/12--10/12--10-12--10/15-12-10-|-10/12--12~------10/---------------|
|----------------------------------|-----------------------------------|
|--8/10---8/10---8/10---8/13-10-8--|--8/10~-10~------8/----------------|
|----------------------------------|-----------------------------------|

|----------------------------------|-----------------------------------|
|----------------------------------|-----------------------------------|
|-10/12--10/12--10-12--10/15-12-10-|-10/12--10/12--10-12--10/15-12-10--|
|----------------------------------|-----------------------------------|2x
|--8/10---8/10---8/10---8/13-10-8--|--8/10----8/10---8/10--8/13-10-8---|
|----------------------------------|-----------------------------------|
Interlude-

GtrI
|-------------------------------------------------------------------|
|-------------------------------------------------------------------|
|-------------------------------------------------------------------|
|------------------------------------5-5-5-5-5-5-5-5-7-7-7-7-7-7-7--|2x
|-1-1-1-1-1-1-1-1--5-5-5-5-5-5-5-5---3-3-3-3-3-3-3-3-5-5-5-5-5-5-5--|
|-1-1-1-1-1-1-1-1--5-5-5-5-5-5-5-5----------------------------------|

GtrII
|----------(11)(10)--------------|-----------(11)(10)----------------|
|--------------------------------|-----------------------------------|
|-8~---7~---8----7~-10~-----12~--|---8~---7~--8----7~--10~-(10)^-----|
|--------------------------------|-----------------------------------|
|--------------------------------|-----------------------------------|
|--------------------------------|-----------------------------------|


Verse3-
GtrI(palm muted)
|-------------------------------------------------------------------|
|-------------------------------------------------------------------|
|-------------------------------------------------------------------|
|-----------------------------------5-5-5-5-5-5-5-5-7-7-7-7-7-7-7-7-|
|-1-1-1-1-1-1-1-1--3-3-3-3-3-3-3-3--3-3-3-3-3-3-3-3-5-5-5-5-5-5-5-5-|
|-1-1-1-1-1-1-1-1--3-3-3-3-3-3-3-3----------------------------------|

|-------------------------------------------------------------------|
|-------------------------------------------------------------------|
|-------------------------------------------------------------------|
|-----------------------------------5-5-5-5-5-5-5-5-7-7-7-7-3-3-3-3-|
|-1-1-1-1-1-1-1-1--3-3-3-3-3-3-3-3--3-3-3-3-3-3-3-3-5-5-5-5-1-1-1-1-|
|-1-1-1-1-1-1-1-1--3-3-3-3-3-3-3-3----------------------------------|

|-------------------------------------------------------------------|
|-------------------------------------------------------------------|
|-------------------------------------------------------------------|
|-----------------------------------5-5-5-5-5-5-5-5-7-7-7-7-7-7-7-7-|2x
|-1-1-1-1-1-1-1-1--3-3-3-3-3-3-3-3--3-3-3-3-3-3-3-3-5-5-5-5-5-5-5-5-|
|-1-1-1-1-1-1-1-1--3-3-3-3-3-3-3-3----------------------------------|

GtrII
|--------------------------------------------------------|
|------------------------------8888----------------------|
|-88888888-8888-7777--00000000------10101010-------------|(palm muted)
|--------------------------------------------------------|
|--------------------------------------------------------|
|--------------------------------------------------------|

|--------------------------------------------------------|
|--------------------------------------------------------|
|-88888888-8888-7777--00000000---------------------------|
|--------------------------------------------------------|(palm muted)
|-------------------------------8-1010-8-1010-8-1010-88--|
|--------------------------------------------------------|

|-11----11----10-----------11---11----13-----------------|
|----8-----8-----8----8-------8----8-----11--11----------|
|------------------10----------------------12------------|
|--------------------------------------------------------|2x
|--------------------------------------------------------|
|--------------------------------------------------------|

cHORUS-
2:40-solo vocals

then @ 2;46

GtrI

|-----------------------------------------------------------------------------|
|-----------------------------------------------------------------------------|
|-----------------------------------------------------------------------------|
|-0---1-1-1-1--5-5-5-5--5-5-5-5--7-7-7-7--1-1-1-1--5-5-5-5--5-5-5-5--7-7-7-7--|3x
|-0---1-1-1-1--5-5-5-5--3-3-3-3--5-5-5-5--1-1-1-1--5-5-5-5--3-3-3-3--5-5-5-5--|
|-0---1-1-1-1--5-5-5-5--------------------1-1-1-1--5-5-5-5--------------------|

|-------------------------------------------------------------------------|
|-------------------------------------------------------------------------|
|-------------------------------------------------------------------------|
|-1-1-1-1--5-5-5-5--5-5-5-5--7-7-7-7--1-1-1-1--5-5-5-5--5-5-5-5--7-7-7-7--|3x
|-1-1-1-1--5-5-5-5--3-3-3-3--5-5-5-5--1-1-1-1--5-5-5-5--3-3-3-3--5-5-5-5--|
|-1-1-1-1--5-5-5-5--------------------1-1-1-1--5-5-5-5--------------------|

GtrII
|---------------------------------------|-----------------------------------|
|---------------------------------------|-----------------------------------|
|-7-~--10/12--10/12--10-12--10/15-12-10-|-10/12--10/12--10-12--10/15-12-10--|
|---------------------------------------|-----------------------------------|
|-5-~---8/10---8/10---8/10---8/13-10-8--|--8/10----8/10---8/10--8/13-10-8---|
|---------------------------------------|-----------------------------------|

|----------------------------------|-----------------------------------|
|----------------------------------|-----------------------------------|
|-10/12--10/12--10-12--10/15-12-10-|-10/12--12~---77-77~--77--7777~----|
|----------------------------------|-----------------------------------|
|--8/10---8/10---8/10---8/13-10-8--|--8/10~-10~---55-55~--55--5555~----|
|----------------------------------|-----------------------------------|

|----------------------------------|-----------------------------------|
|----------------------------------|-----------------------------------|
|-10/12--10/12--10-12--10/15-12-10-|-10/12--10/12--10-12--10/15-12-10--|
|----------------------------------|-----------------------------------|
|--8/10---8/10---8/10---8/13-10-8--|--8/10----8/10--8/10---8/13-10-8---|
|----------------------------------|-----------------------------------|

|----------------------------------|-----------------------------------|
|----------------------------------|-----------------------------------|
|-10/12--10/12--10-12--10/15-12-10-|-10/12--10/12--10-12--10/15-12-10--|
|----------------------------------|-----------------------------------|
|--8/10---8/10---8/10---8/13-10-8--|--8/10----8/10--8/10---8/13-10-8---|
|----------------------------------|-----------------------------------|


END WITH
GtrI
----|
----|
----|
-1~-|
-1~-|
-1~-|

GtrII
----|
----|
-8~-|
----|
-6~-|
----|
.


                              2.DECODE

tuning - Drop C#
GtrI
|--------------------10--------------------10------------------------|
|----12---12---12---------12----12---12------------------------------|
|-------11---11---11---11----11---11----11---11----------------------|
|--------------------------------------------------------------------|
|--------------------------------------------------------------------|
|--------------------------------------------------------------------|

|-------------------13-------------------12--------------------------|
|--12---12----12---------12----12----12------------------------------|
|-----14---14----14---14----14----14---------------------------------|
|--------------------------------------------------------------------|
|--------------------------------------------------------------------|
|--------------------------------------------------------------------|


Verse-
GtrI do Intro

GtrII Palm mute
|--------------------------------------------------------------------|
|--------------------------------------------------------------------|
|--------------------------------------------------------------------|
|--------------------------------------------------------------------|2x
|-5555555555555555-2222222222222222-9999999999999999-444444444444444-|
|-5555555555555555-2222222222222222-9999999999999999-444444444444444-|

Refrain-
Gtr I do intro
GtrII
|--------------------------------------------------------------------|
|--------------------------------------------------------------------|
|--------------------------------------------------------------------|
|-5~---------------2~---------------9~--------------4444444444444444-|
|-5~---------------2~---------------9~--------------4444444444444444-|
|-5~---------------2~---------------9~--------------4444444444444444-|
                                                     ********

Chorus-

GtrI2x
|------------------9~--------------------------9~--------------------|
|-12----12----12—----12------12-----12----12------12-----------------|
|----11----11---11-----10~--------11----11---11-----10---------------|
|--------------------------------------------------------------------|
|--------------------------------------------------------------------|
|--------------------------------------------------------------------|

|-------------------14-----12~---------------------------------------|
|-12----12----12-----------------------------------------------------|
|----14----14----14----14--------------------------------------------|
|--------------------------------------------------------------------|
|--------------------------------------------------------------------|
|--------------------------------------------------------------------|
GtrII
|--------------------------------------------------------------------|
|--------------------------------------------------------------------|
|--------------------------------------------------------------------|
|-5-5-5-5-5-5-5-5--2-2-2-2-2-2-2-2--9-9-9-9-9-9-9-9-4-4-4-4-4-4-4-4--|2x
|-5-5-5-5-5-5-5-5--2-2-2-2-2-2-2-2--9-9-9-9-9-9-9-9-4-4-4-4-4-4-4-4--|
|-5-5-5-5-5-5-5-5--2-2-2-2-2-2-2-2--9-9-9-9-9-9-9-9-4-4-4-4-4-4-4-4--|


Then
GtrI
|--------------------------------------------------------------------|
|-12----12----12----12-----10--10--10--------------------------------|
|----11----11----11----11----9---9---9-------------------------------|
|--------------------------------------------------------------------|
|--------------------------------------------------------------------|
|--------------------------------------------------------------------|

GtrII
|-------------------------------------|
|-------------------------------------|
|-------------------------------------|
|-9----------------0-----7----------4-|
|-9----------------0-----7---------44-|
|-9----------------0-----7---------44-|

Do verse - chorus

Solo-
|-------------------------------14------|
|--14^(15)^14-12--14^(15)^14-12-----12--|
|---------------------------------------|
|---------------------------------------|2x
|---------------------------------------|
|---------------------------------------|

|---------------------------------------|
|-14^(15)^14-12-12-10-10----------------|
|--------------------------6-s-7—s-9~---|
|---------------------------------------|
|---------------------------------------|
|---------------------------------------|

|-------------------------------14------|
|--14^(15)^14-12--14^(15)^14-12-----12--|
|---------------------------------------|
|---------------------------------------|2x
|---------------------------------------|
|---------------------------------------|

|---------------------17--19------------|
|-14---14/15--15-15----------15---14~---|
|---------------------------------------|
|---------------------------------------|
|---------------------------------------|
|---------------------------------------|

Bridge-

GtrI
|-11~------------------10~---------------------14~---------------12~-|
|-12~------------------12~---------------------12~---------------12~-|
|-11~------------------11~---------------------14~----------------9~-|
|--------------------------------------------------------------------|2x
|--------------------------------------------------------------------|
|--------------------------------------------------------------------|
GtrII
|--------------------------------------------------------------------|
|--------------------------------------------------------------------|
|--------------------------------------------------------------------|
|-5~----------------2~---------------9~--------------4~--------------|
|-5~----------------2~---------------9~--------------4~--------------|
|-5~----------------2~---------------9~--------------4~--------------|

Do Chorus-

Outro-
|------------14----------------------------14------------------------|
|-15-14--12----12---15---17-----15-14--12----12---15---17------------|
|---------------------------14~---------------------------14~--------|2x
|--------------------------------------------------------------------|
|--------------------------------------------------------------------|
|--------------------------------------------------------------------|


|--------------------------------------------------------------------|
|-15-15-15~--s----14~------------------------------------------------|
|--------------------------------------------------------------------|
|--------------------------------------------------------------------|
|--------------------------------------------------------------------|
|--------------------------------------------------------------------|

GtrII
|---------------------------------------------------------------------|
|---------------------------------------------------------------------|
|---------------------------------------------------------------------|
|-5---7---2---9-4--5---9---4---7----5---7---2---9-4--5---9---4--2-2-2~|
|-5---7---2---9-4--5---9---4---7-2x-5---7---2---9-4--5---9---4--2-2-2~|
|-5---7---2---9-4--5---9---4---7----5---7---2---9-4--5---9---4--2-2-2~|


                              13.IGNORANCE Acoustic(from deluxe edition)


Intro-
GtrI do
|--------------------------------------------------------------------|
|-77-77-7----------------------------33-33-3-------------------------|
|-77-77-7--7-7--7-7--7------44-44-4--x--xx-x-44-44-4-----------------|
|-99-99-9--7-7--7-7--7--2x--55-55-5--44-44-4-55-55-5--------7--4-----|
|-99-99-9--x-x--x-x--x------55-55-5--55-55-5-55-55-5--55-44----4-----|
|-77-77-7--1010-1010-10-----33-33-3----------33-33-3-----------2-----|

GtrII do  2x

|-----------------------------------------------------------5----|
|-77-77-7--1010-1010-10-----88-88-8-77-77-7-88-88-8---77-55-5----|
|-77-77-7--7-7--7-7--7------99-99-9-77-77-7-99-99-9---77-66------|
|-99-99-9--7-7--7-7--7--2x--99-99-9---------99-99-9------------4-|
|-99-99-9--x-x--x-x--x------77-77-7-55-55-5-77-77-7--------------|
|-77-77-7--------------------------------------------------------|

VerseI
1.-
GtrI PALM MUTE
|-------------------------------|
|-------------------------------|
|-------------------------------|
|-----9-----9--------9-----9----|2x
|---9-----9---9----9-----9---9--|
|-7--------------7--------------|

|----------------------------------------------------------------|
|----------------------------------------------------------------|
|--------------------------------2---2-----------2---------------|
|------9---9--------9---9------0---0---0-------0---0-------------|
|---10--10--10---10--10--10--------------------------------------|
|-0------------0-------------3-------------3---------------------|


2.

|-------------------------------|
|-------------------------------|
|-------------------------------|
|-----9---9--9--9---9---9--9----|2x
|---9---9--9---9--9---9---9--9--|
|-7-----------------------------|

|----------------------------------------------------------------|
|----------------------------------------------------------------|
|--------------------------------2--2--2---------2---2---2-------|
|-----9--9--9------9--9--9------0--0--0--0-----0---0---0---0-----|
|---10-10-10-10--10-10-10-10-------------------------------------|
|-0-------------0-------------3-------------3--------------------|

GtrII2x
|------------------------------------------|
|------------------------------------------|
|------------------------------------------|
|------------------------------------------|
|-2-5555555-2-5555555-2-5555555-99999999---|
|------------------------------------------|
  * ******* * ******* * ******* ********

|-----------------------------------------|
|-----------------------------------------|
|-----------------------------------------|
|-----------------------------------------|
|-77777777-77777777--55555555-44444444----|
|-----------------------------------------|
  ******** ********  ******** ********


REfrain 2x
GtrI

|-------------------------------|
|-------------------------------|
|-------------------------------|
|---9-x-9----------9-x-9--------|2x
|---------999------------999----|
|-77------------77--------------|


|-------------------------------------------------------------|
|-------------------------------------------------------------|
|-------------------------------------------------------------|
|---9-x-9----------9-x-9----------7-x-7----------7-x-7--------|
|---------101010--------101010-----------555-------------555--|
|00--------------00-------------33-------------33-------------|


GtrII
|----------------------------------------------------------------------------|
|----------------------------------------------------------------------------|
|-77777777-77777777-77777777-111111111111-99999999-99999999-7777777-66666666-|
|----------------------------------------------------------------------------|2x
|-55555555-55555555-55555555-9-9-9-9-9-9--77777777-77777777-5555555-44444444-|
|----------------------------------------------------------------------------|

then both
|-----------------------|
|-----------------------|
|-----------------------|
|-22-xxx-2-2---2-5------|
|-22-xxx-2-2---2-5------|
|-00-xxx-0-0---0-3------|

Chorus-
GtrI
|--------------------------------------------------------------------|
|-77-77-7----------------------------33-33-3-------------------------|
|-77-77-7--7-7--7-7--7------44-44-4--x--xx-x-44-44-4-----------------|
|-99-99-9--7-7--7-7--7--2x--55-55-5--44-44-4-55-55-5--------7--4-----|
|-99-99-9--x-x--x-x--x------55-55-5--55-55-5-55-55-5--55-44----4-----|
|-77-77-7--1010-1010-10-----33-33-3----------33-33-3-----------2-----|

|--------------------------------------------------------------------|
|-7777777----------------------------33-33-3-------------------------|
|-7777777-11111111111111----44-44-4--x--xx-x-44-44-4-----------------|
|-9999999-12121212121212-2X-55-55-5--44-44-4-55-55-5--------7--4-----|
|-9999999-12121212121212----55-55-5--55-55-5-55-55-5--55-44----4-----|
|-7777777-10101010101010----33-33-3----------33-33-3-----------2-----|

GtrII
|-----------------------------------------------------------5----|
|-77-77-7--1010-1010-10-----88-88-8-77-77-7-88-88-8---77-55-5----|
|-77-77-7--7-7--7-7--7------99-99-9-77-77-7-99-99-9---77-66------|
|-99-99-9--7-7--7-7--7--2x--99-99-9---------99-99-9------------4-|
|-99-99-9--x-x--x-x--x------77-77-7-55-55-5-77-77-7--------------|
|-77-77-7--------------------------------------------------------|

|-----------------------------------------------------------5----|
|-7777777--10101010101010---88-88-8-77-77-7-88-88-8---77-55-5----|
|-7777777--7-7-7-7-7-7-7----99-99-9-77-77-7-99-99-9---77-66------|
|-9999999--7-7-7-7-7-7-7-2x-99-99-9---------99-99-9------------4-|
|-9999999--7-7-7-7-7-7-7----77-77-7-55-55-5-77-77-7--------------|
|-7777777--------------------------------------------------------|

then
Ignorance is....
|-------------------------------|
|-------------------------------|
|-------------------------------|
|---9-x-9----------9-x-9--------|2x
|---------999------------999----|
|-77------------77--------------|

|-------------------------------------------------------------|
|-------------------------------------------------------------|
|-------------------------------------------------------------|
|---9-x-9---------9-x-9-----------7-x-7-----------------------|
|--------101010--------101010-----------555-------------------|
|-00------------00-------------33-----------------------------|


VerseII-Do 2 part of VerseI

GtrII same as verses
repeat verse 2-to refrain


Repeat chorus-

Ignorance is your new best friend....
|--------------------------------------|
|--------------------------------------|
|--------------------------------------|
|-9-xx-xxx-xxx-xxx2-xx-xxx5-xx---------|
|-9-xx-xxx-xxx-xxx2-xx-xxx5-xx---------|
|-7-xx-xxx-xxx-xxx0-xx-xxx3-xx---------|

|-----------------------------------|
|-----------------------------------|
|-----------------------------4444--|
|-9-x9-99999-2-xx-xxx5--xx-xx-5555--|
|-9-xx-xxxxx-2-xx-xxx5--xx-xx-5555--|
|-7-xx-xxxxx-0-xx-xxx3--xx-xx-3333--|

solo-(live version)
GtrI
|------------------------------------------------------------------------|
|-1515151515151515-14141414-12121212-7-7-7-7-7-7-7-7--8-8-8-8--7-7-7-7---|x
|------------------------------------------------------------------------|
|-1212121212121212-11111111-9-9-9-9--4-4-4-4-4-4-4-4--5-5-5-5--4-4-4-4---|
|------------------------------------------------------------------------|
|------------------------------------------------------------------------|

|------------------------------------------------------------------------|
|-1515151515151515-14141414-17171717-1919191919191919-2222222222222222---|x
|------------------------------------------------------------------------|
|-1212121212121212-11111111-14141414-1616161616161616-1919191919191919---|
|------------------------------------------------------------------------|
|------------------------------------------------------------------------|

GtrII

|-----------------------------------------------------------------|
|-----------------------------------------------------------------|
|-----------------------------------------------------------------|
|-9-9-9-9-9-9-9-9-9-9-9-9-9-9-9-9-4-4-4-4-4-4-4-4-7-7-7-7-7-7-7-7-|2x
|-9-9-9-9-9-9-9-9-9-9-9-9-9-9-9-9-4-4-4-4-4-4-4-4-7-7-7-7-7-7-7-7-|
|-7-7-7-7-7-7-7-7-7-7-7-7-7-7-7-7-2-2-2-2-2-2-2-2-5-5-5-5-5-5-5-5-|

then
|-----------------------|
|-----------------------|
|-----------------------|
|-22-xxx-2-2---2-5------|
|-22-xxx-2-2---2-5------|
|-00-xxx-0-0---0-3------|

Do chorus

GtrI
|--------------------------------------------------------------------|
|-7777777----------------------------33-33-3-------------------------|
|-7777777-11111111111111----44-44-4--x--xx-x-44-44-4-----------------|
|-9999999-12121212121212-2X-55-55-5--44-44-4-55-55-5--------7--4-----|
|-9999999-12121212121212----55-55-5--55-55-5-55-55-5--55-44----4-----|2x
|-7777777-10101010101010----33-33-3----------33-33-3-----------2-----|

GtrII
|-----------------------------------------------------------5----|
|-7777777--10101010101010---88-88-8-77-77-7-88-88-8---77-55-5----|
|-7777777--7-7-7-7-7-7-7----99-99-9-77-77-7-99-99-9---77-66------|
|-9999999--7-7-7-7-7-7-7-2x-99-99-9---------99-99-9------------4-|2x
|-9999999--7-7-7-7-7-7-7----77-77-7-55-55-5-77-77-7--------------|
|-7777777--------------------------------------------------------|


                                  14.Turn it off acoustic

Tuning - standard

Intro-Am-G/B-C-F 4x

GtrI
xxx|-------------------------------------|------------------------------|
xxx|-------------------------------------|------------------------------|
xxx|-------------------------------------|------------------------------|
xxx|-/10-9-10-9--------------------------|-/10-9-10-9-------------------|
xxx|------------10-5-5--7-7/8--7--000~---|------------10-5-5-7-7/8-7----|
xxx|-------------------------------------|------------------------------|

|-------------------------------------|--------------------------------|
|-/13-12-13-12------------------------|-/13-12-13-12-------------------|
|--------------12--7-7--9-9/10-9------|-------------12--7-7-9-9/10-9-7-|
|--------------------------------777--|--------------------------------|
|-------------------------------------|--------------------------------|
|-------------------------------------|--------------------------------|


Verse-Am C Dm F 2x
|-------0-------|-------0-------|-------0-------|-------0---------|
|-----1---1---1-|-----1---1---1-|-----1---1---1-|-----1---1---1---|
|---2-------2---|---2-------2---|---2-------2---|---2-------2-----|
|---------------|---------------|-0-------------|-3---------------|2x
|-0-------------|-3-------------|---------------|-----------------|
|---------------|---------------|---------------|-----------------|

Refrain-Am C Dm F 2x
GtrI
|-----12--15--12---|-----12------12---|-----12------12---|-----10------10---|
|---13--13--13--13-|---13--13--13--13-|---13--13--13--13-|---13--13--13--13-|
|-14---------------|-12------12-------|-10------10-------|-12------12-------|
|------------------|------------------|------------------|------------------|
|------------------|------------------|------------------|------------------|
|------------------|------------------|------------------|------------------|

|-----12--15--12---|-----12------12---|-----12------12---|-10~--------------|
|---13--13--13--13-|---13--13--13--13-|---13--13--13--13-|-13~--------------|
|-14---------------|-12------12-------|-10------10-------|-12~--------------|
|------------------|------------------|------------------|------------------|
|------------------|------------------|------------------|------------------|
|------------------|------------------|------------------|------------------|

Chorus-C  G  Am  F   G 2x
GtrI
|-------------------------------------------------------------|
|-------------------------------------------------------------|
|-7-55-7-5555-4-4-4-4-4-4-4--44---55--12121212----4-55-22-555-|
|-5-55-5-5555-5-5-5-5-5-5-5--xx---xx---x-x-x-x----x-xx-xx-xxx-|2x
|----------------------------22---33--10101010----2-33-22-333-|
|-------------------------------------------------------------|

then

GtrI
|-------------------------------------|
|-------------------------------------|
|-------------------------------------|
|-/10-9-10-9-5------------------------|
|--------------5-5--7-s-8--7--000~----|
|-------------------------------------|

|---------------------------------------|
|-/13-12-13-12--------------------------|
|-------------12--7-7-9-9/10-9-10-s-12~-|
|---------------------------------------|
|---------------------------------------|
|---------------------------------------|

Do Verse-chorus


Solo-Am-G/B-C-F 4x


GtrI
|-------------------------------------|-------------------------------------|
|-------------------------------------|-/13-12-13-12------------------------|
|-------------------------------------|-------------12--7-7-9-9/10-9--------|
|-/10-9-10-9-5------------------------|-------------------------------------|
|--------------5-5--7-s-8--7--000~----|-------------------------------------|
|-------------------------------------|-------------------------------------|

|----8---10-8----13-12-------|----------20-19------15-17-15---------|
|---------------------15-13--|-----17-----------17------------13----|
|--9---9---------------------|-----------------------------14-------|
|----------------------------|--19---19-------------------------14~-|
|----------------------------|--------------------------------------|
|----------------------------|--------------------------------------|

Bridge-Am C G F 2x
|--------------------------------------------------------|
|-----------13~-----------15~------------13~-------------|
|-----------12~-----------14~-14---------14~--14---------|
|-----------14~-----------12-------------15~-------------|
|--------------------------------------------------------|
|--------------------------------------------------------|

|--------------------------------------------------------|
|-13~--------13~-----------15~------------13~----15~-----|
|-14~--------12~-----------14~------------14~----16~-----|
|-14~--------14~-----------12-14~---------15~------------|
|--------------------------------------------------------|
|--------------------------------------------------------|


Bridge-Am C F G 2x
|-----------------------------------------------------------------------|
|-----------------------------------------------------------------------|
|-7-5-5-7-5-5-7-5-7-5-5-7-5-5-7-5-7-5-5-7-5-5-7-5-7-4-4-4-4-4-4-4-4-4---|
|-5-5-5-5-5-5-5-5-5-5-5-5-5-5-5-5-5-5-5-5-5-5-5-5-5-5-5-5-5-5-5-5-5-5---|2x
|-----------------------------------------------------------------------|
|-----------------------------------------------------------------------|

Do  Chorus-

then
GtrII do chorus chords

GtrI
|-12-1010-1515-121212---12-1010-1515-121212--77-88-10101010--55-77--888-|
|-----------------------------------------------------------------------|
|-----------------------------------------------------------------------|2x
|-----------------------------------------------------------------------|
|-----------------------------------------------------------------------|
|-----------------------------------------------------------------------|


end C
|-12~---------------|
|-13~---------------|
|-------------------|
|-------------------|
|-------------------|
|-------------------|


                        15.Where the lines Overlap Acoustic
PAramore-WHERE THE LINES OVERLAP  acoustic

tabbed by Francis
09283150081

Tuning- Standard

Intro-
 E                      A         E                      A
|---------------------------00---------------------------00---|
|---------------------------00---------------------------00---|
|-1-1-1-1-1-1-1-1-1-1-1-2-2-22---1-1-1-1-1-1-1-1-1-1-2-2-22---|
|-2-2-2-2-2-2-2-2-2-2-2-2-2-22---2-2-2-2-2-2-2-2-2-2-2-2-22---|
|-2-2-2-2-2-2-2-2-2-2-2-0-0-00---2-2-2-2-2-2-2-2-2-2-0-0-00---|
|-0-0-0-0-0-0-0-0-0-0-0----------0-0-0-0-0-0-0-0-0-0----------|


Verse- 2X
E                      A        E                      A
|---------------------------00---------------------------00---|
|---------------------------00---------------------------00---|
|-1-1-1-1-1-1-1-1-1-1-1-2-2-22---1-1-1-1-1-1-1-1-1-1-2-2-22---|
|-2-2-2-2-2-2-2-2-2-2-2-2-2-22---2-2-2-2-2-2-2-2-2-2-2-2-22---|
|-2-2-2-2-2-2-2-2-2-2-2-0-0-00---2-2-2-2-2-2-2-2-2-2-0-0-00---|
|-0-0-0-0-0-0-0-0-0-0-0----------0-0-0-0-0-0-0-0-0-0----------|

E                      A        C#m                    B
|-0-0-0-0-0-0-0-0-0-0-0-----00---0-0-0-0-0-0-0-0-0-0-0-0-0-0-0-0-|
|-0-0-0-0-0-0-0-0-0-0-0-----00---0-0-0-0-0-0-0-0-0-0-0-0-0-0-0-0-|
|-6-6-6-6-6-6-6-6-6-6-6-9-9-99---6-6-6-6-6-6-6-6-6-6-6-4-4-4-4-4-|
|-6-6-6-6-6-6-6-6-6-6-6-9-9-99---6-6-6-6-6-6-6-6-6-6-6-4-4-4-4-4-|
|-4-4-4-4-4-4-4-4-4-4-4-7-7-77---4-4-4-4-4-4-4-4-4-4-4-2-2-2-2-2-|
|----------------------------------------------------------------|


  A
------|
------|
--6---|
--7---|
--7---|
--5---|

Chorus-
GtrII
E                 A               E                 A
|-----------------0-0-0-0-0-0-0-0-----------------0-0-0-0-0-0-0-0-|
|-0-0-0-0-0-0-0-0-0-0-0-0-0-0-0-0-0-0-0-0-0-0-0-0-0-0-0-0-0-0-0-0-|
|-1-1-1-1-1-1-1-1-2-2-2-2-2-2-2-2-1-1-1-1-1-1-1-1-2-2-2-2-2-2-2-2-|
|-2-2-2-2-2-2-2-2-2-2-2-2-2-2-2-2-2-2-2-2-2-2-2-2-2-2-2-2-2-2-2-2-|
|-2-2-2-2-2-2-2-2-0-0-0-0-0-0-0-0-2-2-2-2-2-2-2-2-0-0-0-0-0-0-0-0-|
|-0-0-0-0-0-0-0-0-----------------0-0-0-0-0-0-0-0-----------------|
C#m                A               E                 B
|-----------------------------------------------------------------|
|-----------------------------------------------------------------|
|-6-6-6-6-6-6-6-6-2-2-2-2-2-2-2-2-1-1-1-1-1-1-1-1-4-4-4-4-4-4-4-4-|
|-6-6-6-6-6-6-6-6-2-2-2-2-2-2-2-2-2-2-2-2-2-2-2-2-4-4-4-4-4-4-4-4-|2x
|-4-4-4-4-4-4-4-4-0-0-0-0-0-0-0-0-2-2-2-2-2-2-2-2-2-2-2-2-2-2-2-2-|
|---------------------------------0-0-0-0-0-0-0-0-----------------|


GtrII
|----------------------------------------------------------|
|-999999999999-12-12-12-12---------------------------------|
|----------------------------------------------------------|
|-------------------------11111111111111111111111111111111-|
|----------------------------------------------------------|
|----------------------------------------------------------|

|----------------------------------------------------------|
|-999999999999-12-12-12-12---------------------------------|
|-----------------------------999999999999-11-11-11-11-----|
|----------------------------------------------------------|
|----------------------------------------------------------|
|----------------------------------------------------------|

|------------------------------------------------------------|
|-1212121212121212-1010101010101010-99999999-----------------|
|-------------------------------------------1111111111111111-|
|------------------------------------------------------------|
|------------------------------------------------------------|
|------------------------------------------------------------|

|-----------------------------------------------------------|
|-1212121212121212------------------------------------------|
|------------------1111111111111111-99999999-88888888-------|
|-----------------------------------------------------------|
|-----------------------------------------------------------|
|-----------------------------------------------------------|

Do Verse-then
 A    B
--------------|
--------------|
-66-66-8------|
-77-77-9------|
-77-77-9------|
-55-55-7------|

Do Chorus

Bridge-
  C#m             B/Eb             E              A
|-----------------------------------------------------------------|
|-----------------------------------------------------------------|
|-6-6-6-6-6-6-6-6-8-8-8-8-8-8-8-8-9-9-9-9-9-9-9-9-----------------|
|-6-6-6-6-6-6-6-6-9-9-9-9-9-9-9-9-9-9-9-9-9-9-9-9-7-7-7-7-7-7-7-7-|
|-4-4-4-4-4-4-4-4-6-6-6-6-6-6-6-6-7-7-7-7-7-7-7-7-7-7-7-7-7-7-7-7-|
|-------------------------------------------------5-5-5-5-5-5-5-5-|
   * * * * * * * * * * * * * * * * * * * * * * * * * * * * * * * *
    C#m             B/Eb             E              A
|-------------------------------------------------0-0-0-0-0-0-0-0-|
|-------------------------------------------------0-0-0-0-0-0-0-0-|
|-6-6-6-6-6-6-6-6-8-8-8-8-8-8-8-8-9-9-9-9-9-9-9-9-6-6-6-6-6-6-6-6-|
|-6-6-6-6-6-6-6-6-9-9-9-9-9-9-9-9-9-9-9-9-9-9-9-9-7-7-7-7-7-7-7-7-|
|-4-4-4-4-4-4-4-4-6-6-6-6-6-6-6-6-7-7-7-7-7-7-7-7-7-7-7-7-7-7-7-7-|
|-------------------------------------------------5-5-5-5-5-5-5-5-|
   * * * * * * * * * * * * * * * * * * * * * * * *
  C#m             B/Eb             E              A
|-0-0-0-0-0-0-0-0-0-0-0-0-0-0-0-0-0-0-0-0-0-0-0-0-0-0-0-0-0-0-0-0-|
|-0-0-0-0-0-0-0-0-0-0-0-0-0-0-0-0-0-0-0-0-0-0-0-0-0-0-0-0-0-0-0-0-|
|-6-6-6-6-6-6-6-6-8-8-8-8-8-8-8-8-9-9-9-9-9-9-9-9-6-6-6-6-6-6-6-6-|
|-6-6-6-6-6-6-6-6-9-9-9-9-9-9-9-9-9-9-9-9-9-9-9-9-7-7-7-7-7-7-7-7-|
|-4-4-4-4-4-4-4-4-6-6-6-6-6-6-6-6-7-7-7-7-7-7-7-7-7-7-7-7-7-7-7-7-|
|-------------------------------------------------5-5-5-5-5-5-5-5-|
  C#m             B/Eb             E
|-0-0-0-0-0-0-0-0-0-0-0-0-0-0-0-0-0-----------------------|
|-0-0-0-0-0-0-0-0-0-0-0-0-0-0-0-0-0-----------------------|
|-6-6-6-6-6-6-6-6-8-8-8-8-8-8-8-8-8-----------------------|
|-6-6-6-6-6-6-6-6-9-9-9-9-9-9-9-9-9-----------------------|
|-4-4-4-4-4-4-4-4-6-6-6-6-6-6-6-6-8-----------------------|
|---------------------------------------------------------|


Chorus-
E                  A              E              A
|-----------------------------------------------------------------|
|-----------------------------------------------------------------|
|-11--------------6-6-6-6-6-6-6-6-1-1-1-1-1-1-1-1-6-6-6-6-6-6-6-6-|
|-22--------------7-7-7-7-7-7-7-7-2-2-2-2-2-2-2-2-7-7-7-7-7-7-7-7-|
|-22--------------7-7-7-7-7-7-7-7-2-2-2-2-2-2-2-2-7-7-7-7-7-7-7-7-|
|-00--------------5-5-5-5-5-5-5-5-0-0-0-0-0-0-0-0-5-5-5-5-5-5-5-5-|
  C#m             A               E              B
|-----------------------------------------------------------------|
|-----------------------------------------------------------------|
|-6-6-6-6-6-6-6-6-2-2-2-2-2-2-2-2-1-1-1-1-1-1-1-1-4-4-4-4-4-4-4-4-|
|-6-6-6-6-6-6-6-6-2-2-2-2-2-2-2-2-2-2-2-2-2-2-2-2-4-4-4-4-4-4-4-4-|2x
|-4-4-4-4-4-4-4-4-0-0-0-0-0-0-0-0-2-2-2-2-2-2-2-2-2-2-2-2-2-2-2-2-|
|---------------------------------0-0-0-0-0-0-0-0-----------------|

GtrII
|----------------------------------------------------------|
|----------------------------------------------------------|
|-99-------------------------------------------------------|
|-99----------------------11111111111111111111111111111111-|
|-77-------------------------------------------------------|
|----------------------------------------------------------|

|----------------------------------------------------------|
|-999999999999-12-12-12-12---------------------------------|
|-----------------------------999999999999-11-11-11-11-----|
|----------------------------------------------------------|
|----------------------------------------------------------|
|----------------------------------------------------------|

|------------------------------------------------------------|
|-1212121212121212-1010101010101010-99999999-----------------|
|-------------------------------------------1111111111111111-|
|------------------------------------------------------------|
|------------------------------------------------------------|
|------------------------------------------------------------|

|-----------------------------------------------------------|
|-1212121212121212------------------------------------------|
|------------------1111111111111111-99999999-88888888-------|
|-----------------------------------------------------------|
|-----------------------------------------------------------|
|-----------------------------------------------------------|

Outro-
GtrI
E                  A              E              A
|-----------------------------------------------------------------|
|-----------------------------------------------------------------|
|-1-1-1-1-1-1-1-1-6-6-6-6-6-6-6-6-1-1-1-1-1-1-1-1-6-6-6-6-6-6-6-6-|
|-2-2-2-2-2-2-2-2-7-7-7-7-7-7-7-7-2-2-2-2-2-2-2-2-7-7-7-7-7-7-7-7-|till fade
|-2-2-2-2-2-2-2-2-7-7-7-7-7-7-7-7-2-2-2-2-2-2-2-2-7-7-7-7-7-7-7-7-|
|-0-0-0-0-0-0-0-0-5-5-5-5-5-5-5-5-0-0-0-0-0-0-0-0-5-5-5-5-5-5-5-5-|

GtrII
<---------7x---------------------------------------------------------|
|----------------------|---------------------------------------------|
|----------------------|---------------------------------------------|
|-999-88888-444-66666--|--999-88888-444-66666--111111-1313131313-----|
|-999-66666-666-44444--|--999-66666-666-44444--131313-1414141414-----|
|----------------------|---------------------------------------------|
|----------------------|---------------------------------------------|

end
|-0~---------------------------------------------------------------|
|-0~---------------------------------------------------------------|
|-1~---------------------------------------------------------------|
|-2~---------------------------------------------------------------|
|-2~---------------------------------------------------------------|
|-0~---------------------------------------------------------------|


                                      END
comments
print report bad tab
I want to post or [tab]
guest
You may want to rate the tab now too:
select rating
Please do not post tabs as comments. Select "correction" instead!