Oops, an error
Loading. Please wait.

Careful Tab

ver3
ver3
More versions @911Tabs.com
40,155 views 25 this week
1 commentread comment
1 2 3 4 5
accurate
x 4
Autoscroll
+/-
esc
set tempo
stop
Contributor
Difficulty
Tuning
Tabbers playing skills
intermediate
C# G# C# F# A# D#
advanced +
WARNING: You are trying to view
                                    content from Ultimate-Guitar.com
                                    in an unauthorized application,
                                    which is prohibited.

                                    Please use an official Ultimate
                                    Guitar Tabs application for iPhone,
                                    iPad or Android to access legitimate
                                    chords, guitar, bass, and drum tabs
                                    from Ultimate-Guitar.com database.

                                    Type "ultimate guitar tabs" in Apple
                                    App Store's or Android Market's
                                    search to find the application.
PLS LIKE OUR BAND FAN PAGE @ FACEBOOK - https://www.facebook.com/SinceAstrid

Tabbed by Francis Twister
From Paramore Phillipines(PARAWHORES)


Tuning - Drop C #
Intro--
R
GtrI                                                                   Verse 
|-----------------------------------|----=----------------------------------|
|-----------------------------------|---------------------------------------|
|-66-6-7h9---------------6-7h9------|-66--6-7h9--------------6-7h9----------|
|-44---------777-99~-44---------222-|-44---------777-99~-44---------222--4~-|
|-44---------777-99~-44---------222-|-44---------777-99~-44---------222--4~-|
|-44---------777-99~-44---------222-|-44---------777-99~-44---------222--4~-|

GtrII
|--------------------------------17----------------------------------|  ----|
|-9h10-9h10-9--------14h15p14-17-------9h10-9h10-9---------12-10-9---|  10~-|
|--------------11-9---------------------------------11-9-------------|2x----|
|----------------------------------------------------------9--7--6---|  ----|
|--------------------------------------------------------------------|  ----|
|--------------------------------------------------------------------|  ----|iff 1

Verse
Riff 2
GtrI
|-------------------------------------------------------------------|
|-------------------------------------------------------------------|
|-------------------------------------------------------------------|
|-00000000-22222222--4~----------------------00000000-22222222------|
|-00000000-22222222--4~----------------------00000000-22222222------|
|-00000000-22222222--4~----------------------00000000-22222222------|

GtrII
|------12----12-----12------9~--|------12-----12----12-----------|
|---10-----10----------2x---10~-|----10-----10--------2x---------|
|-11-----11----11-----------12~-|--11-----11----11---------------|
|-------------------------------|--------------------------------|
|-------------------------------|--------------------------------|
|-------------------------------|--------------------------------|

Riff 3
GtrI
|-------------------------------------------------------------------|
|-------------------------------------------------------------------|
|-------------------------------------------------------------------|
|-----------------------------------------------------------------0-|
|-44444444-77777777-22222222-00000000--44444444-77777777-22222222-0-|
|-44444444-77777777-22222222-00000000--44444444-77777777-22222222-0-|
  ******** ******** ******** ********  ******** ******** ******** 
GtrII palm mute
|-----------------------------------------------------------------------------|
|-----------------------------------------------------------------------------|
|-----------------------------------------------------------------------------|
|-11---11---11---11---11---11---11---11---9---9---9---9---11---11---11---11---|
|---12---12---12---12---11---11---11---11--11--11--11--11---12---12---12---12-|
|-----------------------------------------------------------------------------|

|------------------------------------------------------------|
|------------------------------------------------------------|
|------------------------------------------------------------|
|-11---11---11---11---11---11---11---11---9---9---9---9---7--|
|---12---12---12---12---11---11---11---11--11--11--11--11--9-|
|------------------------------------------------------------|


Riff 4
GtrI
|------------------------------------------------------------------------|
|------------------------------------------------------------------------|
|------------------------------------------------------------------------|
|-44444444-00000000-77777777-99999999-44444444-0000000-77777777-22222222-|
|-44444444-00000000-77777777-99999999-44444444-0000000-77777777-22222222-|
|-44444444-00000000-77777777-99999999-44444444-0000000-77777777-22222222-|

GtrII

|------------------------------------------------------------------------|
|------------------------------------------------------------------------|
|-11-11-11----------9999999999----11-11-11-------------------------------|
|----------11-11-11-------------------------11-11-11---9999999999--------|2x
|------------------------------------------------------------------------|
|------------------------------------------------------------------------|

Riff 5
GtrI
|----------------------------------------------------------------------|
|----------------------------------------------------------------------|
|---------------------------------------------------------------6/7\6--|
|-9~----9~----4~-------7~-----------9~----9~--------4~----2222---------|
|-9~----9~----4~-------7~-----------9~----9~--------4~----2222--4/5\4--|
|-9~----9~----4~-------7~-----------9~----9~--------4~----2222---------|

GtrII

|--------9~-----------------------------------9~-----------------------|
|-----7--------7----10~--12~--10~----------7--------7---10~---12~------|
|-7h9------7h9--------11---11-----11/--7h9------7h9-------11-----6/7\6-|
|----------------------------------------------------------------------|
|----------------------------------------------------------------4/5\4-|
|----------------------------------------------------------------------|


 Riff 1.5
Do intro

Repeat Riff 2

Riff 3GtrI
|-------------------------------------------------------------------|
|-------------------------------------------------------------------|
|-------------------------------------------------------------------|
|---------------------------------000-----------------------------0-|
|-44444444-77777777-22222222-00000000--44444444-77777777-22222222-0-|
|-44444444-77777777-22222222-00000000--44444444-77777777-22222222-0-|
  ******** ******** ******** *****     ******** ******** ******** 
GtrII
GtrII palm mute
|-----------------------------------------------------------------------------|
|-----------------------------------------------------------------------------|
|-----------------------------------------------------------------------------|
|-11---11---11---11---11---11---11---11---9---9---9---9---11---11---11---11---|
|---12---12---12---12---11---11---11---11--11--11--11--11---12---12---12---12-|
|-----------------------------------------------------------------------------|

|------------------------------------------------------------|
|------------------------------------------------------------|
|------------------------------------------------------------|
|-11---11---11---11---11---11---11---11---9---9---9---9---7--|
|---12---12---12---12---11---11---11---11--11--11--11--11--9-|
|------------------------------------------------------------|  

Repeat Riff 4 & 5

Riff 6
GtrI
|-----------------------------------------------------------------------------|
|-----------------------------------------------------------------------------|
|-----------------------------------------------------------------------------|
|-9~-9~-9~-0~-0~-0~-7~-7~-7~-2~-2~-2~----9~-9~-9~-0~-0~-0~-7~-7~-7~-2~-2~-2~--|
|-9~-9~-9~-0~-0~-0~-7~-7~-7~-2~-2~-2~----9~-9~-9~-0~-0~-0~-7~-7~-7~-2~-2~-2~--|
|-9~-9~-9~-0~-0~-0~-7~-7~-7~-2~-2~-2~----9~-9~-9~-0~-0~-0~-7~-7~-7~-2~-2~-2~--|
GtrII
|----------------------------17~--16~------------------------------17~--16~---|
|-9~-10~------------14~-17~--------------9~-10~------------14~-17~------------|
|----------11~--9~--------------------------------11~--9~---------------------|
|-----------------------------------------------------------------------------|
|-----------------------------------------------------------------------------|
|-----------------------------------------------------------------------------|

Riff 7
GtrI
|-------------------------------------------------------------------|
|-------------------------------------------------------------------|
|-------------------------------------------------------------------|
|-9-9------0-0-------7-7--------2-2------9-9----0-0-0----7-7----22--|
|-9-9------0-0-------7-7--------2-2------9-9----0-0-0----7-7----22--|
|-9-9------0-0-------7-7--------2-2------9-9----0-0-0----7-7----22--|
GtrII

|---------------------------------------------------------------------|
|---------------------------------------------------------------------|
|-1111-----1414--14/-6-6---/--13/-4-----1111--141414--14/-6-6-/-13/-4-|
|---------------------------------------------------------------------|
|-9-9------1212--12/-4-4---/--11/-2-----9-9---121212--12/-4-4-/-11/-2-|
|---------------------------------------------------------------------|

Riff 8
GtrI
|-----------------------------------------------------------------------------------|
|-----------------------------------------------------------------------------------|
|-----------------------------------------------------------------------------------|
|-----------------------------------------------------------------------------------|
|-44444444-777-999999-44444444-222222222--44444444-777-999999-44444444-22222222-----|
|-44444444-777-999999-44444444-222222222--44444444-777-999999-44444444-22222222-----|
  ******** *** ****** ******** *********  ******** *** ****** ******** ********
GtrII
|-----------------------------------------------------------------------------------|
|-----------------------------------------------------------------------------------|
|-----------------------------------------------------------------------------------|
|-11111111-11-12-1414141414141414141414---11111111-11-12-1414-----------------------|
|------------------------------------------------------------121212--111111111111---|
|-----------------------------------------------------------------------------------|
  * * * *  *  *  * * * * * * * * * * *    * * * *  *  *  * * * * *   * * * * * *
|-----------------------------------------------------------------------------------|
|-----------------------------------------------------------------------------------|
|-----------------------------------------------------------------------------------|
|-11111111-11-12-1414141414141414141414---11111111-11-12-1414-----------------------|
|------------------------------------------------------------121212--1111-111111----|
|-----------------------------------------------------------------------------------|
  * * * *  *  *  * * * * * * * * * * *    * * * *  *  *  * * * * *   * * 
Riff 9
GtrI
|-2------------0--------------2--------------0----------------------|
|-2------------2--------------2--------------0----------------------|
|-2------------2--------------2--------------1----------------------|
|-4------------2--------------4--------------2----------------------|
|-4------------0--------------4--------------2----------------------|
|-------------------------------------------------------------------|
GtrI

|-------------------------------------------------------------------|
|-------------------------------------------------------------------|
|-------------------------------------------------------------------|
|-4~----------2~--------------4~------------------------------------|
|-------4~----------------------------4~------2~--------------------|
|-------------------------------------------------------------------|
Riff 4 & 5 & Main riff
Outro..do intro.
comments
print report bad tab
1 comment total.
0 reply
saroit wrote on August 31 2009, 06:57 am

good job on this tab

I want to post or [tab]
guest
You may want to rate the tab now too:
select rating
Please do not post tabs as comments. Select "correction" instead!